  0
SECTION
  2
HEADER
  9
$ACADVER
  1
AC1009
  9
$INSBASE
 10
0.0
 20
0.0
 30
0.0
  9
$EXTMIN
 10
1402.1830856406959
 20
-0.0811705646119663
 30
-0.0015258207003583
  9
$EXTMAX
 10
3890.118722436313
 20
2343.897710903429
 30
0.0000000349246037
  9
$LIMMIN
 10
0.0
 20
0.0
  9
$LIMMAX
 10
3890.0
 20
2660.0
  9
$ORTHOMODE
 70
     1
  9
$REGENMODE
 70
     1
  9
$FILLMODE
 70
     1
  9
$QTEXTMODE
 70
     0
  9
$MIRRTEXT
 70
     0
  9
$DRAGMODE
 70
     2
  9
$LTSCALE
 40
100.0
  9
$OSMODE
 70
  3071
  9
$ATTMODE
 70
     1
  9
$TEXTSIZE
 40
25.0
  9
$TRACEWID
 40
0.05
  9
$TEXTSTYLE
  7
TITLE3
  9
$CLAYER
  8
DIM
  9
$CELTYPE
  6
BYLAYER
  9
$CECOLOR
 62
   256
  9
$DIMSCALE
 40
1.0
  9
$DIMASZ
 40
0.12
  9
$DIMEXO
 40
0.05
  9
$DIMDLI
 40
0.5
  9
$DIMRND
 40
0.0
  9
$DIMDLE
 40
0.0
  9
$DIMEXE
 40
0.1
  9
$DIMTP
 40
0.1
  9
$DIMTM
 40
0.1
  9
$DIMTXT
 40
0.12
  9
$DIMCEN
 40
0.0
  9
$DIMTSZ
 40
0.0
  9
$DIMTOL
 70
     0
  9
$DIMLIM
 70
     0
  9
$DIMTIH
 70
     1
  9
$DIMTOH
 70
     1
  9
$DIMSE1
 70
     0
  9
$DIMSE2
 70
     0
  9
$DIMTAD
 70
     0
  9
$DIMZIN
 70
     7
  9
$DIMBLK
  1

  9
$DIMASO
 70
     0
  9
$DIMSHO
 70
     0
  9
$DIMPOST
  1

  9
$DIMAPOST
  1
mm
  9
$DIMALT
 70
     0
  9
$DIMALTD
 70
     2
  9
$DIMALTF
 40
25.399999999999999
  9
$DIMLFAC
 40
1.0
  9
$DIMTOFL
 70
     0
  9
$DIMTVP
 40
0.0
  9
$DIMTIX
 70
     0
  9
$DIMSOXD
 70
     0
  9
$DIMSAH
 70
     0
  9
$DIMBLK1
  1

  9
$DIMBLK2
  1

  9
$DIMSTYLE
  2
AM_ANSI
  9
$DIMCLRD
 70
   256
  9
$DIMCLRE
 70
   256
  9
$DIMCLRT
 70
     2
  9
$DIMTFAC
 40
0.71
  9
$DIMGAP
 40
0.06
  9
$LUNITS
 70
     2
  9
$LUPREC
 70
     2
  9
$SKETCHINC
 40
0.1
  9
$FILLETRAD
 40
0.0
  9
$AUNITS
 70
     0
  9
$AUPREC
 70
     2
  9
$MENU
  1
\acad12\support\cnc
  9
$ELEVATION
 40
0.0
  9
$PELEVATION
 40
0.0
  9
$THICKNESS
 40
0.0
  9
$LIMCHECK
 70
     0
  9
$BLIPMODE
 70
     0
  9
$CHAMFERA
 40
0.0
  9
$CHAMFERB
 40
0.0
  9
$SKPOLY
 70
     0
  9
$TDCREATE
 40
2450764.4272488421
  9
$TDUPDATE
 40
2455223.5300115282
  9
$TDINDWG
 40
0.7560186458
  9
$TDUSRTIMER
 40
0.7560173611
  9
$USRTIMER
 70
     1
  9
$ANGBASE
 50
0.0
  9
$ANGDIR
 70
     0
  9
$PDMODE
 70
     2
  9
$PDSIZE
 40
10.0
  9
$PLINEWID
 40
0.0
  9
$COORDS
 70
     1
  9
$SPLFRAME
 70
     0
  9
$SPLINETYPE
 70
     6
  9
$SPLINESEGS
 70
     8
  9
$ATTDIA
 70
     1
  9
$ATTREQ
 70
     1
  9
$HANDLING
 70
     1
  9
$HANDSEED
  5
44D8
  9
$SURFTAB1
 70
     6
  9
$SURFTAB2
 70
     6
  9
$SURFTYPE
 70
     6
  9
$SURFU
 70
     6
  9
$SURFV
 70
     6
  9
$UCSNAME
  2

  9
$UCSORG
 10
0.0
 20
0.0
 30
0.0
  9
$UCSXDIR
 10
1.0
 20
0.0
 30
0.0
  9
$UCSYDIR
 10
0.0
 20
1.0
 30
0.0
  9
$PUCSNAME
  2

  9
$PUCSORG
 10
0.0
 20
0.0
 30
0.0
  9
$PUCSXDIR
 10
1.0
 20
0.0
 30
0.0
  9
$PUCSYDIR
 10
0.0
 20
1.0
 30
0.0
  9
$USERI1
 70
     0
  9
$USERI2
 70
     0
  9
$USERI3
 70
     0
  9
$USERI4
 70
     0
  9
$USERI5
 70
     0
  9
$USERR1
 40
0.0
  9
$USERR2
 40
0.0
  9
$USERR3
 40
0.0
  9
$USERR4
 40
0.0
  9
$USERR5
 40
0.0
  9
$WORLDVIEW
 70
     1
  9
$SHADEDGE
 70
     3
  9
$SHADEDIF
 70
    70
  9
$TILEMODE
 70
     1
  9
$MAXACTVP
 70
    16
  9
$PLIMCHECK
 70
     0
  9
$PEXTMIN
 10
1.0000000000000000E+020
 20
1.0000000000000000E+020
 30
1.0000000000000000E+020
  9
$PEXTMAX
 10
-1.0000000000000000E+020
 20
-1.0000000000000000E+020
 30
-1.0000000000000000E+020
  9
$PLIMMIN
 10
0.0
 20
0.0
  9
$PLIMMAX
 10
12.0
 20
9.0
  9
$UNITMODE
 70
     0
  9
$VISRETAIN
 70
     0
  9
$PLINEGEN
 70
     0
  9
$PSLTSCALE
 70
     0
  0
ENDSEC
  0
SECTION
  2
TABLES
  0
TABLE
  2
VPORT
 70
     1
  0
VPORT
  2
*ACTIVE
 70
     0
 10
0.0
 20
0.0
 11
1.0
 21
1.0
 12
2646.1509040385049
 22
1171.9082701694081
 13
0.0
 23
0.0
 14
25.0
 24
25.0
 15
100.0
 25
100.0
 16
0.0
 26
0.0
 36
1.0
 17
0.0
 27
0.0
 37
0.0
 40
2360.1256935103002
 41
1.845977011494252
 42
50.0
 43
0.0
 44
0.0
 50
0.0
 51
0.0
 71
     0
 72
   100
 73
     1
 74
     0
 75
     0
 76
     0
 77
     0
 78
     0
  0
ENDTAB
  0
TABLE
  2
LTYPE
 70
    18
  0
LTYPE
  2
CONTINUOUS
 70
     0
  3
Solid line
 72
    65
 73
     0
 40
0.0
  0
LTYPE
  2
PHANTOM
 70
     0
  3
Phantom ______  __  __  ______  __  __  ______
 72
    65
 73
     6
 40
2.5
 49
1.25
 49
-0.25
 49
0.25
 49
-0.25
 49
0.25
 49
-0.25
  0
LTYPE
  2
HIDDEN
 70
     0
  3
__ __ __ __ __ __ __ __ __ __ __ __ __ __ __ __
 72
    65
 73
     2
 40
0.375
 49
0.25
 49
-0.125
  0
LTYPE
  2
PHANTOM2
 70
     0
  3
Phantom (.5x) ___ _ _ ___ _ _ ___ _ _ ___ _ _
 72
    65
 73
     6
 40
1.25
 49
0.625
 49
-0.125
 49
0.125
 49
-0.125
 49
0.125
 49
-0.125
  0
LTYPE
  2
CENTER
 70
     0
  3
Center ____ _ ____ _ ____ _ ____ _ ____ _ ____
 72
    65
 73
     4
 40
2.0
 49
1.25
 49
-0.25
 49
0.25
 49
-0.25
  0
LTYPE
  2
AM_ISO02W050
 70
     0
  3
__ __ __ __ __ __ __ __ __ __ __ __ __ __ __
 72
    65
 73
     2
 40
7.5
 49
6.0
 49
-1.5
  0
LTYPE
  2
AM_ISO08W050
 70
     0
  3
____ . ____ . ____ . ____ . ____ . ____ . ____
 72
    65
 73
     4
 40
18.0
 49
12.0
 49
-1.5
 49
3.0
 49
-1.5
  0
LTYPE
  2
AM_ISO09W050
 70
     0
  3
_____ . . _____ . . _____ . . ____ .. ____
 72
    65
 73
     6
 40
22.5
 49
12.0
 49
-1.5
 49
3.0
 49
-1.5
 49
3.0
 49
-1.5
  0
LTYPE
  2
AMCONSTR
 70
     0
  3
_______________________
 72
    65
 73
     2
 40
9999.0
 49
9999.0
 49
0.0
  0
LTYPE
  2
AM_ISO08W050X2
 70
     0
  3
__ . __ . __ . __ . __ . __
 72
    65
 73
     4
 40
9.0
 49
6.0
 49
-0.75
 49
1.5
 49
-0.75
  0
LTYPE
  2
AM_ISO02W050X2
 70
     0
  3
 _ _ _ _ _ _ _ _ _ _ _ _
 72
    65
 73
     2
 40
3.75
 49
3.0
 49
-0.75
  0
LTYPE
  2
AMZIGZAG
 70
     0
  3
/\/-/\/-/\/-/\/-/\/-/\/
 72
    65
 73
     2
 40
11.0001
 49
0.0001
 49
-11.0
  0
LTYPE
  2
CENTER2
 70
     0
  3
Center (.5x) ___ _ ___ _ ___ _ ___ _ ___ _ ___
 72
    65
 73
     4
 40
1.125
 49
0.75
 49
-0.125
 49
0.125
 49
-0.125
  0
LTYPE
  2
HIDDEN2
 70
     0
  3
Hidden (.5x) _ _ _ _ _ _ _ _ _ _ _ _ _ _ _ _ _
 72
    65
 73
     2
 40
0.1875
 49
0.125
 49
-0.0625
  0
LTYPE
  2
AMZIGZAG2
 70
     0
  3
/\/-/\/-/\/-/\/-/\/-/\/
 72
    65
 73
     2
 40
0.4401
 49
0.0001
 49
-0.4400000000000002
  0
LTYPE
  2
ACANSTGB
 70
     0
  3
__ . . __ . .
 72
    65
 73
     6
 40
0.35433070866
 49
0.15748031496
 49
-0.03937007874
 49
0.03937007874
 49
-0.03937007874
 49
0.03937007874
 49
-0.03937007874
  0
LTYPE
  2
ACANSTGL
 70
     0
  3
_ _ _ _ _
 72
    65
 73
     2
 40
0.11811023622
 49
0.07874015748
 49
-0.03937007874
  0
ENDTAB
  0
TABLE
  2
LAYER
 70
     7
  0
LAYER
  2
0
 70
     0
 62
     7
  6
CONTINUOUS
  0
LAYER
  2
DIM
 70
     0
 62
     7
  6
CONTINUOUS
  0
LAYER
  2
OUTLINE
 70
     0
 62
     7
  6
CONTINUOUS
  0
LAYER
  2
OVERLAY-A3
 70
     0
 62
     7
  6
CONTINUOUS
  0
LAYER
  2
TEXT
 70
     0
 62
     7
  6
CONTINUOUS
  0
LAYER
  2
LOGO
 70
     0
 62
    46
  6
CONTINUOUS
  0
LAYER
  2
VISIBLE__ANSI_
 70
     0
 62
     7
  6
CONTINUOUS
  0
ENDTAB
  0
TABLE
  2
STYLE
 70
     8
  0
STYLE
  2
STANDARD
 70
     0
 40
0.0
 41
1.0
 50
0.0
 71
     0
 42
0.2
  3
txt
  4

  0
STYLE
  2
ANNOTATIVE
 70
     0
 40
0.0
 41
1.0
 50
0.0
 71
     0
 42
0.2
  3
txt
  4

  0
STYLE
  2
TITLE3
 70
     0
 40
25.0
 41
1.0
 50
0.0
 71
     0
 42
25.0
  3
SIMPLEX.shx
  4

  0
STYLE
  2
SIMPLEX
 70
     0
 40
40.0
 41
1.0
 50
0.0
 71
     0
 42
25.0
  3
SIMPLEX
  4

  0
STYLE
  2
TITLE5
 70
     0
 40
25.0
 41
1.0
 50
0.0
 71
     0
 42
25.0
  3
SIMPLEX
  4

  0
STYLE
  2

 70
     1
 40
0.0
 41
1.0
 50
0.0
 71
     0
 42
25.0
  3
genltshp.shx
  4

  0
STYLE
  2
ACANSTS
 70
     0
 40
1.0
 41
1.0
 50
0.0
 71
     0
 42
25.0
  3
romans.shx
  4

  0
STYLE
  2
ACANSGDT
 70
     0
 40
0.0
 41
1.0
 50
0.0
 71
     0
 42
25.0
  3
amgdt.shx
  4

  0
ENDTAB
  0
TABLE
  2
VIEW
 70
     0
  0
ENDTAB
  0
TABLE
  2
UCS
 70
     0
  0
ENDTAB
  0
TABLE
  2
APPID
 70
    25
  0
APPID
  2
ACAD
 70
     0
  0
APPID
  2
ACADANNOTATIVE
 70
     0
  0
APPID
  2
ACAD_MLEADERVER
 70
     0
  0
APPID
  2
ACAD_EXEMPT_FROM_CAD_STANDARDS
 70
     0
  0
APPID
  2
ACAECLAYERSTANDARD
 70
     0
  0
APPID
  2
ACAD_DSTYLE_DIMTEXT_FILL
 70
     0
  0
APPID
  2
ACAD_DSTYLE_DIMEXT_LENGTH
 70
     0
  0
APPID
  2
ACAD_DSTYLE_DIMEXT_ENABLED
 70
     0
  0
APPID
  2
ACAD_DSTYLE_DIM_LINETYPE
 70
     0
  0
APPID
  2
ACAD_DSTYLE_DIM_EXT1_LINETYPE
 70
     0
  0
APPID
  2
ACAD_DSTYLE_DIM_EXT2_LINETYPE
 70
     0
  0
APPID
  2
ACAD_DSTYLE_DIMJOGGED_JOGA
 70
     0
  0
APPID
  2
ACAD_DSTYLE_DIMARC_LENGTH_
 70
     0
  0
APPID
  2
ACAD_PSEXT
 70
     0
  0
APPID
  2
CONTENTBLOCKICON
 70
     0
  0
APPID
  2
ACAD_DSTYLE_DIMJAG
 70
     0
  0
APPID
  2
ACAD_DSTYLE_DIMTALN
 70
     0
  0
APPID
  2
MCAD_NO_VIS
 70
     0
  0
APPID
  2
ACAD_TEMP_GRAPHIC
 70
     0
  0
APPID
  2
AD_DRAW
 70
     0
  0
APPID
  2
ACATTRIBSERVICES
 70
     0
  0
APPID
  2
DESIGNERASSEMBLIES
 70
     0
  0
APPID
  2
ACADM_DIM_EDIT
 70
     0
  0
APPID
  2
AMDT_DM_ADJ
 70
     0
  0
APPID
  2
ACAD_DSTYLE_DIMBREAK
 70
     0
  0
ENDTAB
  0
TABLE
  2
DIMSTYLE
 70
     9
  0
DIMSTYLE
  2
STANDARD
 70
     0
  3

  4

  5

  6

  7

 40
1.0
 41
0.18
 42
0.0625
 43
0.38
 44
0.18
 45
0.0
 46
0.0
 47
0.0
 48
0.0
140
0.18
141
0.09
142
0.0
143
25.399999999999999
144
1.0
145
0.0
146
1.0
147
0.09
 71
     0
 72
     0
 73
     1
 74
     1
 75
     0
 76
     0
 77
     0
 78
     0
170
     0
171
     2
172
     0
173
     0
174
     0
175
     0
176
     0
177
     0
178
     0
  0
DIMSTYLE
  2
ANNOTATIVE
 70
     0
  3

  4

  5

  6

  7

 40
1.0
 41
0.18
 42
0.0625
 43
0.38
 44
0.18
 45
0.0
 46
0.0
 47
0.0
 48
0.0
140
0.18
141
0.09
142
0.0
143
25.399999999999999
144
1.0
145
0.0
146
1.0
147
0.09
 71
     0
 72
     0
 73
     1
 74
     1
 75
     0
 76
     0
 77
     0
 78
     0
170
     0
171
     2
172
     0
173
     0
174
     0
175
     0
176
     0
177
     0
178
     0
  0
DIMSTYLE
  2
COPY_OF_STANDARD
 70
     0
  3

  4

  5

  6

  7

 40
1.0
 41
30.0
 42
20.0
 43
0.38
 44
20.0
 45
0.0
 46
0.0
 47
0.0
 48
0.0
140
25.0
141
0.09
142
0.0
143
25.399999999999999
144
1.0
145
0.0
146
1.0
147
20.0
 71
     0
 72
     0
 73
     0
 74
     0
 75
     0
 76
     0
 77
     0
 78
     0
170
     0
171
     2
172
     0
173
     0
174
     0
175
     0
176
     7
177
     7
178
     7
  0
DIMSTYLE
  2
AM_ANSI
 70
     0
  3

  4
mm
  5

  6

  7

 40
1.0
 41
0.12
 42
0.05
 43
0.5
 44
0.1
 45
0.0
 46
0.0
 47
0.1
 48
0.1
140
0.12
141
0.0
142
0.0
143
25.399999999999999
144
1.0
145
0.0
146
0.71
147
0.06
 71
     0
 72
     0
 73
     1
 74
     1
 75
     0
 76
     0
 77
     0
 78
     7
170
     0
171
     2
172
     0
173
     0
174
     0
175
     0
176
   256
177
   256
178
     2
  0
DIMSTYLE
  2
AM_ANSI$3
 70
     0
  3

  4
mm
  5

  6

  7

 40
1.0
 41
0.12
 42
0.05
 43
0.5
 44
0.1
 45
0.0
 46
0.0
 47
0.1
 48
0.1
140
0.12
141
0.0
142
0.0
143
25.399999999999999
144
1.0
145
0.0
146
0.71
147
0.06
 71
     0
 72
     0
 73
     1
 74
     1
 75
     0
 76
     0
 77
     0
 78
     7
170
     0
171
     2
172
     0
173
     0
174
     0
175
     0
176
   256
177
   256
178
     2
  0
DIMSTYLE
  2
AM_ANSI$4
 70
     0
  3

  4
mm
  5

  6

  7

 40
1.0
 41
0.12
 42
0.05
 43
0.5
 44
0.1
 45
0.0
 46
0.0
 47
0.1
 48
0.1
140
0.12
141
0.0
142
0.0
143
25.399999999999999
144
1.0
145
0.0
146
0.71
147
0.06
 71
     0
 72
     0
 73
     1
 74
     1
 75
     0
 76
     0
 77
     0
 78
     7
170
     0
171
     2
172
     0
173
     0
174
     0
175
     0
176
   256
177
   256
178
     2
  0
DIMSTYLE
  2
AM_ANSI$7
 70
     0
  3

  4
mm
  5

  6

  7

 40
1.0
 41
0.12
 42
0.05
 43
0.5
 44
0.1
 45
0.0
 46
0.0
 47
0.1
 48
0.1
140
0.12
141
0.0
142
0.0
143
25.399999999999999
144
1.0
145
0.0
146
0.71
147
0.06
 71
     0
 72
     0
 73
     1
 74
     1
 75
     0
 76
     0
 77
     0
 78
     7
170
     0
171
     2
172
     0
173
     0
174
     0
175
     0
176
   256
177
   256
178
     2
  0
DIMSTYLE
  2
AM_ANSI$SF
 70
     0
  3

  4
mm
  5

  6

  7

 40
1.0
 41
0.12
 42
0.05
 43
0.5
 44
0.1
 45
0.0
 46
0.0
 47
0.1
 48
0.1
140
0.12
141
0.0
142
0.0
143
25.399999999999999
144
1.0
145
0.0
146
0.71
147
0.06
 71
     0
 72
     0
 73
     1
 74
     1
 75
     1
 76
     1
 77
     0
 78
     7
170
     0
171
     2
172
     0
173
     0
174
     0
175
     0
176
   256
177
   256
178
     2
  0
DIMSTYLE
  2
AM_ANSI$SH
 70
     0
  3

  4
mm
  5

  6

  7

 40
1.0
 41
0.12
 42
0.05
 43
0.5
 44
0.1
 45
0.0
 46
0.0
 47
0.1
 48
0.1
140
0.12
141
0.0
142
0.0
143
25.399999999999999
144
1.0
145
0.0
146
0.71
147
0.06
 71
     0
 72
     0
 73
     1
 74
     1
 75
     1
 76
     1
 77
     0
 78
     7
170
     0
171
     2
172
     0
173
     1
174
     0
175
     0
176
   256
177
   256
178
     2
  0
ENDTAB
  0
ENDSEC
  0
SECTION
  2
BLOCKS
  0
BLOCK
  8
0
  2
$MODEL_SPACE
 70
     0
 10
0.0
 20
0.0
 30
0.0
  3
$MODEL_SPACE
  1

  0
ENDBLK
  5
434F
  8
0
  0
BLOCK
 67
     1
  8
0
  2
$PAPER_SPACE
 70
     0
 10
0.0
 20
0.0
 30
0.0
  3
$PAPER_SPACE
  1

  0
ENDBLK
  5
434B
 67
     1
  8
0
  0
BLOCK
  8
0
  2
LOGO2000
 70
     0
 10
0.0
 20
0.0
 30
0.0
  3
LOGO2000
  1

  0
POLYLINE
  5
54
  8
LOGO
 66
     1
 10
0.0
 20
0.0
 30
0.0
  0
VERTEX
  5
3D24
  8
LOGO
 10
49.219131931186489
 20
-6.782712678961782
 30
0.0
  0
VERTEX
  5
3D25
  8
LOGO
 10
53.049682891584041
 20
-6.782712678961782
 30
0.0
  0
VERTEX
  5
3D26
  8
LOGO
 10
53.049682891584041
 20
-6.2290984970952641
 30
0.0
 42
0.1552167717870263
  0
VERTEX
  5
3D27
  8
LOGO
 10
52.495475552635241
 20
-4.4868407724896144
 30
0.0
 42
0.1207226519396385
  0
VERTEX
  5
3D28
  8
LOGO
 10
51.876067283049217
 20
-3.9495089810404229
 30
0.0
 42
0.0687879177603979
  0
VERTEX
  5
3D29
  8
LOGO
 10
51.248509897200393
 20
-3.7296912246436
 30
0.0
 42
0.0701112468287256
  0
VERTEX
  5
3D2A
  8
LOGO
 10
50.520432647930271
 20
-3.6862704412242229
 30
0.0
 42
0.1506173287574992
  0
VERTEX
  5
3D2B
  8
LOGO
 10
49.22728219038288
 20
-4.2018921636557423
 30
0.0
 42
0.0963974435047097
  0
VERTEX
  5
3D2C
  8
LOGO
 10
48.744664780655853
 20
-4.774649722768995
 30
0.0
 42
0.0296253852342835
  0
VERTEX
  5
3D2D
  8
LOGO
 10
48.543775921042368
 20
-5.1918413650504931
 30
0.0
 42
0.0999225787687863
  0
VERTEX
  5
3D2E
  8
LOGO
 10
48.31955635872599
 20
-6.3555601815650951
 30
0.0
 42
-0.0052225638131499
  0
VERTEX
  5
3D2F
  8
LOGO
 10
48.318935745804453
 20
-6.7425859349689281
 30
0.0
 42
0.0910253128131613
  0
VERTEX
  5
3D30
  8
LOGO
 10
48.514637972935418
 20
-7.8860810015878808
 30
0.0
 42
0.1277011283745241
  0
VERTEX
  5
3D31
  8
LOGO
 10
49.170391529640199
 20
-8.8342228793136997
 30
0.0
 42
0.1015023852737147
  0
VERTEX
  5
3D32
  8
LOGO
 10
49.684389323113322
 20
-9.1213122265444326
 30
0.0
 42
0.0097433099655614
  0
VERTEX
  5
3D33
  8
LOGO
 10
50.019098558270692
 20
-9.2203121806783201
 30
0.0
 42
0.0706661458394397
  0
VERTEX
  5
3D34
  8
LOGO
 10
50.684532762204697
 20
-9.3052769711352994
 30
0.0
 42
0.0060899112775245
  0
VERTEX
  5
3D35
  8
LOGO
 10
50.874656330643028
 20
-9.3002791182124156
 30
0.0
 42
0.0511370617167684
  0
VERTEX
  5
3D36
  8
LOGO
 10
51.510071384697511
 20
-9.2103164748325526
 30
0.0
 42
0.0992919644578148
  0
VERTEX
  5
3D37
  8
LOGO
 10
52.050422940132421
 20
-8.9554233942294559
 30
0.0
 42
0.0780935812178537
  0
VERTEX
  5
3D38
  8
LOGO
 10
52.560755345687781
 20
-8.4356402364097391
 30
0.0
 42
0.1337868928427721
  0
VERTEX
  5
3D39
  8
LOGO
 10
52.91928103030989
 20
-7.466589211086271
 30
0.0
  0
VERTEX
  5
3D3A
  8
LOGO
 10
52.084305205435399
 20
-7.466589211086271
 30
0.0
 42
-0.0961486639012014
  0
SEQEND
  5
3D3B
  8
LOGO
  0
ARC
  5
6E
  8
LOGO
 10
17.036532851568442
 20
0.6525381189195798
 30
0.0
 40
9.8994184161046181
 50
201.04507306780951
 51
259.98311761979949
  0
POLYLINE
  5
6F
  8
LOGO
 66
     1
 10
0.0
 20
0.0
 30
0.0
  0
VERTEX
  5
3D3C
  8
LOGO
 10
43.639036859892308
 20
-4.4815469658391294
 30
0.0
  0
VERTEX
  5
3D3D
  8
LOGO
 10
43.639036859892308
 20
-3.8349515858681111
 30
0.0
  0
VERTEX
  5
3D3E
  8
LOGO
 10
42.905444758441313
 20
-3.8349515858681111
 30
0.0
  0
VERTEX
  5
3D3F
  8
LOGO
 10
42.905444758441313
 20
-11.28117879832854
 30
0.0
  0
VERTEX
  5
3D40
  8
LOGO
 10
43.729424419143491
 20
-11.28117879832854
 30
0.0
  0
VERTEX
  5
3D41
  8
LOGO
 10
43.729424419143491
 20
-8.5178228574003452
 30
0.0
 42
2.1127219952860781
  0
SEQEND
  5
3D42
  8
LOGO
  0
ARC
  5
77
  8
LOGO
 10
16.530227916984181
 20
-0.2353878488848977
 30
0.0
 40
5.5037447999999971
 50
200.10550978791599
 51
275.38990049228892
  0
ARC
  5
78
  8
LOGO
 10
16.87421196698406
 20
-0.0633958238849175
 30
0.0
 40
5.1597607500000011
 50
200.10550978791599
 51
282.8601908027988
  0
ARC
  5
79
  8
LOGO
 10
5.7810769861243001
 20
-4.4960650520383751
 30
0.0
 40
10.054234843051701
 50
21.91631684140161
 51
81.656900430056751
  0
LINE
  5
7A
  8
LOGO
 10
2.751872399999852
 20
-5.3317527749999831
 30
0.0
 11
0.0
 21
0.0
 31
0.0
  0
LINE
  5
7B
  8
LOGO
 10
6.53569694999993
 20
-5.3317527749999831
 30
0.0
 11
4.671525324193448
 21
-1.7199202499999711
 31
0.0
  0
LINE
  5
7C
  8
LOGO
 10
2.751872399999852
 20
-5.3317527749999831
 30
0.0
 11
6.53569694999993
 21
-5.3317527749999831
 31
0.0
  0
ARC
  5
7D
  8
LOGO
 10
5.8586164797423521
 20
-4.4488734874326212
 30
0.0
 40
6.6972854946116254
 50
22.206292817893921
 51
86.496653098897738
  0
ARC
  5
7E
  8
LOGO
 10
5.9238824158460321
 20
-3.7838245499999901
 30
0.0
 40
2.063904299999999
 50
21.061817601649128
 51
90.0
  0
ARC
  5
7F
  8
LOGO
 10
5.5129724370820563
 20
-4.622196489821869
 30
0.0
 40
6.355414365104596
 50
22.273686059002621
 51
86.292949579917945
  0
LINE
  5
80
  8
LOGO
 10
0.0
 20
0.0
 30
0.0
 11
2.751872399999852
 21
5.3317527749999831
 31
0.0
  0
LINE
  5
81
  8
LOGO
 10
4.671525324193591
 20
1.7199202499999711
 30
0.0
 11
6.53569694999993
 21
5.3317527749999831
 31
0.0
  0
LINE
  5
82
  8
LOGO
 10
4.671525324193448
 20
-1.7199202499999711
 30
0.0
 11
5.9238824158460321
 21
-1.7199202499999711
 31
0.0
  0
LINE
  5
83
  8
LOGO
 10
4.671525324193591
 20
1.7199202499999711
 30
0.0
 11
5.9238824158460321
 21
1.7199202499999711
 31
0.0
  0
LINE
  5
84
  8
LOGO
 10
2.751872399999852
 20
5.3317527749999831
 30
0.0
 11
6.53569694999993
 21
5.3317527749999831
 31
0.0
  0
LINE
  5
85
  8
LOGO
 10
5.5801483965513512
 20
2.235896324999997
 30
0.0
 11
7.2399515943484403
 21
5.4517650207320401
 31
0.0
  0
LINE
  5
86
  8
LOGO
 10
5.5801483965513512
 20
2.235896324999997
 30
0.0
 11
6.2678664658460521
 21
2.235896324999997
 31
0.0
  0
LINE
  5
87
  8
LOGO
 10
19.7481243105
 20
1.581752774999984
 30
0.0
 11
22.4999967105
 21
-3.75
 31
0.0
  0
LINE
  5
88
  8
LOGO
 10
15.31464437797268
 20
-9.0959789509534801
 30
0.0
 11
17.047210211298442
 21
-5.7391326488848851
 31
0.0
  0
LINE
  5
89
  8
LOGO
 10
15.96429976049995
 20
-9.0817527749997282
 30
0.0
 11
18.02263434677684
 21
-5.0937295140886931
 31
0.0
  0
LINE
  5
8A
  8
LOGO
 10
22.4999967105
 20
-3.75
 30
0.0
 11
19.7481243105
 21
-9.081752774999984
 31
0.0
  0
LINE
  5
8B
  8
LOGO
 10
19.7481243105
 20
-9.081752774999984
 30
0.0
 11
15.96429976049995
 21
-9.0817527749997282
 31
0.0
  0
ARC
  5
8C
  8
LOGO
 10
16.87421196698406
 20
-0.0633958238849175
 30
0.0
 40
1.891912274999999
 50
200.10550978791599
 51
270.0
  0
LINE
  5
8D
  8
LOGO
 10
19.7481243105
 20
1.581752774999984
 30
0.0
 11
15.96429976049995
 21
1.5817527750002951
 31
0.0
  0
LINE
  5
8E
  8
LOGO
 10
17.78987956637587
 20
-1.9553080988848981
 30
0.0
 11
16.87421196698406
 21
-1.9553080988848981
 31
0.0
  0
LINE
  5
8F
  8
LOGO
 10
15.96429976049995
 20
1.581752774999984
 30
0.0
 11
17.789879566376008
 21
-1.9553080988848981
 31
0.0
  0
LINE
  5
90
  8
LOGO
 10
27.36200318667608
 20
-2.178999555007465
 30
0.0
 11
27.36200318667608
 21
-3.593666723446828
 31
0.0
  0
LINE
  5
91
  8
LOGO
 10
26.510417709878229
 20
-2.178999555007465
 30
0.0
 11
26.510417709878229
 21
-3.593666723446828
 31
0.0
  0
POLYLINE
  5
92
  8
LOGO
 66
     1
 10
0.0
 20
0.0
 30
0.0
  0
VERTEX
  5
3D43
  8
LOGO
 10
35.55292555974232
 20
-4.521581142451736
 30
0.0
  0
VERTEX
  5
3D44
  8
LOGO
 10
35.55292555974232
 20
-3.8606867310121231
 30
0.0
  0
VERTEX
  5
3D45
  8
LOGO
 10
34.736948719389027
 20
-3.8606867310121231
 30
0.0
  0
VERTEX
  5
3D46
  8
LOGO
 10
34.736948719389027
 20
-9.0817527749998703
 30
0.0
  0
VERTEX
  5
3D47
  8
LOGO
 10
35.574978462728353
 20
-9.0817527749998703
 30
0.0
  0
VERTEX
  5
3D48
  8
LOGO
 10
35.574978462728353
 20
-5.5349526163513181
 30
0.0
 42
-0.1979517105131875
  0
VERTEX
  5
3D49
  8
LOGO
 10
35.819733112266761
 20
-4.9409593453869691
 30
0.0
 42
-0.0354126930728235
  0
VERTEX
  5
3D4A
  8
LOGO
 10
36.188193175368013
 20
-4.6189018076773891
 30
0.0
 42
-0.1305137206675098
  0
VERTEX
  5
3D4B
  8
LOGO
 10
36.593499130485782
 20
-4.4532724196902223
 30
0.0
 42
-0.1043814708109328
  0
VERTEX
  5
3D4C
  8
LOGO
 10
37.133234644733527
 20
-4.4963408235001321
 30
0.0
 42
-0.116041058612023
  0
VERTEX
  5
3D4D
  8
LOGO
 10
37.516535700074868
 20
-4.7151356464152041
 30
0.0
 42
-0.1015529747866954
  0
VERTEX
  5
3D4E
  8
LOGO
 10
37.735565201108052
 20
-5.0228159669806871
 30
0.0
 42
-0.0948856354167763
  0
VERTEX
  5
3D4F
  8
LOGO
 10
37.776633089684971
 20
-5.2005863168977511
 30
0.0
  0
VERTEX
  5
3D50
  8
LOGO
 10
37.776633089684971
 20
-9.0817527749998703
 30
0.0
  0
VERTEX
  5
3D51
  8
LOGO
 10
38.61834765081268
 20
-9.0817527749998703
 30
0.0
  0
VERTEX
  5
3D52
  8
LOGO
 10
38.61834765081268
 20
-5.446833189390329
 30
0.0
 42
-0.1123020653616202
  0
VERTEX
  5
3D53
  8
LOGO
 10
38.67287015322492
 20
-5.2071453534751111
 30
0.0
 42
-0.0483460656053282
  0
VERTEX
  5
3D54
  8
LOGO
 10
38.871781737784289
 20
-4.8782641717891684
 30
0.0
 42
-0.0919182188338574
  0
VERTEX
  5
3D55
  8
LOGO
 10
39.153002825398531
 20
-4.6178995264804144
 30
0.0
 42
-0.0720178655297858
  0
VERTEX
  5
3D56
  8
LOGO
 10
39.475377521606582
 20
-4.4740137674737923
 30
0.0
 42
-0.0574661945819931
  0
VERTEX
  5
3D57
  8
LOGO
 10
39.77031609777417
 20
-4.4260520629329081
 30
0.0
 42
-0.0711976347152353
  0
VERTEX
  5
3D58
  8
LOGO
 10
40.126985658299411
 20
-4.4603103311215193
 30
0.0
 42
-0.1218665067157832
  0
VERTEX
  5
3D59
  8
LOGO
 10
40.44250046729703
 20
-4.6247509219645604
 30
0.0
 42
-0.0309484129334396
  0
VERTEX
  5
3D5A
  8
LOGO
 10
40.620835819026382
 20
-4.8028955945437364
 30
0.0
 42
-0.1086759979573358
  0
VERTEX
  5
3D5B
  8
LOGO
 10
40.758016419228447
 20
-5.0495561581163271
 30
0.0
 42
-0.0491140990772634
  0
VERTEX
  5
3D5C
  8
LOGO
 10
40.812888659309237
 20
-5.33047563526139
 30
0.0
  0
VERTEX
  5
3D5D
  8
LOGO
 10
40.812888659309237
 20
-9.0817527749998703
 30
0.0
  0
VERTEX
  5
3D5E
  8
LOGO
 10
41.661717981830392
 20
-9.0817527749998703
 30
0.0
  0
VERTEX
  5
3D5F
  8
LOGO
 10
41.661717981830392
 20
-4.7859387779507161
 30
0.0
 42
0.12961214393156
  0
VERTEX
  5
3D60
  8
LOGO
 10
41.597625696743762
 20
-4.5428458965782541
 30
0.0
 42
0.0020171477799564
  0
VERTEX
  5
3D61
  8
LOGO
 10
41.424873575441261
 20
-4.2408539897088531
 30
0.0
 42
0.0860212392827869
  0
VERTEX
  5
3D62
  8
LOGO
 10
41.316904071094022
 20
-4.1114287023693521
 30
0.0
 42
0.0196679989298372
  0
VERTEX
  5
3D63
  8
LOGO
 10
40.949806384793128
 20
-3.8238172395634229
 30
0.0
 42
0.1854557356672155
  0
VERTEX
  5
3D64
  8
LOGO
 10
40.460343945992058
 20
-3.6943919522239521
 30
0.0
  0
VERTEX
  5
3D65
  8
LOGO
 10
40.035662981212681
 20
-3.6943919522239521
 30
0.0
 42
0.0362960427529584
  0
VERTEX
  5
3D66
  8
LOGO
 10
39.496104621666213
 20
-3.7336112864531401
 30
0.0
 42
0.1204089404243522
  0
VERTEX
  5
3D67
  8
LOGO
 10
39.161070793378798
 20
-3.8692903437853081
 30
0.0
 42
0.0232151636266758
  0
VERTEX
  5
3D68
  8
LOGO
 10
38.830565267845003
 20
-4.131603403088544
 30
0.0
 42
0.0597605154596298
  0
VERTEX
  5
3D69
  8
LOGO
 10
38.540806466558507
 20
-4.4527109356971231
 30
0.0
 42
-1.4217586479995541
  0
SEQEND
  5
3D6A
  8
LOGO
  0
POLYLINE
  5
BB
  8
LOGO
 66
     1
 10
0.0
 20
0.0
 30
0.0
  0
VERTEX
  5
3D6B
  8
LOGO
 10
38.540806466558507
 20
-4.4527109356971231
 30
0.0
  0
VERTEX
  5
3D6C
  8
LOGO
 10
38.535345530022148
 20
-4.4600179722148381
 30
0.0
  0
VERTEX
  5
3D6D
  8
LOGO
 10
38.477418228542952
 20
-4.384952725402484
 30
0.0
 42
0.0026214234542908
  0
VERTEX
  5
3D6E
  8
LOGO
 10
38.234433983084642
 20
-4.0734710936649492
 30
0.0
 42
0.1866965898584828
  0
VERTEX
  5
3D6F
  8
LOGO
 10
37.65367972640297
 20
-3.73012685877617
 30
0.0
 42
0.0290375252935785
  0
VERTEX
  5
3D70
  8
LOGO
 10
37.20196609712881
 20
-3.681734037790021
 30
0.0
 42
0.0548054563952537
  0
VERTEX
  5
3D71
  8
LOGO
 10
36.763001891685121
 20
-3.7084716473899562
 30
0.0
 42
0.0494549700110832
  0
VERTEX
  5
3D72
  8
LOGO
 10
36.279196973992192
 20
-3.8419344564089202
 30
0.0
 42
0.0843097006452781
  0
VERTEX
  5
3D73
  8
LOGO
 10
35.934962530569379
 20
-4.0465127627710711
 30
0.0
 42
0.0132129381937918
  0
VERTEX
  5
3D74
  8
LOGO
 10
35.765023168751192
 20
-4.1988588593249521
 30
0.0
 42
0.1165630952064006
  0
VERTEX
  5
3D75
  8
LOGO
 10
35.55292555974232
 20
-4.521581142451736
 30
0.0
 42
2.465578921672082
  0
SEQEND
  5
3D76
  8
LOGO
  0
POLYLINE
  5
C8
  8
LOGO
 66
     1
 10
0.0
 20
0.0
 30
0.0
  0
VERTEX
  5
3D77
  8
LOGO
 10
29.760113120609791
 20
-6.782712678961782
 30
0.0
  0
VERTEX
  5
3D78
  8
LOGO
 10
29.756291150794649
 20
-6.9213630837701841
 30
0.0
 42
0.1304619684074512
  0
VERTEX
  5
3D79
  8
LOGO
 10
29.957353736308789
 20
-7.7727877302170301
 30
0.0
 42
0.1294422137553932
  0
VERTEX
  5
3D7A
  8
LOGO
 10
30.528886805050998
 20
-8.3877501694817056
 30
0.0
 42
0.1488920377672106
  0
VERTEX
  5
3D7B
  8
LOGO
 10
31.23135548503879
 20
-8.5813472687825083
 30
0.0
 42
0.1461591397771188
  0
VERTEX
  5
3D7C
  8
LOGO
 10
32.105889383261257
 20
-8.2944876782203494
 30
0.0
 42
0.2044165369404939
  0
VERTEX
  5
3D7D
  8
LOGO
 10
32.625286394858712
 20
-7.466589211086271
 30
0.0
 42
1.9248170051211071
  0
SEQEND
  5
3D7E
  8
LOGO
  0
POLYLINE
  5
D1
  8
LOGO
 66
     1
 10
0.0
 20
0.0
 30
0.0
  0
VERTEX
  5
3D7F
  8
LOGO
 10
29.790371143603011
 20
-6.0439468915119452
 30
0.0
  0
VERTEX
  5
3D80
  8
LOGO
 10
32.711113847402572
 20
-6.0439468915119452
 30
0.0
  0
VERTEX
  5
3D81
  8
LOGO
 10
32.689303246330681
 20
-5.8611057602913661
 30
0.0
 42
0.1270498354538714
  0
VERTEX
  5
3D82
  8
LOGO
 10
32.269491178504772
 20
-4.783441142257117
 30
0.0
 42
0.0727886402879208
  0
VERTEX
  5
3D83
  8
LOGO
 10
32.123045958888298
 20
-4.632275452856585
 30
0.0
 42
0.0662065610708775
  0
VERTEX
  5
3D84
  8
LOGO
 10
31.81062735689688
 20
-4.451851284342041
 30
0.0
 42
0.0880445901872359
  0
VERTEX
  5
3D85
  8
LOGO
 10
31.410341165962201
 20
-4.3640777831516004
 30
0.0
 42
0.0557859390504466
  0
VERTEX
  5
3D86
  8
LOGO
 10
30.86360975541103
 20
-4.4030886583810513
 30
0.0
 42
0.2339582095037274
  0
VERTEX
  5
3D87
  8
LOGO
 10
30.12150185379258
 20
-4.958321463069181
 30
0.0
 42
0.0249194484200905
  0
VERTEX
  5
3D88
  8
LOGO
 10
29.896492524388229
 20
-5.4635615400826172
 30
0.0
 42
0.0948381999965135
  0
SEQEND
  5
3D89
  8
LOGO
  0
LINE
  5
DD
  8
LOGO
 10
28.170472292375909
 20
-8.2658543032386547
 30
0.0
 11
28.170472292375909
 21
-9.0091173112369631
 31
0.0
  0
POLYLINE
  5
DE
  8
LOGO
 66
     1
 10
0.0
 20
0.0
 30
0.0
  0
VERTEX
  5
3D8A
  8
LOGO
 10
28.170472292375909
 20
-9.0091173112369631
 30
0.0
  0
VERTEX
  5
3D8B
  8
LOGO
 10
28.005602674565921
 20
-9.0380704757759194
 30
0.0
 42
-0.0345505547097484
  0
VERTEX
  5
3D8C
  8
LOGO
 10
27.60416212073849
 20
-9.0802824551502397
 30
0.0
 42
-0.0395690553742715
  0
VERTEX
  5
3D8D
  8
LOGO
 10
27.2396954674862
 20
-9.0644531242309085
 30
0.0
 42
-0.3327913292353739
  0
VERTEX
  5
3D8E
  8
LOGO
 10
26.510417709878229
 20
-8.364299427010053
 30
0.0
 42
1.183227725596609
  0
SEQEND
  5
3D8F
  8
LOGO
  0
LINE
  5
E5
  8
LOGO
 10
26.510417709878229
 20
-3.593666723446828
 30
0.0
 11
25.782657211347189
 21
-3.593666723446828
 31
0.0
  0
LINE
  5
E6
  8
LOGO
 10
25.782657211347189
 20
-4.35994488058867
 30
0.0
 11
26.510417709878229
 21
-4.35994488058867
 31
0.0
  0
LINE
  5
E7
  8
LOGO
 10
25.782657211347189
 20
-3.593666723446828
 30
0.0
 11
25.782657211347189
 21
-4.35994488058867
 31
0.0
  0
LINE
  5
E8
  8
LOGO
 10
27.36200318667608
 20
-3.593666723446828
 30
0.0
 11
28.178722490313021
 21
-3.593666723446828
 31
0.0
  0
LINE
  5
E9
  8
LOGO
 10
27.347922528822409
 20
-4.3779186284041032
 30
0.0
 11
27.347922528822409
 21
-8.0413225124003986
 31
0.0
  0
LINE
  5
EA
  8
LOGO
 10
26.510417709878229
 20
-4.35994488058867
 30
0.0
 11
26.510417709878229
 21
-8.364299427010053
 31
0.0
  0
POLYLINE
  5
EB
  8
LOGO
 66
     1
 10
0.0
 20
0.0
 30
0.0
  0
VERTEX
  5
3D90
  8
LOGO
 10
27.347922528822409
 20
-8.0413225124003986
 30
0.0
 42
0.4037072074833156
  0
VERTEX
  5
3D91
  8
LOGO
 10
27.605970468104939
 20
-8.3088324908446776
 30
0.0
 42
0.056054515283373
  0
VERTEX
  5
3D92
  8
LOGO
 10
28.170472292375909
 20
-8.2658543032386547
 30
0.0
 42
27.922310029107571
  0
SEQEND
  5
3D93
  8
LOGO
  0
LINE
  5
F0
  8
LOGO
 10
28.178722490313021
 20
-4.3779186284041032
 30
0.0
 11
27.347922528822409
 21
-4.3779186284041032
 31
0.0
  0
LINE
  5
F1
  8
LOGO
 10
28.178722490313021
 20
-3.593666723446828
 30
0.0
 11
28.178722490313021
 21
-4.3779186284041032
 31
0.0
  0
POLYLINE
  5
F2
  8
LOGO
 66
     1
 10
0.0
 20
0.0
 30
0.0
  0
VERTEX
  5
3D94
  8
LOGO
 10
29.896492524388229
 20
-5.4635615400826172
 30
0.0
 42
0.0944312568756264
  0
VERTEX
  5
3D95
  8
LOGO
 10
29.790371143603011
 20
-6.0439468915119452
 30
0.0
 42
0.8344830144720538
  0
SEQEND
  5
3D96
  8
LOGO
  0
POLYLINE
  5
F6
  8
LOGO
 66
     1
 10
0.0
 20
0.0
 30
0.0
  0
VERTEX
  5
3D97
  8
LOGO
 10
46.639880052566291
 20
-6.7819026999621883
 30
0.0
  0
VERTEX
  5
3D98
  8
LOGO
 10
46.639880052566291
 20
-6.3753092616980211
 30
0.0
 42
0.0762338097043169
  0
VERTEX
  5
3D99
  8
LOGO
 10
46.536392532306643
 20
-5.7005030750886467
 30
0.0
 42
0.0444255424402441
  0
VERTEX
  5
3D9A
  8
LOGO
 10
46.276489580221892
 20
-5.0738222307699052
 30
0.0
 42
0.1415730344391141
  0
VERTEX
  5
3D9B
  8
LOGO
 10
45.891116868098003
 20
-4.6709561120128411
 30
0.0
 42
0.0427986435999015
  0
VERTEX
  5
3D9C
  8
LOGO
 10
45.568477892990359
 20
-4.5187620728139564
 30
0.0
 42
0.1386157865405081
  0
VERTEX
  5
3D9D
  8
LOGO
 10
45.120370300846702
 20
-4.4829520523441602
 30
0.0
 42
-0.0099887045833983
  0
VERTEX
  5
3D9E
  8
LOGO
 10
44.717071867713031
 20
-4.5545727387070611
 30
0.0
 42
0.123150119525368
  0
VERTEX
  5
3D9F
  8
LOGO
 10
44.421320902618447
 20
-4.6799087784860944
 30
0.0
 42
0.0389239739916102
  0
VERTEX
  5
3DA0
  8
LOGO
 10
44.188304817543397
 20
-4.8858181711013344
 30
0.0
 42
0.1021698754210244
  0
VERTEX
  5
3DA1
  8
LOGO
 10
43.95528758946503
 20
-5.2528742693885961
 30
0.0
 42
0.0072992738907201
  0
VERTEX
  5
3DA2
  8
LOGO
 10
43.80293096241617
 20
-5.6736457210922131
 30
0.0
 42
0.0941974074556005
  0
VERTEX
  5
3DA3
  8
LOGO
 10
43.740196082396601
 20
-6.103369839269047
 30
0.0
 42
-0.0214412271674038
  0
VERTEX
  5
3DA4
  8
LOGO
 10
43.740196082396601
 20
-6.2287058790481611
 30
0.0
  0
VERTEX
  5
3DA5
  8
LOGO
 10
43.740196082396601
 20
-6.6136666648587532
 30
0.0
 42
0.0224761394517095
  0
VERTEX
  5
3DA6
  8
LOGO
 10
43.754927109137313
 20
-6.9412047858679102
 30
0.0
 42
0.0717886322002549
  0
VERTEX
  5
3DA7
  8
LOGO
 10
43.859396469245723
 20
-7.38099557111883
 30
0.0
 42
0.0191765213167494
  0
VERTEX
  5
3DA8
  8
LOGO
 10
44.02356146355546
 20
-7.753699768628052
 30
0.0
 42
0.0646642161930225
  0
VERTEX
  5
3DA9
  8
LOGO
 10
44.210113320818721
 20
-8.0369547521995912
 30
0.0
 42
0.0747591256859743
  0
VERTEX
  5
3DAA
  8
LOGO
 10
44.530981783789379
 20
-8.3127557421803129
 30
0.0
 42
0.1136681510121936
  0
VERTEX
  5
3DAB
  8
LOGO
 10
44.874237109713583
 20
-8.432020930481654
 30
0.0
 42
0.0240917485584236
  0
VERTEX
  5
3DAC
  8
LOGO
 10
45.247339681236973
 20
-8.4543835566777528
 30
0.0
 42
0.0950834735228612
  0
VERTEX
  5
3DAD
  8
LOGO
 10
45.620443395763523
 20
-8.3872969689361412
 30
0.0
 42
0.0521407303129816
  0
VERTEX
  5
3DAE
  8
LOGO
 10
45.971160247336513
 20
-8.2083985410607454
 30
0.0
 42
0.0752582816682087
  0
VERTEX
  5
3DAF
  8
LOGO
 10
46.239794601754653
 20
-7.969868164457977
 30
0.0
 42
0.0844013410376313
  0
VERTEX
  5
3DB0
  8
LOGO
 10
46.45619484762048
 20
-7.5971639669487532
 30
0.0
 42
0.0306258831126637
  0
VERTEX
  5
3DB1
  8
LOGO
 10
46.590511453327842
 20
-7.1573731816979187
 30
0.0
 42
0.0538927202904313
  0
VERTEX
  5
3DB2
  8
LOGO
 10
46.639116526351131
 20
-6.7782218509321082
 30
0.0
 42
1.2129057547006461
  0
SEQEND
  5
3DB3
  8
LOGO
  0
POLYLINE
  5
114
  8
LOGO
 66
     1
 10
0.0
 20
0.0
 30
0.0
  0
VERTEX
  5
3DB4
  8
LOGO
 10
49.219131931186489
 20
-6.782712678961782
 30
0.0
  0
VERTEX
  5
3DB5
  8
LOGO
 10
49.215309961371361
 20
-6.9213630837701841
 30
0.0
 42
0.1304619684074512
  0
VERTEX
  5
3DB6
  8
LOGO
 10
49.416372546885462
 20
-7.7727877302170301
 30
0.0
 42
0.1294422137553932
  0
VERTEX
  5
3DB7
  8
LOGO
 10
49.98790561562771
 20
-8.3877501694817056
 30
0.0
 42
0.1488920377672106
  0
VERTEX
  5
3DB8
  8
LOGO
 10
50.690374295615499
 20
-8.5813472687825083
 30
0.0
 42
0.1461591397771188
  0
VERTEX
  5
3DB9
  8
LOGO
 10
51.564908193837972
 20
-8.2944876782203494
 30
0.0
 42
0.2044165369404939
  0
VERTEX
  5
3DBA
  8
LOGO
 10
52.084305205435399
 20
-7.466589211086271
 30
0.0
 42
1.9248170051211071
  0
SEQEND
  5
3DBB
  8
LOGO
  0
POLYLINE
  5
11D
  8
LOGO
 66
     1
 10
0.0
 20
0.0
 30
0.0
  0
VERTEX
  5
3DBC
  8
LOGO
 10
49.249389954179719
 20
-6.0439468915119452
 30
0.0
  0
VERTEX
  5
3DBD
  8
LOGO
 10
52.170132657979281
 20
-6.0439468915119452
 30
0.0
  0
VERTEX
  5
3DBE
  8
LOGO
 10
52.148322056907361
 20
-5.8611057602913661
 30
0.0
 42
0.1270498354538714
  0
VERTEX
  5
3DBF
  8
LOGO
 10
51.728509989081488
 20
-4.783441142257117
 30
0.0
 42
0.0727886402879208
  0
VERTEX
  5
3DC0
  8
LOGO
 10
51.582064769464978
 20
-4.632275452856585
 30
0.0
 42
0.0662065610708775
  0
VERTEX
  5
3DC1
  8
LOGO
 10
51.269646167473539
 20
-4.451851284342041
 30
0.0
 42
0.0880445901872359
  0
VERTEX
  5
3DC2
  8
LOGO
 10
50.869359976538881
 20
-4.3640777831516004
 30
0.0
 42
0.0557859390504466
  0
VERTEX
  5
3DC3
  8
LOGO
 10
50.322628565987742
 20
-4.4030886583810513
 30
0.0
 42
0.2339582095037274
  0
VERTEX
  5
3DC4
  8
LOGO
 10
49.580520664369288
 20
-4.958321463069181
 30
0.0
 42
0.0249194484200905
  0
VERTEX
  5
3DC5
  8
LOGO
 10
49.355511334964923
 20
-5.4635615400826172
 30
0.0
 42
0.0948381999965135
  0
SEQEND
  5
3DC6
  8
LOGO
  0
POLYLINE
  5
129
  8
LOGO
 66
     1
 10
0.0
 20
0.0
 30
0.0
  0
VERTEX
  5
3DC7
  8
LOGO
 10
49.355511334964923
 20
-5.4635615400826172
 30
0.0
 42
0.0944312568756264
  0
VERTEX
  5
3DC8
  8
LOGO
 10
49.249389954179719
 20
-6.0439468915119452
 30
0.0
 42
0.8344830144720538
  0
SEQEND
  5
3DC9
  8
LOGO
  0
LINE
  5
12D
  8
LOGO
 10
26.510417709878229
 20
-2.178999555007465
 30
0.0
 11
27.36200318667608
 21
-2.178999555007465
 31
0.0
  0
POLYLINE
  5
12E
  8
LOGO
 66
     1
 10
0.0
 20
0.0
 30
0.0
  0
VERTEX
  5
3DCA
  8
LOGO
 10
29.760113120609791
 20
-6.782712678961782
 30
0.0
  0
VERTEX
  5
3DCB
  8
LOGO
 10
33.590664081007333
 20
-6.782712678961782
 30
0.0
  0
VERTEX
  5
3DCC
  8
LOGO
 10
33.590664081007333
 20
-6.2290984970952641
 30
0.0
 42
0.1552167717870263
  0
VERTEX
  5
3DCD
  8
LOGO
 10
33.036456742058533
 20
-4.4868407724896144
 30
0.0
 42
0.1207226519396385
  0
VERTEX
  5
3DCE
  8
LOGO
 10
32.417048472472523
 20
-3.9495089810404229
 30
0.0
 42
0.0687879177603979
  0
VERTEX
  5
3DCF
  8
LOGO
 10
31.789491086623709
 20
-3.7296912246436
 30
0.0
 42
0.0701112468287256
  0
VERTEX
  5
3DD0
  8
LOGO
 10
31.06141383735357
 20
-3.6862704412242229
 30
0.0
 42
0.1506173287574992
  0
VERTEX
  5
3DD1
  8
LOGO
 10
29.768263379806172
 20
-4.2018921636557423
 30
0.0
 42
0.0963974435047097
  0
VERTEX
  5
3DD2
  8
LOGO
 10
29.285645970079148
 20
-4.774649722768995
 30
0.0
 42
0.0296253852342835
  0
VERTEX
  5
3DD3
  8
LOGO
 10
29.084757110465659
 20
-5.1918413650504931
 30
0.0
 42
0.0999225787687863
  0
VERTEX
  5
3DD4
  8
LOGO
 10
28.860537548149331
 20
-6.3555601815650951
 30
0.0
 42
-0.0052225638131499
  0
VERTEX
  5
3DD5
  8
LOGO
 10
28.859916935227769
 20
-6.7425859349689281
 30
0.0
 42
0.0910253128131613
  0
VERTEX
  5
3DD6
  8
LOGO
 10
29.05561916235872
 20
-7.8860810015878808
 30
0.0
 42
0.1277011283745241
  0
VERTEX
  5
3DD7
  8
LOGO
 10
29.71137271906349
 20
-8.8342228793136997
 30
0.0
 42
0.1015023852737147
  0
VERTEX
  5
3DD8
  8
LOGO
 10
30.225370512536639
 20
-9.1213122265444326
 30
0.0
 42
0.0097433099655614
  0
VERTEX
  5
3DD9
  8
LOGO
 10
30.56007974769399
 20
-9.2203121806783201
 30
0.0
 42
0.0706661458394397
  0
VERTEX
  5
3DDA
  8
LOGO
 10
31.225513951627988
 20
-9.3052769711352994
 30
0.0
 42
0.0060899112775245
  0
VERTEX
  5
3DDB
  8
LOGO
 10
31.41563752006633
 20
-9.3002791182124156
 30
0.0
 42
0.0511370617167684
  0
VERTEX
  5
3DDC
  8
LOGO
 10
32.05105257412081
 20
-9.2103164748325526
 30
0.0
 42
0.0992919644578148
  0
VERTEX
  5
3DDD
  8
LOGO
 10
32.59140412955572
 20
-8.9554233942294559
 30
0.0
 42
0.0780935812178537
  0
VERTEX
  5
3DDE
  8
LOGO
 10
33.101736535111129
 20
-8.4356402364097391
 30
0.0
 42
0.1337868928427721
  0
VERTEX
  5
3DDF
  8
LOGO
 10
33.46026221973321
 20
-7.466589211086271
 30
0.0
  0
VERTEX
  5
3DE0
  8
LOGO
 10
32.625286394858712
 20
-7.466589211086271
 30
0.0
 42
-0.0961486639012014
  0
SEQEND
  5
3DE1
  8
LOGO
  0
POLYLINE
  5
147
  8
LOGO
 66
     1
 10
0.0
 20
0.0
 30
0.0
  0
VERTEX
  5
3DE2
  8
LOGO
 10
43.729424419143491
 20
-8.5178228574003452
 30
0.0
  0
VERTEX
  5
3DE3
  8
LOGO
 10
43.819920563709957
 20
-8.6157852045498942
 30
0.0
 42
0.0259079626851934
  0
VERTEX
  5
3DE4
  8
LOGO
 10
44.167939927456437
 20
-8.9554095221114665
 30
0.0
 42
0.0932915926880769
  0
VERTEX
  5
3DE5
  8
LOGO
 10
44.536520777860453
 20
-9.1740201996756792
 30
0.0
 42
0.0493156655584715
  0
VERTEX
  5
3DE6
  8
LOGO
 10
44.985729082197523
 20
-9.2890785189645158
 30
0.0
 42
0.0662051920479078
  0
VERTEX
  5
3DE7
  8
LOGO
 10
45.56163587513867
 20
-9.3005844799780562
 30
0.0
 42
0.0598833272776033
  0
VERTEX
  5
3DE8
  8
LOGO
 10
46.195134033176089
 20
-9.1510082776485735
 30
0.0
 42
0.1313551094915979
  0
VERTEX
  5
3DE9
  8
LOGO
 10
46.817114146795042
 20
-8.7137869225202866
 30
0.0
 42
0.0230037598039904
  0
VERTEX
  5
3DEA
  8
LOGO
 10
47.1505613612619
 20
-8.2759575786515711
 30
0.0
 42
0.0780266213978633
  0
VERTEX
  5
3DEB
  8
LOGO
 10
47.398894833778783
 20
-7.7607394004659769
 30
0.0
 42
0.0140454909503479
  0
VERTEX
  5
3DEC
  8
LOGO
 10
47.519878305801427
 20
-7.3154896250175341
 30
0.0
 42
0.0763937446921402
  0
VERTEX
  5
3DED
  8
LOGO
 10
47.581975389970538
 20
-6.5843993002926311
 30
0.0
 42
-0.0005587630986696
  0
VERTEX
  5
3DEE
  8
LOGO
 10
47.527466704818522
 20
-5.7676471055032721
 30
0.0
 42
0.0736715490518213
  0
VERTEX
  5
3DEF
  8
LOGO
 10
47.425798845838472
 20
-5.2966604308919321
 30
0.0
 42
0.031080906755616
  0
VERTEX
  5
3DF0
  8
LOGO
 10
47.189015421832771
 20
-4.7690159180793614
 30
0.0
 42
0.0747888105562857
  0
VERTEX
  5
3DF1
  8
LOGO
 10
46.888482130862741
 20
-4.3596368328900601
 30
0.0
 42
0.0437793822903502
  0
VERTEX
  5
3DF2
  8
LOGO
 10
46.478665149816003
 20
-4.013938436734346
 30
0.0
 42
0.0924911296880215
  0
VERTEX
  5
3DF3
  8
LOGO
 10
45.941348434840272
 20
-3.7683109856207562
 30
0.0
 42
0.0439678173800187
  0
VERTEX
  5
3DF4
  8
LOGO
 10
45.422245477710128
 20
-3.6864351685828431
 30
0.0
 42
0.0515404553394563
  0
VERTEX
  5
3DF5
  8
LOGO
 10
44.894036213158863
 20
-3.704629651163911
 30
0.0
 42
0.0667236577266695
  0
VERTEX
  5
3DF6
  8
LOGO
 10
44.402255607302209
 20
-3.841089561368106
 30
0.0
 42
0.0945734421500778
  0
VERTEX
  5
3DF7
  8
LOGO
 10
43.983331175830962
 20
-4.1231066230669731
 30
0.0
 42
-0.0208289068013989
  0
VERTEX
  5
3DF8
  8
LOGO
 10
43.773868960095392
 20
-4.31414998101428
 30
0.0
 42
0.097781528722448
  0
VERTEX
  5
3DF9
  8
LOGO
 10
43.639036859892308
 20
-4.4815469658391294
 30
0.0
 42
-1.6100505330917541
  0
SEQEND
  5
3DFA
  8
LOGO
  0
LINE
  5
161
  8
LOGO
 10
72.088959717716946
 20
-4.42906049836935
 30
0.0
 11
68.095877545256599
 21
-4.42906049836935
 31
0.0
  0
LINE
  5
162
  8
LOGO
 10
68.889787767421183
 20
-8.7808606017964053
 30
0.0
 11
68.09587754525657
 21
-8.7808606017964053
 31
0.0
  0
LINE
  5
163
  8
LOGO
 10
68.09587754525657
 20
-9.0830742491259553
 30
0.0
 11
68.889787767421183
 21
-9.0830742491259553
 31
0.0
  0
LINE
  5
164
  8
LOGO
 10
68.095877545256599
 20
-3.985152956498891
 30
0.0
 11
68.90869074552343
 21
-3.9851529564989181
 31
0.0
  0
LINE
  5
165
  8
LOGO
 10
68.90869074552343
 20
-3.6829393091693681
 30
0.0
 11
68.095877545256599
 21
-3.6829393091693681
 31
0.0
  0
LINE
  5
166
  8
LOGO
 10
68.095877545256599
 20
-4.7312741456988192
 30
0.0
 11
69.484331999555366
 21
-4.7312741456987562
 31
0.0
  0
LINE
  5
167
  8
LOGO
 10
68.095877545256599
 20
-8.3369530599259161
 30
0.0
 11
68.889787767421183
 21
-8.3369530599258592
 31
0.0
  0
LINE
  5
168
  8
LOGO
 10
68.889787767421126
 20
-8.0347394125964247
 30
0.0
 11
68.095877545256599
 21
-8.0347394125964247
 31
0.0
  0
LINE
  5
169
  8
LOGO
 10
68.095877545256599
 20
-7.446715892933522
 30
0.0
 11
68.889787767421183
 21
-7.446715892933522
 31
0.0
  0
LINE
  5
16A
  8
LOGO
 10
68.889787767421183
 20
-7.7485384137485749
 30
0.0
 11
68.095877545256599
 21
-7.7485384137484621
 31
0.0
  0
LINE
  5
16B
  8
LOGO
 10
68.889787767421183
 20
-7.002417224548477
 30
0.0
 11
68.095877545256599
 21
-7.002417224548477
 31
0.0
  0
LINE
  5
16C
  8
LOGO
 10
68.095877545256599
 20
-6.7005947037336284
 30
0.0
 11
68.88978776742124
 21
-6.7005947037335991
 31
0.0
  0
LINE
  5
16D
  8
LOGO
 10
68.889787767421183
 20
-6.256296035348667
 30
0.0
 11
68.095877545256599
 21
-6.2562960353486972
 31
0.0
  0
LINE
  5
16E
  8
LOGO
 10
68.095877545256599
 20
-5.9544735145334471
 30
0.0
 11
68.889787767421126
 21
-5.954473514533503
 31
0.0
  0
LINE
  5
16F
  8
LOGO
 10
68.94937053191137
 20
-5.5101748461485132
 30
0.0
 11
68.095877545256599
 21
-5.5101748461485132
 31
0.0
  0
LINE
  5
170
  8
LOGO
 10
68.095877545256599
 20
-5.208352325333462
 30
0.0
 11
69.104807700174092
 21
-5.2083523253335171
 31
0.0
  0
LINE
  5
171
  8
LOGO
 10
57.135581156890282
 20
-9.0830742491259002
 30
0.0
 11
61.414263195097902
 21
-9.0830742491259002
 31
0.0
  0
LINE
  5
172
  8
LOGO
 10
61.414263195097902
 20
-8.7808606017964053
 30
0.0
 11
57.135581156890282
 21
-8.7808606017964053
 31
0.0
  0
LINE
  5
173
  8
LOGO
 10
57.358854281697027
 20
-3.985152956498891
 30
0.0
 11
61.300935559287872
 21
-3.985152956498891
 31
0.0
  0
LINE
  5
174
  8
LOGO
 10
61.300935559287872
 20
-3.6829393091693681
 30
0.0
 11
57.358854281697027
 21
-3.6829393091693681
 31
0.0
  0
LINE
  5
175
  8
LOGO
 10
57.135581156890282
 20
-8.3369530599259161
 30
0.0
 11
61.414263195097902
 21
-8.3369530599259161
 31
0.0
  0
LINE
  5
176
  8
LOGO
 10
61.414263195097902
 20
-8.0347394125964247
 30
0.0
 11
57.135581156890282
 21
-8.0347394125964247
 31
0.0
  0
LINE
  5
177
  8
LOGO
 10
61.300935559287872
 20
-4.42906049836935
 30
0.0
 11
57.358854281697027
 21
-4.42906049836935
 31
0.0
  0
LINE
  5
178
  8
LOGO
 10
57.358854281697027
 20
-4.7312741456988761
 30
0.0
 11
61.300935559287872
 21
-4.7312741456988192
 31
0.0
  0
LINE
  5
179
  8
LOGO
 10
59.646394539980093
 20
-5.208352325333574
 30
0.0
 11
60.87968912964115
 21
-5.208352325333605
 31
0.0
  0
LINE
  5
17A
  8
LOGO
 10
60.622937944686527
 20
-5.5101748461485132
 30
0.0
 11
59.392856795005621
 21
-5.5101748461485132
 31
0.0
  0
POLYLINE
  5
17B
  8
LOGO
 66
     1
 10
0.0
 20
0.0
 30
0.0
  0
VERTEX
  5
3DFB
  8
LOGO
 10
55.016351281137418
 20
-4.6282807239941191
 30
0.0
  0
VERTEX
  5
3DFC
  8
LOGO
 10
55.016351281137418
 20
-3.84787941439262
 30
0.0
  0
VERTEX
  5
3DFD
  8
LOGO
 10
54.17001104655818
 20
-3.84787941439262
 30
0.0
  0
VERTEX
  5
3DFE
  8
LOGO
 10
54.17001104655818
 20
-9.0830742491259002
 30
0.0
  0
VERTEX
  5
3DFF
  8
LOGO
 10
55.000076056916392
 20
-9.0830742491259002
 30
0.0
  0
VERTEX
  5
3E00
  8
LOGO
 10
55.000076056916392
 20
-5.9126924363283671
 30
0.0
 42
-0.0743516470257916
  0
VERTEX
  5
3E01
  8
LOGO
 10
55.033188862990272
 20
-5.6912464142456543
 30
0.0
 42
-0.0372125389748893
  0
VERTEX
  5
3E02
  8
LOGO
 10
55.170508138409602
 20
-5.3385154859081441
 30
0.0
 42
-0.0746736629901801
  0
VERTEX
  5
3E03
  8
LOGO
 10
55.333985044723043
 20
-5.0968296348343891
 30
0.0
 42
-0.0456742430547908
  0
VERTEX
  5
3E04
  8
LOGO
 10
55.543233518838512
 20
-4.907399835115255
 30
0.0
 42
-0.0556605983765722
  0
VERTEX
  5
3E05
  8
LOGO
 10
55.830952599629221
 20
-4.737567022789217
 30
0.0
 42
-0.0438402431395355
  0
VERTEX
  5
3E06
  8
LOGO
 10
56.131747638358853
 20
-4.6330542746564412
 30
0.0
 42
-0.051105287792611
  0
VERTEX
  5
3E07
  8
LOGO
 10
56.445622064036911
 20
-4.5873299070094031
 30
0.0
 42
-0.007772804019679
  0
VERTEX
  5
3E08
  8
LOGO
 10
56.687567291019043
 20
-4.5807975778784282
 30
0.0
  0
VERTEX
  5
3E09
  8
LOGO
 10
56.687567291019043
 20
-3.7120345925850402
 30
0.0
 42
-0.7006044492294461
  0
SEQEND
  5
3E0A
  8
LOGO
  0
LINE
  5
18C
  8
LOGO
 10
57.135581156890282
 20
-8.7808606017964053
 30
0.0
 11
57.135581156890282
 21
-9.0830742491259002
 31
0.0
  0
POLYLINE
  5
18D
  8
LOGO
 66
     1
 10
0.0
 20
0.0
 30
0.0
  0
VERTEX
  5
3E0B
  8
LOGO
 10
56.687567291019043
 20
-3.7120345925850402
 30
0.0
  0
VERTEX
  5
3E0C
  8
LOGO
 10
56.625224461137009
 20
-3.7028521554200871
 30
0.0
 42
0.0732495528612939
  0
VERTEX
  5
3E0D
  8
LOGO
 10
56.211753298487899
 20
-3.7028521554200871
 30
0.0
 42
0.0530782625091682
  0
VERTEX
  5
3E0E
  8
LOGO
 10
55.895268253235201
 20
-3.7844381774001472
 30
0.0
 42
0.047570986429727
  0
VERTEX
  5
3E0F
  8
LOGO
 10
55.685979774003762
 20
-3.8864208662311031
 30
0.0
 42
0.0494417342384248
  0
VERTEX
  5
3E10
  8
LOGO
 10
55.497109906014963
 20
-4.029196243340464
 30
0.0
 42
0.0262378018778587
  0
VERTEX
  5
3E11
  8
LOGO
 10
55.313344690836971
 20
-4.217864443575789
 30
0.0
 42
0.0272435275435728
  0
VERTEX
  5
3E12
  8
LOGO
 10
55.165310902330262
 20
-4.406531998387833
 30
0.0
 42
0.0096553742199897
  0
VERTEX
  5
3E13
  8
LOGO
 10
55.016351281137418
 20
-4.6282807239941191
 30
0.0
 42
3.189102036288832
  0
SEQEND
  5
3E14
  8
LOGO
  0
LINE
  5
198
  8
LOGO
 10
57.766118509450607
 20
-7.4467158929335824
 30
0.0
 11
58.975581719800552
 21
-7.4467158929336659
 31
0.0
  0
LINE
  5
199
  8
LOGO
 10
58.718830534845942
 20
-7.7485384137486299
 30
0.0
 11
57.512580764476162
 21
-7.7485384137485189
 31
0.0
  0
LINE
  5
19A
  8
LOGO
 10
57.358854281697027
 20
-3.6829393091693681
 30
0.0
 11
57.358854281697027
 21
-3.985152956498891
 31
0.0
  0
LINE
  5
19B
  8
LOGO
 10
57.512580764476162
 20
-7.7485384137484621
 30
0.0
 11
57.766118509450607
 21
-7.4467158929335824
 31
0.0
  0
LINE
  5
19C
  8
LOGO
 10
57.358854281697027
 20
-4.42906049836935
 30
0.0
 11
57.358854281697027
 21
-4.7312741456988761
 31
0.0
  0
LINE
  5
19D
  8
LOGO
 10
57.135581156890282
 20
-8.0347394125964247
 30
0.0
 11
57.135581156890282
 21
-8.3369530599259161
 31
0.0
  0
LINE
  5
19E
  8
LOGO
 10
59.392856795005621
 20
-5.5101748461485132
 30
0.0
 11
59.646394539980093
 21
-5.208352325333574
 31
0.0
  0
LINE
  5
19F
  8
LOGO
 10
58.766098118162461
 20
-6.2562960353484964
 30
0.0
 11
59.019635863136941
 21
-5.9544735145335581
 31
0.0
  0
LINE
  5
1A0
  8
LOGO
 10
59.988235474739753
 20
-6.2562960353484964
 30
0.0
 11
60.244986659694312
 21
-5.9544735145335581
 31
0.0
  0
LINE
  5
1A1
  8
LOGO
 10
59.353533004792858
 20
-7.0024172245485374
 30
0.0
 11
59.61028418974746
 21
-6.7005947037335991
 31
0.0
  0
LINE
  5
1A2
  8
LOGO
 10
58.139339441319279
 20
-7.0024172245485374
 30
0.0
 11
58.39287718629371
 21
-6.7005947037335991
 31
0.0
  0
LINE
  5
1A3
  8
LOGO
 10
59.353533004792858
 20
-7.0024172245485374
 30
0.0
 11
58.139339441319279
 21
-7.0024172245485374
 31
0.0
  0
LINE
  5
1A4
  8
LOGO
 10
58.392877186293752
 20
-6.7005947037336284
 30
0.0
 11
59.61028418974746
 21
-6.7005947037335991
 31
0.0
  0
LINE
  5
1A5
  8
LOGO
 10
59.988235474739753
 20
-6.256296035348468
 30
0.0
 11
58.766098118162489
 21
-6.2562960353485551
 31
0.0
  0
LINE
  5
1A6
  8
LOGO
 10
59.019635863136941
 20
-5.9544735145335581
 30
0.0
 11
60.244986659694348
 21
-5.9544735145336141
 31
0.0
  0
LINE
  5
1A7
  8
LOGO
 10
58.718830534845942
 20
-7.7485384137486299
 30
0.0
 11
58.975581719800552
 21
-7.4467158929336659
 31
0.0
  0
LINE
  5
1A8
  8
LOGO
 10
66.002364185913109
 20
-8.7808606017964621
 30
0.0
 11
63.123631558818062
 21
-8.7808606017963484
 31
0.0
  0
LINE
  5
1A9
  8
LOGO
 10
61.414263195097902
 20
-9.0830742491259002
 30
0.0
 11
61.414263195097902
 21
-8.7808606017964053
 31
0.0
  0
LINE
  5
1AA
  8
LOGO
 10
68.09587754525657
 20
-8.7808606017964053
 30
0.0
 11
68.09587754525657
 21
-9.0830742491259553
 31
0.0
  0
LINE
  5
1AB
  8
LOGO
 10
63.129163462434462
 20
-3.9986997282922512
 30
0.0
 11
65.99683228229685
 21
-3.9986997282922512
 31
0.0
  0
ARC
  5
1AC
  8
LOGO
 10
64.377837621639856
 20
-5.6715055322989372
 30
0.0
 40
2.087454529752907
 50
84.911092936725311
 51
126.7396814944222
  0
LINE
  5
1AD
  8
LOGO
 10
64.412244731789173
 20
-4.42906049836935
 30
0.0
 11
62.700400066483333
 21
-4.42906049836935
 31
0.0
  0
ARC
  5
1AE
  8
LOGO
 10
64.533377512924801
 20
-5.8207254609716861
 30
0.0
 40
1.396926812256317
 50
88.785012380388636
 51
128.74935976101099
  0
LINE
  5
1AF
  8
LOGO
 10
61.300935559287872
 20
-3.985152956498891
 30
0.0
 11
61.300935559287872
 21
-3.6829393091693681
 31
0.0
  0
LINE
  5
1B0
  8
LOGO
 10
61.414263195097902
 20
-8.3369530599259161
 30
0.0
 11
61.414263195097902
 21
-8.0347394125964247
 31
0.0
  0
LINE
  5
1B1
  8
LOGO
 10
60.622937944686527
 20
-5.5101748461485132
 30
0.0
 11
60.87968912964115
 21
-5.208352325333605
 31
0.0
  0
LINE
  5
1B2
  8
LOGO
 10
61.300935559287872
 20
-4.7312741456988192
 30
0.0
 11
61.300935559287872
 21
-4.42906049836935
 31
0.0
  0
ARC
  5
1B3
  8
LOGO
 10
65.235959934403922
 20
-6.5816081686751291
 30
0.0
 40
2.1956801179301482
 50
203.203898245239
 51
206.6334513463118
  0
ARC
  5
1B4
  8
LOGO
 10
65.273019530929076
 20
-6.634700043191966
 30
0.0
 40
3.0947837751066798
 50
195.21145429094199
 51
201.09456458476501
  0
ARC
  5
1B5
  8
LOGO
 10
65.235959934403922
 20
-6.2020957570128381
 30
0.0
 40
2.1956801179301482
 50
153.36654865368811
 51
161.63144156192169
  0
ARC
  5
1B6
  8
LOGO
 10
65.273019530929076
 20
-6.634700043191966
 30
0.0
 40
3.0947837751066798
 50
181.22004364361709
 51
186.82391260019531
  0
ARC
  5
1B7
  8
LOGO
 10
65.273019530929076
 20
-6.1490038824959763
 30
0.0
 40
3.0947837751066798
 50
176.3961547648199
 51
181.98676873428519
  0
ARC
  5
1B8
  8
LOGO
 10
65.235959934403922
 20
-6.5816081686751291
 30
0.0
 40
2.1956801179301482
 50
183.10644861817059
 51
191.0492770762535
  0
ARC
  5
1B9
  8
LOGO
 10
65.235959934403922
 20
-6.2020957570128381
 30
0.0
 40
2.1956801179301482
 50
173.5245769646335
 51
181.4144877666179
  0
LINE
  5
1BA
  8
LOGO
 10
62.32465366783277
 20
-5.208352325333605
 30
0.0
 11
63.277828365519809
 21
-5.208352325333605
 31
0.0
  0
LINE
  5
1BB
  8
LOGO
 10
63.152151729846103
 20
-5.51017484614857
 30
0.0
 11
62.244887420702867
 21
-5.5101748461485132
 31
0.0
  0
LINE
  5
1BC
  8
LOGO
 10
62.522068966476013
 20
-4.7312741456988761
 30
0.0
 11
63.659020405987931
 21
-4.7312741456988761
 31
0.0
  0
ARC
  5
1BD
  8
LOGO
 10
64.533377512924801
 20
-5.8207254609716861
 30
0.0
 40
1.396926812256317
 50
153.99996682547729
 51
154.4309531775979
  0
ARC
  5
1BE
  8
LOGO
 10
65.273019530929076
 20
-6.1490038824959763
 30
0.0
 40
3.0947837751066798
 50
146.30428940545241
 51
152.73523474807291
  0
ARC
  5
1BF
  8
LOGO
 10
65.273019530929076
 20
-6.1490038824959763
 30
0.0
 40
3.0947837751066798
 50
162.30515035802509
 51
168.08729153854861
  0
ARC
  5
1C0
  8
LOGO
 10
64.377837621639856
 20
-5.6715055322989372
 30
0.0
 40
2.087454529752907
 50
143.4733789545231
 51
143.5762116132021
  0
LINE
  5
1C1
  8
LOGO
 10
62.184355653035588
 20
-5.9544735145335581
 30
0.0
 11
63.0542875471507
 21
-5.9544735145335581
 31
0.0
  0
LINE
  5
1C2
  8
LOGO
 10
63.0409488842946
 20
-6.2562960353483827
 30
0.0
 11
62.180096155124247
 21
-6.2562960353484121
 31
0.0
  0
LINE
  5
1C3
  8
LOGO
 10
63.08098176310645
 20
-7.0024172245485374
 30
0.0
 11
62.200159187666031
 21
-7.0024172245485374
 31
0.0
  0
LINE
  5
1C4
  8
LOGO
 10
62.178937355489033
 20
-6.700594703733425
 30
0.0
 11
63.043506198347352
 21
-6.700594703733425
 31
0.0
  0
LINE
  5
1C5
  8
LOGO
 10
62.286664415670337
 20
-7.4467158929337209
 30
0.0
 11
63.21789159916306
 21
-7.446715892933752
 31
0.0
  0
ARC
  5
1C6
  8
LOGO
 10
64.533377512924801
 20
-6.962978464716282
 30
0.0
 40
1.396926812256317
 50
205.5690468224021
 51
214.21838074251531
  0
LINE
  5
1C7
  8
LOGO
 10
63.378258434527808
 20
-7.7485384137488031
 30
0.0
 11
62.385624390159613
 21
-7.7485384137487179
 31
0.0
  0
LINE
  5
1C8
  8
LOGO
 10
63.637423837001933
 20
-8.034739412596366
 30
0.0
 11
62.513023810138677
 21
-8.0347394125964247
 31
0.0
  0
ARC
  5
1C9
  8
LOGO
 10
64.533377512924801
 20
-6.962978464716282
 30
0.0
 40
1.396926812256317
 50
230.10558744490129
 51
259.5993719810142
  0
LINE
  5
1CA
  8
LOGO
 10
62.68844581720208
 20
-8.3369530599259161
 30
0.0
 11
64.281190418649274
 21
-8.3369530599259161
 31
0.0
  0
ARC
  5
1CB
  8
LOGO
 10
65.273019530929076
 20
-6.634700043191966
 30
0.0
 40
3.0947837751066798
 50
206.8969228322226
 51
213.3697161473666
  0
ARC
  5
1CC
  8
LOGO
 10
64.7481581230914
 20
-5.6715055322989372
 30
0.0
 40
2.087454529752907
 50
53.260318505573601
 51
95.088907063274675
  0
ARC
  5
1CD
  8
LOGO
 10
63.890035810327312
 20
-6.5816081686751291
 30
0.0
 40
2.1956801179301482
 50
333.3665486536882
 51
336.7961017547583
  0
ARC
  5
1CE
  8
LOGO
 10
63.890035810327312
 20
-6.2020957570128381
 30
0.0
 40
2.1956801179301482
 50
18.368558438078288
 51
26.633451346311759
  0
LINE
  5
1CF
  8
LOGO
 10
66.42581149225721
 20
-4.42906049836935
 30
0.0
 11
64.713751012942112
 21
-4.42906049836935
 31
0.0
  0
LINE
  5
1D0
  8
LOGO
 10
65.466975338743282
 20
-4.7312741456988761
 30
0.0
 11
66.603926778255243
 21
-4.7312741456987562
 31
0.0
  0
LINE
  5
1D1
  8
LOGO
 10
65.848167379211404
 20
-5.208352325333574
 30
0.0
 11
66.801342076898436
 21
-5.208352325333574
 31
0.0
  0
LINE
  5
1D2
  8
LOGO
 10
66.740371354571579
 20
-7.7485384137488591
 30
0.0
 11
65.74773731020332
 21
-7.7485384137489151
 31
0.0
  0
LINE
  5
1D3
  8
LOGO
 10
66.612971934592565
 20
-8.0347394125964247
 30
0.0
 11
65.488571907729323
 21
-8.034739412596366
 31
0.0
  0
LINE
  5
1D4
  8
LOGO
 10
64.844805326081996
 20
-8.3369530599259161
 30
0.0
 11
66.437549927528252
 21
-8.3369530599258592
 31
0.0
  0
ARC
  5
1D5
  8
LOGO
 10
64.592618231806455
 20
-5.8207254609716861
 30
0.0
 40
1.396926812256317
 50
25.569046822402122
 51
26.000033174523079
  0
ARC
  5
1D6
  8
LOGO
 10
64.592618231806455
 20
-5.8207254609716861
 30
0.0
 40
1.396926812256317
 50
51.250640238988971
 51
91.214987619611378
  0
ARC
  5
1D7
  8
LOGO
 10
64.592618231806455
 20
-6.962978464716282
 30
0.0
 40
1.396926812256317
 50
325.78161925747992
 51
334.43095317759793
  0
ARC
  5
1D8
  8
LOGO
 10
64.592618231806455
 20
-6.962978464716282
 30
0.0
 40
1.396926812256317
 50
280.40062801898767
 51
309.89441255509882
  0
LINE
  5
1D9
  8
LOGO
 10
68.095877545256599
 20
-4.42906049836935
 30
0.0
 11
68.095877545256599
 21
-4.7312741456988192
 31
0.0
  0
LINE
  5
1DA
  8
LOGO
 10
68.095877545256599
 20
-5.208352325333462
 30
0.0
 11
68.095877545256599
 21
-5.5101748461485132
 31
0.0
  0
LINE
  5
1DB
  8
LOGO
 10
68.095877545256599
 20
-3.6829393091693681
 30
0.0
 11
68.095877545256599
 21
-3.985152956498891
 31
0.0
  0
ARC
  5
1DC
  8
LOGO
 10
63.852976213802172
 20
-6.634700043191966
 30
0.0
 40
3.0947837751066798
 50
338.90543541523209
 51
344.7885457090552
  0
ARC
  5
1DD
  8
LOGO
 10
63.852976213802172
 20
-6.1490038824959763
 30
0.0
 40
3.0947837751066798
 50
358.01323126571822
 51
3.603845235179961
  0
ARC
  5
1DE
  8
LOGO
 10
63.852976213802172
 20
-6.634700043191966
 30
0.0
 40
3.0947837751066798
 50
353.17608739980483
 51
358.77995635638467
  0
ARC
  5
1DF
  8
LOGO
 10
63.890035810327312
 20
-6.5816081686751291
 30
0.0
 40
2.1956801179301482
 50
348.95072292374653
 51
356.89355138183168
  0
ARC
  5
1E0
  8
LOGO
 10
63.890035810327312
 20
-6.2020957570128381
 30
0.0
 40
2.1956801179301482
 50
358.58551223338469
 51
6.4754230353664921
  0
ARC
  5
1E1
  8
LOGO
 10
63.852976213802172
 20
-6.1490038824959763
 30
0.0
 40
3.0947837751066798
 50
11.912708461451359
 51
17.694849641975651
  0
ARC
  5
1E2
  8
LOGO
 10
64.7481581230914
 20
-5.6715055322989372
 30
0.0
 40
2.087454529752907
 50
36.423788386797952
 51
36.526621045476872
  0
ARC
  5
1E3
  8
LOGO
 10
63.852976213802172
 20
-6.634700043191966
 30
0.0
 40
3.0947837751066798
 50
326.63028385263431
 51
333.10307716777743
  0
LINE
  5
1E4
  8
LOGO
 10
68.09587754525657
 20
-7.4467158929334403
 30
0.0
 11
68.095877545256599
 21
-7.7485384137484301
 31
0.0
  0
LINE
  5
1E5
  8
LOGO
 10
68.095877545256599
 20
-6.7005947037336284
 30
0.0
 11
68.095877545256599
 21
-7.002417224548477
 31
0.0
  0
LINE
  5
1E6
  8
LOGO
 10
68.09587754525657
 20
-5.9544735145334471
 30
0.0
 11
68.095877545256599
 21
-6.256296035348754
 31
0.0
  0
LINE
  5
1E7
  8
LOGO
 10
68.095877545256599
 20
-8.0347394125964247
 30
0.0
 11
68.095877545256599
 21
-8.3369530599259161
 31
0.0
  0
ARC
  5
1E8
  8
LOGO
 10
63.852976213802172
 20
-6.1490038824959763
 30
0.0
 40
3.0947837751066798
 50
27.264765251928061
 51
33.762773752879113
  0
LINE
  5
1E9
  8
LOGO
 10
66.881108324028332
 20
-5.5101748461484883
 30
0.0
 11
65.973844014885117
 21
-5.51017484614857
 31
0.0
  0
LINE
  5
1EA
  8
LOGO
 10
66.071708197580563
 20
-5.9544735145335581
 30
0.0
 11
66.941640091695646
 21
-5.9544735145335581
 31
0.0
  0
LINE
  5
1EB
  8
LOGO
 10
66.945899589606995
 20
-6.2562960353482131
 30
0.0
 11
66.085046860436648
 21
-6.2562960353482691
 31
0.0
  0
LINE
  5
1EC
  8
LOGO
 10
66.08248954638394
 20
-6.7005947037333442
 30
0.0
 11
66.947058389242216
 21
-6.7005947037333442
 31
0.0
  0
LINE
  5
1ED
  8
LOGO
 10
66.925836557065224
 20
-7.0024172245485374
 30
0.0
 11
66.04501398162482
 21
-7.0024172245485374
 31
0.0
  0
LINE
  5
1EE
  8
LOGO
 10
65.908104145568132
 20
-7.4467158929338648
 30
0.0
 11
66.839331329060826
 21
-7.446715892933951
 31
0.0
  0
LINE
  5
1EF
  8
LOGO
 10
73.385872349577937
 20
-5.9544735145335581
 30
0.0
 11
78.080062975569092
 21
-5.9544735145335581
 31
0.0
  0
LINE
  5
1F0
  8
LOGO
 10
78.092593526312854
 20
-6.2562960353476171
 30
0.0
 11
73.363234621031793
 21
-6.256296035347896
 31
0.0
  0
LINE
  5
1F1
  8
LOGO
 10
73.362304744468304
 20
-6.700594703733401
 30
0.0
 11
78.092593526312854
 21
-6.700594703733401
 31
0.0
  0
LINE
  5
1F2
  8
LOGO
 10
78.092593526312854
 20
-7.0024172245485374
 30
0.0
 11
73.369232116200664
 21
-7.0024172245485374
 31
0.0
  0
LINE
  5
1F3
  8
LOGO
 10
77.301971667814442
 20
-8.7808606017965474
 30
0.0
 11
74.154712623702267
 21
-8.7808606017965474
 31
0.0
  0
ARC
  5
1F4
  8
LOGO
 10
75.773314811292593
 20
-6.2913692157853234
 30
0.0
 40
2.6135469515691381
 50
78.566027736072897
 51
94.608090876562486
  0
LINE
  5
1F5
  8
LOGO
 10
74.565635244622371
 20
-3.9986997282924222
 30
0.0
 11
77.008202212188763
 21
-3.9986997282924781
 31
0.0
  0
LINE
  5
1F6
  8
LOGO
 10
72.255442502895846
 20
-8.7808606017964053
 30
0.0
 11
71.414374842161578
 21
-8.7808606017964053
 31
0.0
  0
LINE
  5
1F7
  8
LOGO
 10
71.414374842161578
 20
-9.0830742491259553
 30
0.0
 11
72.255442502895846
 21
-9.0830742491259002
 31
0.0
  0
LINE
  5
1F8
  8
LOGO
 10
68.889787767421183
 20
-9.0830742491259553
 30
0.0
 11
68.889787767421183
 21
-8.7808606017964053
 31
0.0
  0
LINE
  5
1F9
  8
LOGO
 10
71.414374842161578
 20
-8.7808606017964053
 30
0.0
 11
71.414374842161578
 21
-9.0830742491259553
 31
0.0
  0
LINE
  5
1FA
  8
LOGO
 10
72.255442502895846
 20
-9.0830742491259002
 30
0.0
 11
72.255442502895846
 21
-8.7808606017964053
 31
0.0
  0
ARC
  5
1FB
  8
LOGO
 10
77.434616770284123
 20
-0.583446572902119
 30
0.0
 40
8.9568250090406298
 50
252.40642493250439
 51
254.63935643340011
  0
ARC
  5
1FC
  8
LOGO
 10
75.170115999502585
 20
-7.7248358867237501
 30
0.0
 40
1.4650024622609701
 50
226.12344378678279
 51
252.4064249325034
  0
LINE
  5
1FD
  8
LOGO
 10
71.414374842161578
 20
-8.3369530599259747
 30
0.0
 11
72.255442502895846
 21
-8.3369530599258592
 31
0.0
  0
LINE
  5
1FE
  8
LOGO
 10
72.255442502895875
 20
-8.0347394125964762
 30
0.0
 11
71.414374842161578
 21
-8.0347394125964762
 31
0.0
  0
LINE
  5
1FF
  8
LOGO
 10
71.414374842161635
 20
-7.446715892933752
 30
0.0
 11
72.255442502895846
 21
-7.4467158929338648
 31
0.0
  0
LINE
  5
200
  8
LOGO
 10
72.255442502895875
 20
-7.7485384137488591
 30
0.0
 11
71.414374842161635
 21
-7.7485384137487472
 31
0.0
  0
LINE
  5
201
  8
LOGO
 10
72.255442502895846
 20
-7.0024172245485934
 30
0.0
 11
71.414374842161649
 21
-7.0024172245485374
 31
0.0
  0
LINE
  5
202
  8
LOGO
 10
71.414374842161649
 20
-6.7005947037335432
 30
0.0
 11
72.255442502895875
 21
-6.7005947037334863
 31
0.0
  0
LINE
  5
203
  8
LOGO
 10
72.255442502895875
 20
-6.2562960353483827
 30
0.0
 11
71.414374842161578
 21
-6.256296035348468
 31
0.0
  0
LINE
  5
204
  8
LOGO
 10
71.414374842161578
 20
-5.954473514533646
 30
0.0
 11
72.255442502895875
 21
-5.954473514533646
 31
0.0
  0
LINE
  5
205
  8
LOGO
 10
72.255442502895875
 20
-5.5101748461485132
 30
0.0
 11
71.414374842161536
 21
-5.5101748461485132
 31
0.0
  0
LINE
  5
206
  8
LOGO
 10
71.414374842161578
 20
-5.2083523253335171
 30
0.0
 11
72.255442502895875
 21
-5.2083523253335171
 31
0.0
  0
LINE
  5
207
  8
LOGO
 10
71.122058960297863
 20
-4.7312741456988192
 30
0.0
 11
72.21788739378627
 21
-4.7312741456988192
 31
0.0
  0
ARC
  5
208
  8
LOGO
 10
70.349641954471281
 20
-5.9791453630548972
 30
0.0
 40
1.5281718882560651
 50
104.3206201481556
 51
115.91216581025139
  0
LINE
  5
209
  8
LOGO
 10
69.410272886422305
 20
-3.985152956498891
 30
0.0
 11
71.660538707853036
 21
-3.985152956498891
 31
0.0
  0
ARC
  5
20A
  8
LOGO
 10
70.231675211930167
 20
-5.1121927505478482
 30
0.0
 40
1.394604057687959
 50
105.89759812420191
 51
126.0850877083505
  0
LINE
  5
20B
  8
LOGO
 10
68.90869074552343
 20
-3.9851529564989181
 30
0.0
 11
68.90869074552343
 21
-3.6829393091693681
 31
0.0
  0
ARC
  5
20C
  8
LOGO
 10
70.117347783432891
 20
-5.5010128024619851
 30
0.0
 40
0.9965975026828357
 50
115.9121658102511
 51
129.4331113719559
  0
ARC
  5
20D
  8
LOGO
 10
73.087983772951091
 20
-7.5355272756773939
 30
0.0
 40
4.6131805596845181
 50
149.7043452872183
 51
152.50223808277019
  0
LINE
  5
20E
  8
LOGO
 10
68.889787767421183
 20
-8.3369530599259161
 30
0.0
 11
68.889787767421126
 21
-8.0347394125964247
 31
0.0
  0
LINE
  5
20F
  8
LOGO
 10
68.889787767421183
 20
-7.7485384137485189
 30
0.0
 11
68.889787767421183
 21
-7.4467158929335824
 31
0.0
  0
LINE
  5
210
  8
LOGO
 10
68.889787767421183
 20
-7.0024172245484522
 30
0.0
 11
68.889787767421183
 21
-6.7005947037336284
 31
0.0
  0
LINE
  5
211
  8
LOGO
 10
68.889787767421183
 20
-6.256296035348667
 30
0.0
 11
68.889787767421126
 21
-5.9544735145335581
 31
0.0
  0
ARC
  5
212
  8
LOGO
 10
69.82960017073674
 20
-5.8394819009760113
 30
0.0
 40
0.9398124033155694
 50
152.50223808276991
 51
159.4884261820614
  0
ARC
  5
213
  8
LOGO
 10
70.716439795606789
 20
-5.4491804127207502
 30
0.0
 40
1.7420579021956211
 50
57.694211673095062
 51
79.655745312383019
  0
ARC
  5
214
  8
LOGO
 10
70.475739232686735
 20
-6.7678794238675826
 30
0.0
 40
3.0825443224885301
 50
79.655745312382734
 51
90.938592308651096
  0
ARC
  5
215
  8
LOGO
 10
70.461854527279954
 20
-5.920372099110434
 30
0.0
 40
2.2349232688559262
 50
90.938592308650826
 51
105.89759812420159
  0
ARC
  5
216
  8
LOGO
 10
70.917897820109303
 20
-5.1305765973405331
 30
0.0
 40
1.365104686515914
 50
57.04244898906434
 51
57.694211673094912
  0
ARC
  5
217
  8
LOGO
 10
70.372153411270858
 20
-6.067328718531142
 30
0.0
 40
1.619183260459147
 50
92.892616712591604
 51
104.3206201481549
  0
ARC
  5
218
  8
LOGO
 10
70.364904932288653
 20
-5.92387578674973
 30
0.0
 40
1.475547317588878
 50
73.886895673998453
 51
92.892616712591817
  0
ARC
  5
219
  8
LOGO
 10
70.590557329617411
 20
-5.1427552844002644
 30
0.0
 40
0.6624862844487442
 50
47.667603122698779
 51
73.88689567399723
  0
ARC
  5
21A
  8
LOGO
 10
58.805039193948097
 20
-18.080167355131241
 30
0.0
 40
18.163202521622718
 50
47.302282017131873
 51
47.667603122698758
  0
ARC
  5
21B
  8
LOGO
 10
81.335899742018057
 20
-3.1726664864914351
 30
0.0
 40
10.12928473702388
 50
191.5937078416064
 51
191.6244966541247
  0
LINE
  5
21C
  8
LOGO
 10
71.414374842161578
 20
-8.0347394125964247
 30
0.0
 11
71.414374842161578
 21
-8.3369530599259747
 31
0.0
  0
LINE
  5
21D
  8
LOGO
 10
71.414374842161635
 20
-7.4467158929338089
 30
0.0
 11
71.414374842161635
 21
-7.7485384137487472
 31
0.0
  0
LINE
  5
21E
  8
LOGO
 10
71.414374842161649
 20
-6.7005947037334863
 30
0.0
 11
71.414374842161649
 21
-7.0024172245485374
 31
0.0
  0
LINE
  5
21F
  8
LOGO
 10
71.414374842161578
 20
-5.954473514533646
 30
0.0
 11
71.414374842161635
 21
-6.2562960353484121
 31
0.0
  0
LINE
  5
220
  8
LOGO
 10
71.414374842161578
 20
-5.2083523253335171
 30
0.0
 11
71.414374842161578
 21
-5.5101748461485132
 31
0.0
  0
LINE
  5
221
  8
LOGO
 10
74.446555998790089
 20
-7.7485384137489151
 30
0.0
 11
73.510677238302492
 21
-7.7485384137488591
 31
0.0
  0
LINE
  5
222
  8
LOGO
 10
73.431281555678183
 20
-7.446715892934292
 30
0.0
 11
74.326058537133918
 21
-7.446715892934292
 31
0.0
  0
LINE
  5
223
  8
LOGO
 10
74.381227545692354
 20
-5.5101748461482032
 30
0.0
 11
73.476491055933195
 21
-5.5101748461482032
 31
0.0
  0
LINE
  5
224
  8
LOGO
 10
73.579966134125186
 20
-5.2083523253335171
 30
0.0
 11
74.504536014306552
 21
-5.2083523253335171
 31
0.0
  0
LINE
  5
225
  8
LOGO
 10
74.633506929530711
 20
-8.0347394125967924
 30
0.0
 11
73.617968294319539
 21
-8.0347394125967622
 31
0.0
  0
ARC
  5
226
  8
LOGO
 10
75.711329338067003
 20
-7.097320882265362
 30
0.0
 40
2.2936682324364441
 50
204.12309634041009
 51
212.71484703850911
  0
ARC
  5
227
  8
LOGO
 10
70.917897820109303
 20
-5.1305765973405331
 30
0.0
 40
1.365104686515914
 50
28.046512646404349
 51
30.923409814528441
  0
LINE
  5
228
  8
LOGO
 10
72.255442502895846
 20
-7.7485384137488591
 30
0.0
 11
72.255442502895846
 21
-7.4467158929338648
 31
0.0
  0
LINE
  5
229
  8
LOGO
 10
72.255442502895846
 20
-7.0024172245485934
 30
0.0
 11
72.255442502895846
 21
-6.7005947037334863
 31
0.0
  0
LINE
  5
22A
  8
LOGO
 10
72.255442502895846
 20
-6.2562960353483827
 30
0.0
 11
72.255442502895846
 21
-5.954473514533646
 31
0.0
  0
LINE
  5
22B
  8
LOGO
 10
72.255442502895846
 20
-8.3369530599258592
 30
0.0
 11
72.255442502895875
 21
-8.0347394125964762
 31
0.0
  0
ARC
  5
22C
  8
LOGO
 10
76.574272111280493
 20
-6.781292962078254
 30
0.0
 40
3.2126589158381562
 50
179.3096674724458
 51
183.94673452461689
  0
ARC
  5
22D
  8
LOGO
 10
54.836045228332978
 20
-6.5193656187585134
 30
0.0
 40
18.527145911889239
 50
359.30966747244599
 51
359.43953443546638
  0
ARC
  5
22E
  8
LOGO
 10
76.357057528409086
 20
-6.3290828499998204
 30
0.0
 40
2.9947075852450711
 50
172.81402050830269
 51
178.6072803851919
  0
ARC
  5
22F
  8
LOGO
 10
76.357057528409086
 20
-6.3290828499998204
 30
0.0
 40
2.9947075852450711
 50
158.02283443606399
 51
164.13023071723691
  0
ARC
  5
230
  8
LOGO
 10
76.574272111280493
 20
-6.781292962078254
 30
0.0
 40
3.2126589158381562
 50
191.9539402594701
 51
197.52207249173929
  0
ARC
  5
231
  8
LOGO
 10
75.962539437628763
 20
-6.968343510381203
 30
0.0
 40
1.704966238397094
 50
196.2945773177365
 51
207.23243691275951
  0
ARC
  5
232
  8
LOGO
 10
75.753199938745396
 20
-6.0418057146570412
 30
0.0
 40
2.363174131173245
 50
94.608090876562215
 51
120.167491381597
  0
ARC
  5
233
  8
LOGO
 10
79.576511605111662
 20
-7.4669063965999349
 30
0.0
 40
5.5521169734216391
 50
155.99655853753421
 51
158.8491043696468
  0
POLYLINE
  5
234
  8
LOGO
 66
     1
 10
0.0
 20
0.0
 30
0.0
  0
VERTEX
  5
3E15
  8
LOGO
 10
74.398421969693743
 20
-5.4635615400826172
 30
0.0
 42
0.0078820950836586
  0
VERTEX
  5
3E16
  8
LOGO
 10
74.381227545692354
 20
-5.5101748461482032
 30
0.0
 42
0.8344830144720538
  0
SEQEND
  5
3E17
  8
LOGO
  0
ARC
  5
238
  8
LOGO
 10
75.500487535495949
 20
-5.728274531313275
 30
0.0
 40
1.960476525412979
 50
138.4936398277834
 51
149.4327041983054
  0
ARC
  5
239
  8
LOGO
 10
75.555313331763216
 20
-5.4302914458965281
 30
0.0
 40
1.044585940693282
 50
106.565279291238
 51
137.99609717174101
  0
LINE
  5
23A
  8
LOGO
 10
73.812453638389869
 20
-4.7312741456984782
 30
0.0
 11
74.779082308473164
 21
-4.731274145698448
 31
0.0
  0
LINE
  5
23B
  8
LOGO
 10
75.257493961661169
 20
-4.429060498369406
 30
0.0
 11
74.032321637752503
 21
-4.42906049836935
 31
0.0
  0
LINE
  5
23C
  8
LOGO
 10
73.781503950992487
 20
-8.3369530599256336
 30
0.0
 11
74.955299076219418
 21
-8.3369530599255768
 31
0.0
  0
ARC
  5
23D
  8
LOGO
 10
75.91286535692177
 20
-6.9949258225721271
 30
0.0
 40
1.6486267884929611
 50
219.10289120275991
 51
234.49129818937149
  0
LINE
  5
23E
  8
LOGO
 10
72.255442502895846
 20
-5.5101748461485132
 30
0.0
 11
72.255442502895875
 21
-5.2083523253335171
 31
0.0
  0
ARC
  5
23F
  8
LOGO
 10
71.125023233409081
 20
-5.020230287336342
 30
0.0
 40
1.1304192694867621
 50
14.810240596961251
 51
28.046512646404398
  0
ARC
  5
240
  8
LOGO
 10
76.187708297111811
 20
-7.7357712807341263
 30
0.0
 40
1.519114354369776
 50
283.9132052122664
 51
306.59490336327229
  0
ARC
  5
241
  8
LOGO
 10
75.694672419691273
 20
-7.0717745210374972
 30
0.0
 40
2.346142814165141
 50
306.59490336327252
 51
313.24202403152032
  0
LINE
  5
242
  8
LOGO
 10
77.916372446833918
 20
-7.7485384137489151
 30
0.0
 11
77.127215840164183
 21
-7.466589211086271
 31
0.0
  0
LINE
  5
243
  8
LOGO
 10
78.005645692530095
 20
-5.5101748461480042
 30
0.0
 11
77.121495961506781
 21
-5.5101748461480611
 31
0.0
  0
LINE
  5
244
  8
LOGO
 10
77.013727095363095
 20
-5.208352325333574
 30
0.0
 11
77.914588261865632
 21
-5.208352325333574
 31
0.0
  0
LINE
  5
245
  8
LOGO
 10
77.916372446833918
 20
-7.7485384137489151
 30
0.0
 11
77.047686795912853
 21
-7.7485384137489453
 31
0.0
  0
LINE
  5
246
  8
LOGO
 10
77.824575362877212
 20
-8.0347394125968776
 30
0.0
 11
76.881487295603364
 21
-8.0347394125968776
 31
0.0
  0
ARC
  5
247
  8
LOGO
 10
76.004529560252536
 20
-7.2931495635568222
 30
0.0
 40
1.965330055703395
 50
327.91961770986768
 51
337.83123220721939
  0
ARC
  5
248
  8
LOGO
 10
75.810082746635317
 20
-6.1095769540987694
 30
0.0
 40
2.4280737527546301
 50
62.825793440161732
 51
78.566027736072755
  0
ARC
  5
249
  8
LOGO
 10
76.132158882292615
 20
-5.4821900165193824
 30
0.0
 40
1.7228451326567511
 50
59.436937487356339
 51
62.825793440161711
  0
ARC
  5
24A
  8
LOGO
 10
75.790459788928501
 20
-5.7166039646336051
 30
0.0
 40
1.3682779811040511
 50
52.417575442007923
 51
67.568889731400475
  0
ARC
  5
24B
  8
LOGO
 10
76.132158882292615
 20
-5.4821900165193824
 30
0.0
 40
1.7228451326567511
 50
35.291445215868052
 51
37.681640020482263
  0
ARC
  5
24C
  8
LOGO
 10
75.076928161944863
 20
-6.2290984970952641
 30
0.0
 40
3.015665364368008
 50
29.780673092537729
 51
35.291445215868102
  0
ARC
  5
24D
  8
LOGO
 10
74.895001009118843
 20
-6.1350167389739454
 30
0.0
 40
2.312511008414726
 50
15.676204858609539
 51
23.623061723078091
  0
ARC
  5
24E
  8
LOGO
 10
75.865115451378841
 20
-5.5357545309413183
 30
0.0
 40
1.172625264274662
 50
67.568889731401001
 51
70.695446104928394
  0
ARC
  5
24F
  8
LOGO
 10
76.181754840853543
 20
-5.208174435505267
 30
0.0
 40
0.7267077170248393
 50
41.014327309156791
 51
52.417575442008861
  0
LINE
  5
250
  8
LOGO
 10
76.730088880983786
 20
-4.7312741456983911
 30
0.0
 11
77.694323776331629
 21
-4.7312741456983911
 31
0.0
  0
LINE
  5
251
  8
LOGO
 10
77.495652031934426
 20
-4.42906049836935
 30
0.0
 11
76.252772940258978
 21
-4.42906049836935
 31
0.0
  0
LINE
  5
252
  8
LOGO
 10
76.54345856990291
 20
-8.3369530599255768
 30
0.0
 11
77.669761222460423
 21
-8.3369530599254915
 31
0.0
  0
ARC
  5
253
  8
LOGO
 10
75.690370560196655
 20
-6.974013686418342
 30
0.0
 40
1.6079063679707271
 50
302.04318217443512
 51
304.79107363499543
  0
ARC
  5
254
  8
LOGO
 10
75.897312313484903
 20
-7.2718628540019372
 30
0.0
 40
1.245223288844834
 50
304.79107363499679
 51
322.21918958508388
  0
ARC
  5
255
  8
LOGO
 10
75.897312313484903
 20
-7.2718628540019372
 30
0.0
 40
1.245223288844834
 50
337.49256724669402
 51
351.00323687255241
  0
LINE
  5
256
  8
LOGO
 10
78.092593526312854
 20
-7.0024172245485374
 30
0.0
 11
78.092593526312811
 21
-6.700594703733401
 31
0.0
  0
LINE
  5
257
  8
LOGO
 10
78.092593526312854
 20
-6.2562960353476171
 30
0.0
 11
78.092593526312854
 21
-6.2290984970952641
 31
0.0
  0
ARC
  5
258
  8
LOGO
 10
75.076928161944863
 20
-6.2290984970952641
 30
0.0
 40
3.015665364368008
 50
0.0
 51
5.2249438864765683
  0
ARC
  5
259
  8
LOGO
 10
75.076928161944863
 20
-6.2290984970952641
 30
0.0
 40
3.015665364368008
 50
13.791911644279001
 51
19.784370393145469
  0
ARC
  5
25A
  8
LOGO
 10
75.617343425108004
 20
-1.498209609353863
 30
0.0
 40
7.8078436712826731
 50
270.80796607287948
 51
272.20365367433089
  0
ARC
  5
25B
  8
LOGO
 10
64.377837621639856
 20
-7.1121983933890061
 30
0.0
 40
2.087454529752907
 50
233.07060880962851
 51
275.08890706327469
  0
ARC
  5
25C
  8
LOGO
 10
64.7481581230914
 20
-7.1121983933890061
 30
0.0
 40
2.087454529752907
 50
264.91109293672531
 51
306.92939119036691
  0
ARC
  5
25D
  8
LOGO
 10
75.693810461877376
 20
-6.9204027045544461
 30
0.0
 40
2.38511141075633
 50
254.6393564333996
 51
270.80796607287931
  0
ARC
  5
25E
  8
LOGO
 10
75.79661323509481
 20
-6.1569899206114371
 30
0.0
 40
3.145615485818785
 50
272.20365367433112
 51
283.91320521226618
  0
INSERT
  5
25F
  8
TEXT
  6
CONTINUOUS
  2
*X3
 10
0.0
 20
0.0
 30
0.0
1001
ACAD
1000
HATCH
1002
{
1070
    19
1000
LINE
1040
2.5
1040
0.7853981633974483
1000
R14_HATCH_DATA
1000
25F
1011
1.0
1021
0.0
1031
0.0
1021
0.0
1031
0.0
1011
0.0
1021
0.0
1031
0.0
1021
1.0
1031
0.0
1011
0.0
1021
0.0
1031
0.0
1021
0.0
1031
1.0
1040
0.0
1010
0.0
1020
0.0
1030
1.0
1000
LINE
1070
     0
1070
     0
1071
        1
1071
       33
1071
       26
1070
     2
1040
17.036532851568442
1040
0.6525381189195798
1040
9.8994184161046181
1040
3.5088984699458501
1040
4.5375614020651831
1070
     1
1070
     2
1040
5.7810769861243001
1040
-4.4960650520383751
1040
10.054234843051701
1040
0.3825118887927419
1040
1.4251817694776621
1070
     1
1070
     2
1040
16.87421196698406
1040
-0.0633958238849175
1040
5.1597607500000011
1040
3.492499997180873
1040
4.936841652328221
1070
     1
1070
     2
1040
16.530227916984181
1040
-0.2353878488848977
1040
5.5037447999999971
1040
3.492499997180873
1040
4.806460490329993
1070
     1
1070
     1
1040
5.5801483965513512
1040
2.235896324999997
1040
6.2678664658460521
1040
2.235896324999997
1070
     1
1040
5.5801483965513512
1040
2.235896324999997
1040
7.2399515943484403
1040
5.4517650207320401
1070
     1
1040
2.751872399999852
1040
5.3317527749999831
1040
6.53569694999993
1040
5.3317527749999831
1070
     1
1040
4.671525324193591
1040
1.7199202499999711
1040
5.9238824158460321
1040
1.7199202499999711
1070
     1
1040
4.671525324193448
1040
-1.7199202499999711
1040
5.9238824158460321
1040
-1.7199202499999711
1070
     1
1040
4.671525324193591
1040
1.7199202499999711
1040
6.53569694999993
1040
5.3317527749999831
1070
     1
1040
0.0
1040
0.0
1040
2.751872399999852
1040
5.3317527749999831
1070
     2
1040
5.5129724370820563
1040
-4.622196489821869
1040
6.355414365104596
1040
0.3887491582851557
1040
1.5060960914270241
1070
     1
1070
     2
1040
5.9238824158460321
1040
-3.7838245499999901
1040
2.063904299999999
1040
0.3675980636032729
1040
1.570796326794893
1070
     1
1070
     2
1040
5.8586164797423521
1040
-4.4488734874326212
1040
6.6972854946116254
1040
0.3875729243342187
1040
1.50965138853112
1070
     1
1070
     1
1040
2.751872399999852
1040
-5.3317527749999831
1040
6.53569694999993
1040
-5.3317527749999831
1070
     1
1040
6.53569694999993
1040
-5.3317527749999831
1040
4.671525324193448
1040
-1.7199202499999711
1070
     1
1040
2.751872399999852
1040
-5.3317527749999831
1040
0.0
1040
0.0
1070
     1
1040
15.96429976049995
1040
1.581752774999984
1040
17.789879566376008
1040
-1.9553080988848981
1070
     1
1040
17.78987956637587
1040
-1.9553080988848981
1040
16.87421196698406
1040
-1.9553080988848981
1070
     1
1040
19.7481243105
1040
1.581752774999984
1040
15.96429976049995
1040
1.5817527750002951
1070
     2
1040
16.87421196698406
1040
-0.0633958238849175
1040
1.891912274999999
1040
3.492499997180873
1040
4.712388980384687
1070
     1
1070
     1
1040
19.7481243105
1040
-9.081752774999984
1040
15.96429976049995
1040
-9.0817527749997282
1070
     1
1040
22.4999967105
1040
-3.75
1040
19.7481243105
1040
-9.081752774999984
1070
     1
1040
15.96429976049995
1040
-9.0817527749997282
1040
18.02263434677684
1040
-5.0937295140886931
1070
     1
1040
15.31464437797268
1040
-9.0959789509534801
1040
17.047210211298442
1040
-5.7391326488848851
1070
     1
1040
19.7481243105
1040
1.581752774999984
1040
22.4999967105
1040
-3.75
1071
        0
1070
     0
1070
     1
1040
0.7853981633974483
1040
2.5
1070
     0
1070
     1
1040
0.7853981633974483
1040
-145.06181772491681
1040
-144.33407845518931
1040
-0.2209708691207961
1040
0.2209708691207961
1070
     0
1071
        1
1040
-145.06181772491681
1040
-144.33407845518931
1040
0.0
1002
}
  0
INSERT
  5
261
  8
TEXT
  6
CONTINUOUS
  2
*X4
 10
0.0
 20
0.0
 30
0.0
1001
ACAD
1000
HATCH
1002
{
1070
    19
1000
LINE
1040
2.5
1040
0.7853981633974483
1000
R14_HATCH_DATA
1000
261
1011
1.0
1021
0.0
1031
0.0
1021
0.0
1031
0.0
1011
0.0
1021
0.0
1031
0.0
1021
1.0
1031
0.0
1011
0.0
1021
0.0
1031
0.0
1021
0.0
1031
1.0
1040
0.0
1010
0.0
1020
0.0
1030
1.0
1000
LINE
1070
     0
1070
     0
1071
        9
1071
        1
1071
       28
1070
     1
1040
49.219131931186489
1040
-6.782712678961782
1040
53.049682891584041
1040
-6.782712678961782
1070
     1
1040
53.049682891584041
1040
-6.782712678961782
1040
53.049682891584041
1040
-6.2290984970952641
1070
     2
1040
50.034017527216072
1040
-6.22909849709532
1040
3.0156653643679761
1040
0.0000000000000188
1040
0.6159519168041217
1070
     1
1070
     2
1040
51.08924824756383
1040
-5.4821900165193824
1040
1.7228451326567431
1040
0.6159519168040927
1040
1.096516950708665
1070
     1
1070
     2
1040
50.767172111906518
1040
-6.1095769540988547
1040
2.428073752754714
1040
1.09651695070869
1040
1.3712358642076681
1070
     1
1070
     2
1040
50.730404176563667
1040
-6.2913692157852381
1040
2.613546951569063
1040
1.371235864207621
1040
1.6512226848219871
1070
     1
1070
     2
1040
50.710289304016612
1040
-6.0418057146570163
1040
2.3631741311732362
1040
1.6512226848220211
1040
2.249197234306461
1070
     1
1070
     2
1040
50.457576900767222
1040
-5.728274531313275
1040
1.9604765254130101
1040
2.2491972343064832
1040
2.6335992634754781
1070
     1
1070
     2
1040
52.161689281033141
1040
-6.6770002851271171
1040
3.9108814988801361
1040
2.6335992634754151
1040
2.7520661545002021
1070
     1
1070
     2
1040
51.314146893680231
1040
-6.329082849999847
1040
2.9947075852450551
1040
2.7520661545002421
1040
3.1504341433776162
1070
     1
1070
     2
1040
29.7931345936043
1040
-6.51936561875885
1040
18.527145911889111
1040
6.2743438173917312
1040
6.2952338827189971
1070
     0
1070
     2
1040
51.531361476551638
1040
-6.7812929620781679
1040
3.212658915838126
1040
3.1295440780503831
1040
3.4926446990817861
1070
     1
1070
     2
1040
50.668418703338219
1040
-7.0973208822653922
1040
2.293668232436441
1040
3.4926446990817541
1040
4.0006994069369934
1070
     1
1070
     2
1040
50.127205364773772
1040
-7.7248358867237812
1040
1.465002462260975
1040
4.000699406936957
1040
4.4053231682600531
1070
     1
1070
     2
1040
52.391706135554777
1040
-0.5834465729022043
1040
8.9568250090404131
1040
4.4053231682601641
1040
4.4442951749222921
1070
     1
1070
     2
1040
50.650899827148521
1040
-6.9204027045544194
1040
2.38511141075635
1040
4.4442951749222352
1040
4.726490648600846
1070
     1
1070
     2
1040
50.574432790379092
1040
-1.498209609353693
1040
7.8078436712828463
1040
4.7264906486008531
1040
4.7508499925754464
1070
     1
1070
     2
1040
50.753702600365969
1040
-6.156989920611406
1040
3.1456154858188081
1040
4.750849992575449
1040
4.9552202208443772
1070
     1
1070
     2
1040
51.144797662383041
1040
-7.7357712807340979
1040
1.519114354369778
1040
4.9552202208443452
1040
5.3510905335228971
1070
     1
1070
     2
1040
50.65176178496241
1040
-7.071774521037522
1040
2.346142814165137
1040
5.3510905335229584
1040
5.662832155822576
1070
     1
1070
     2
1040
50.961618925523702
1040
-7.2931495635568782
1040
1.9653300557033631
1040
5.662832155822568
1040
6.1948207272719991
1070
     1
1070
     1
1040
52.91928103030989
1040
-7.466589211086271
1040
52.084305205435399
1040
-7.466589211086271
1070
     2
1040
50.854401678756091
1040
-7.271862854001907
1040
1.24522328884485
1040
0.1570231385960188
1040
0.96357754156044
1070
     0
1070
     2
1040
50.647459925467892
1040
-6.974013686418342
1040
1.6079063679707151
1040
0.9635775415604611
1040
1.5441035618838861
1070
     0
1070
     2
1040
50.656996570440811
1040
-7.3312033568108728
1040
1.2505894103092341
1040
1.544103561883845
1040
2.135328322831973
1070
     0
1070
     2
1040
50.869954722192922
1040
-6.994925822572152
1040
1.6486267884929111
1040
2.1353283228319642
1040
2.6502341175057151
1070
     0
1070
     2
1040
50.919628802899972
1040
-6.9683435103812306
1040
1.704966238397114
1040
2.6502341175057582
1040
3.1691511898275122
1070
     0
1070
     1
1040
49.215309961371361
1040
-6.9213630837701841
1040
49.219131931186489
1040
-6.782712678961782
1071
        0
1071
        1
1071
       28
1070
     1
1040
43.729424419143491
1040
-8.5178228574003452
1040
43.819920563709957
1040
-8.6157852045498942
1070
     2
1040
47.268949958554401
1040
-5.4296236658380481
1040
4.6954689986483391
1040
3.887394298623839
1040
3.991002972020492
1070
     1
1070
     2
1040
44.932958026934813
1040
-8.0855993738422232
1040
1.158370573936339
1040
3.9910029720204512
1040
4.3630923655672307
1070
     1
1070
     2
1040
45.342981081337612
1040
-6.9598786386543452
1040
2.3564382175916432
1040
4.3630923655672227
1040
4.5601953441924241
1070
     1
1070
     2
1040
45.316940146856894
1040
-7.1296594701723821
1040
2.1846719199090501
1040
4.560195344192449
1040
4.8246302123530942
1070
     1
1070
     2
1040
45.25617578961981
1040
-6.5905619397124147
1040
2.7271831681412642
1040
4.8246302123530942
1040
5.0638778127673874
1070
     1
1070
     2
1040
45.688345726661083
1040
-7.7690466489708561
1040
1.47195527471385
1040
5.0638778127673501
1040
5.586307257521514
1070
     1
1070
     2
1040
42.228118904748293
1040
-4.872956028461771
1040
5.9842175167921372
1040
5.58630725752153
1040
5.6783060712651192
1070
     1
1070
     2
1040
45.634001376366911
1040
-7.2275235898043171
1040
1.843683274522733
1040
5.678306071265105
1040
5.9897814764467681
1070
     1
1070
     2
1040
39.53581273372162
1040
-5.3851174167859881
1040
8.2141122418422761
1040
5.9897814764468063
1040
6.045959746237842
1070
     1
1070
     2
1040
45.172382369448258
1040
-6.74791651661016
1040
2.415134862607462
1040
6.0459597462378003
1040
6.3509423522582242
1070
     1
1070
     2
1040
412.98326389980451
1040
18.212070903226959
1040
366.24167782927282
1040
3.073835608511128
1040
3.076070660673198
1070
     0
1070
     2
1040
45.887042214891927
1040
-5.8752850660582947
1040
1.643952078895033
1040
0.0655219929166329
1040
0.3596767824161564
1070
     1
1070
     2
1040
43.067386078897677
1040
-6.9355713193692452
1040
4.6563709847263901
1040
0.3596767824160774
1040
0.483960399475004
1070
     1
1070
     2
1040
45.67795270595424
1040
-5.563313710622622
1040
1.707108524540041
1040
0.4839603994750659
1040
0.7825597445077186
1070
     1
1070
     2
1040
44.713263641107751
1040
-6.522541877789874
1040
3.0675289259312541
1040
0.782559744507688
1040
0.9575655233965028
1070
     1
1070
     2
1040
45.551764739512798
1040
-5.3310470646202921
1040
1.6105649655545851
1040
0.9575655233965195
1040
1.3264804569033961
1070
     1
1070
     2
1040
45.217152915935863
1040
-6.6732746152979372
1040
2.993872548948683
1040
1.326480456903355
1040
1.502238528066683
1070
     1
1070
     2
1040
45.246159811801597
1040
-6.250836375467256
1040
2.5704395950126271
1040
1.5022385280667141
1040
1.7082180891376311
1070
     1
1070
     2
1040
45.157157215092752
1040
-5.6072583503253091
1040
1.9207364807623351
1040
1.7082180891376031
1040
1.974717698930859
1070
     1
1070
     2
1040
44.931623068275492
1040
-5.0795983654451211
1040
1.346897905007491
1040
1.974717698930875
1040
2.351889644680599
1070
     1
1070
     2
1040
41.586587375265808
1040
-1.7056382548342111
1040
3.404193613317771
1040
0.7897030089090995
1040
0.8730065906062166
1070
     0
1070
     2
1040
44.130348062687503
1040
-4.7392803920684514
1040
0.5548091716869406
1040
2.26858606298347
1040
2.658472731945789
1070
     1
1070
     1
1040
43.639036859892308
1040
-4.4815469658391294
1040
43.639036859892308
1040
-3.8349515858681111
1070
     1
1040
43.639036859892308
1040
-3.8349515858681111
1040
42.905444758441313
1040
-3.8349515858681111
1070
     1
1040
42.905444758441313
1040
-3.8349515858681111
1040
42.905444758441313
1040
-11.28117879832854
1070
     1
1040
42.905444758441313
1040
-11.28117879832854
1040
43.729424419143491
1040
-11.28117879832854
1070
     1
1040
43.729424419143491
1040
-11.28117879832854
1040
43.729424419143491
1040
-8.5178228574003452
1071
        0
1071
        1
1071
       28
1070
     1
1040
29.760113120609791
1040
-6.782712678961782
1040
33.590664081007333
1040
-6.782712678961782
1070
     1
1040
33.590664081007333
1040
-6.782712678961782
1040
33.590664081007333
1040
-6.2290984970952641
1070
     2
1040
30.57499871663936
1040
-6.22909849709532
1040
3.0156653643679761
1040
0.0000000000000188
1040
0.6159519168041217
1070
     1
1070
     2
1040
31.630229436987118
1040
-5.4821900165193824
1040
1.7228451326567431
1040
0.6159519168040927
1040
1.096516950708665
1070
     1
1070
     2
1040
31.30815330132981
1040
-6.109576954098741
1040
2.428073752754615
1040
1.0965169507086681
1040
1.3712358642076461
1070
     1
1070
     2
1040
31.27138536598699
1040
-6.2913692157853234
1040
2.6135469515691461
1040
1.3712358642076281
1040
1.6512226848219951
1070
     1
1070
     2
1040
31.251270493439911
1040
-6.0418057146570163
1040
2.3631741311732362
1040
1.6512226848220211
1040
2.249197234306461
1070
     1
1070
     2
1040
30.9985580901905
1040
-5.728274531313275
1040
1.9604765254130101
1040
2.2491972343064832
1040
2.6335992634754781
1070
     1
1070
     2
1040
32.702670470456439
1040
-6.6770002851271171
1040
3.9108814988801361
1040
2.6335992634754151
1040
2.7520661545002021
1070
     1
1070
     2
1040
31.855128083103519
1040
-6.3290828499997591
1040
2.994707585245024
1040
2.752066154500266
1040
3.150434143377645
1070
     1
1070
     2
1040
10.33411578302761
1040
-6.51936561875885
1040
18.527145911889111
1040
6.2743438173917312
1040
6.2952338827189971
1070
     0
1070
     2
1040
32.072342665974958
1040
-6.781292962078254
1040
3.21265891583813
1040
3.1295440780503561
1040
3.4926446990817581
1070
     1
1070
     2
1040
31.209399892761521
1040
-7.0973208822653922
1040
2.293668232436441
1040
3.4926446990817541
1040
4.0006994069369934
1070
     1
1070
     2
1040
30.66818655419706
1040
-7.724835886723695
1040
1.465002462261038
1040
4.0006994069369961
1040
4.4053231682600931
1070
     1
1070
     2
1040
32.932687324978083
1040
-0.5834465729029148
1040
8.9568250090397292
1040
4.405323168260141
1040
4.4442951749222681
1070
     1
1070
     2
1040
31.19188101657182
1040
-6.9204027045544194
1040
2.38511141075635
1040
4.4442951749222352
1040
4.726490648600846
1070
     1
1070
     2
1040
31.11541397980238
1040
-1.498209609353693
1040
7.8078436712828463
1040
4.7264906486008531
1040
4.7508499925754464
1070
     1
1070
     2
1040
31.294683789789271
1040
-6.156989920611406
1040
3.1456154858188081
1040
4.750849992575449
1040
4.9552202208443772
1070
     1
1070
     2
1040
31.68577885180634
1040
-7.7357712807340979
1040
1.519114354369778
1040
4.9552202208443452
1040
5.3510905335228971
1070
     1
1070
     2
1040
31.192742974385741
1040
-7.0717745210374403
1040
2.3461428141651881
1040
5.3510905335229264
1040
5.6628321558225512
1070
     1
1070
     2
1040
31.502600114947029
1040
-7.2931495635568782
1040
1.9653300557033631
1040
5.662832155822568
1040
6.1948207272719991
1070
     1
1070
     1
1040
33.46026221973321
1040
-7.466589211086271
1040
32.625286394858712
1040
-7.466589211086271
1070
     2
1040
31.395382868179379
1040
-7.271862854001907
1040
1.24522328884485
1040
0.1570231385960188
1040
0.96357754156044
1070
     0
1070
     2
1040
31.188441114891191
1040
-6.974013686418342
1040
1.6079063679707151
1040
0.9635775415604611
1040
1.5441035618838861
1070
     0
1070
     2
1040
31.197977759864091
1040
-7.3312033568108728
1040
1.2505894103092341
1040
1.544103561883845
1040
2.135328322831973
1070
     0
1070
     2
1040
31.410935911616239
1040
-6.9949258225722124
1040
1.648626788492884
1040
2.1353283228319961
1040
2.6502341175057471
1070
     0
1070
     2
1040
31.46060999232327
1040
-6.9683435103811711
1040
1.704966238397108
1040
2.65023411750572
1040
3.169151189827478
1070
     0
1070
     1
1040
29.756291150794649
1040
-6.9213630837701841
1040
29.760113120609791
1040
-6.782712678961782
1071
        0
1071
        1
1071
       18
1070
     1
1040
26.510417709878229
1040
-2.178999555007465
1040
27.36200318667608
1040
-2.178999555007465
1070
     1
1040
27.36200318667608
1040
-2.178999555007465
1040
27.36200318667608
1040
-3.593666723446828
1070
     1
1040
27.36200318667608
1040
-3.593666723446828
1040
28.178722490313021
1040
-3.593666723446828
1070
     1
1040
28.178722490313021
1040
-3.593666723446828
1040
28.178722490313021
1040
-4.3779186284041032
1070
     1
1040
28.178722490313021
1040
-4.3779186284041032
1040
27.347922528822409
1040
-4.3779186284041032
1070
     1
1040
27.347922528822409
1040
-4.3779186284041032
1040
27.347922528822409
1040
-8.0413225124003986
1070
     2
1040
27.61560598314356
1040
-8.0413225124004271
1040
0.2676834543211441
1040
3.1415926535896861
1040
4.6763852719075212
1070
     1
1070
     2
1040
27.69714334998293
1040
-5.7776075829764864
1040
2.532866366116119
1040
4.6763852719075123
1040
4.900368935611584
1070
     1
1070
     1
1040
28.170472292375909
1040
-8.2658543032386547
1040
28.170472292375909
1040
-9.0091173112369631
1070
     1
1040
28.170472292375909
1040
-9.0091173112369631
1040
28.005602674565921
1040
-9.0380704757759194
1070
     2
1040
27.499810673296562
1040
-6.1579109053614012
1040
2.9242340363928481
1040
1.396956429809973
1040
1.535103695459676
1070
     0
1070
     2
1040
27.52178300231785
1040
-6.7732479302798891
1040
2.3085048447199541
1040
1.535103695459608
1040
1.693297389576063
1070
     0
1070
     2
1040
27.342775826217348
1040
-8.2272014765818522
1040
0.8435732818476406
1040
1.6932973895761061
1040
2.978348075243372
1070
     0
1070
     1
1040
26.510417709878229
1040
-8.364299427010053
1040
26.510417709878229
1040
-4.35994488058867
1070
     1
1040
26.510417709878229
1040
-4.35994488058867
1040
25.782657211347189
1040
-4.35994488058867
1070
     1
1040
25.782657211347189
1040
-4.35994488058867
1040
25.782657211347189
1040
-3.593666723446828
1070
     1
1040
25.782657211347189
1040
-3.593666723446828
1040
26.510417709878229
1040
-3.593666723446828
1070
     1
1040
26.510417709878229
1040
-3.593666723446828
1040
26.510417709878229
1040
-2.178999555007465
1071
        0
1071
       16
1071
       10
1070
     2
1040
50.825277730808182
1040
-6.0321976890697604
1040
1.5759315747471481
1040
2.772439885094478
1040
3.1490481240403221
1070
     1
1070
     1
1040
49.249389954179719
1040
-6.0439468915119452
1040
52.170132657979281
1040
-6.0439468915119452
1070
     1
1040
52.170132657979281
1040
-6.0439468915119452
1040
52.148322056907361
1040
-5.8611057602913661
1070
     2
1040
49.852090374389967
1040
-6.135016738973972
1040
2.3125110084147802
1040
0.118726155743438
1040
0.6242172848191422
1070
     1
1070
     2
1040
51.138844206124709
1040
-5.208174435505267
1040
0.7267077170248438
1040
0.624217284819158
1040
0.9148592773755675
1070
     1
1070
     2
1040
50.747549154199667
1040
-5.716603964633574
1040
1.3682779811040311
1040
0.9148592773755607
1040
1.1792995977299261
1070
     1
1070
     2
1040
50.822204816650043
1040
-5.5357545309412881
1040
1.1726252642746351
1040
1.1792995977299441
1040
1.5305721564868671
1070
     1
1070
     2
1040
50.770274167228521
1040
-6.8260891320366284
1040
2.464004439859099
1040
1.53057215648686
1040
1.7534848642218011
1070
     1
1070
     2
1040
50.512402697034361
1040
-5.430291445896497
1040
1.0445859406932521
1040
1.7534848642217871
1040
2.6727827163325961
1070
     1
1070
     2
1040
54.533600970382878
1040
-7.4669063966000513
1040
5.552116973421735
1040
2.672782716332569
1040
2.7724398850944261
1070
     1
1071
        0
1071
       16
1071
       10
1070
     2
1040
31.36625892023147
1040
-6.0321976890698412
1040
1.5759315747471521
1040
2.7724398850944261
1040
3.149048124040267
1070
     1
1070
     1
1040
29.790371143603011
1040
-6.0439468915119452
1040
32.711113847402572
1040
-6.0439468915119452
1070
     1
1040
32.711113847402572
1040
-6.0439468915119452
1040
32.689303246330681
1040
-5.8611057602913661
1070
     2
1040
30.393071563813251
1040
-6.135016738973972
1040
2.3125110084147802
1040
0.118726155743438
1040
0.6242172848191422
1070
     1
1070
     2
1040
31.679825395548018
1040
-5.208174435505156
1040
0.7267077170247545
1040
0.624217284819054
1040
0.9148592773754719
1070
     1
1070
     2
1040
31.288530343622998
1040
-5.716603964633574
1040
1.3682779811040311
1040
0.9148592773755607
1040
1.1792995977299261
1070
     1
1070
     2
1040
31.363186006073359
1040
-5.5357545309413441
1040
1.1726252642746871
1040
1.1792995977299621
1040
1.530572156486893
1070
     1
1070
     2
1040
31.311255356651831
1040
-6.8260891320366284
1040
2.464004439859099
1040
1.53057215648686
1040
1.7534848642218011
1070
     1
1070
     2
1040
31.053383886457649
1040
-5.430291445896497
1040
1.0445859406932521
1040
1.7534848642217871
1040
2.6727827163325961
1070
     1
1070
     2
1040
35.074582159806198
1040
-7.4669063965997662
1040
5.552116973421632
1040
2.6727827163326192
1040
2.772439885094474
1070
     1
1071
        0
1071
        1
1071
       48
1070
     1
1040
38.540806466558507
1040
-4.4527109356971231
1040
38.535345530022148
1040
-4.4600179722148381
1070
     1
1040
38.535345530022148
1040
-4.4600179722148381
1040
38.477418228542952
1040
-4.384952725402484
1070
     2
1040
8.6507395239543143
1040
-27.401982347160171
1040
37.675116657491998
1040
0.6572404892136297
1040
0.6677261590121485
1070
     1
1070
     2
1040
37.500319826519807
1040
-4.6523639830040224
1040
0.9349013703039641
1040
0.6677261590120783
1040
1.40601300971951
1070
     1
1070
     2
1040
37.011533844934903
1040
-7.5917019609458691
1040
3.9146026110939109
1040
1.406013009719552
1040
1.5221304823341131
1070
     1
1070
     2
1040
37.104083654603699
1040
-5.6914629891830941
1040
2.0121111874402402
1040
1.5221304823340871
1040
1.7411332149530561
1070
     1
1070
     2
1040
37.194117667627609
1040
-6.2149054235289611
1040
2.5432402730447872
1040
1.7411332149531
1040
1.938792055690399
1070
     1
1070
     2
1040
36.709395193167673
1040
-4.9577119126539051
1040
1.1958385508279461
1040
1.9387920556903151
1040
2.2752352036347472
1070
     1
1070
     2
1040
38.732007006426088
1040
-7.337521357415647
1040
4.3190502856467292
1040
2.2752352036348782
1040
2.3280838810819282
1070
     1
1070
     2
1040
36.341732207481357
1040
-4.808938027666894
1040
0.8395176633030853
1040
2.3280838810818301
1040
2.7922416610593581
1070
     1
1070
     1
1040
35.55292555974232
1040
-4.521581142451736
1040
35.55292555974232
1040
-3.8606867310121231
1070
     1
1040
35.55292555974232
1040
-3.8606867310121231
1040
34.736948719389027
1040
-3.8606867310121231
1070
     1
1040
34.736948719389027
1040
-3.8606867310121231
1040
34.736948719389027
1040
-9.0817527749998703
1070
     1
1040
34.736948719389027
1040
-9.0817527749998703
1040
35.574978462728353
1040
-9.0817527749998703
1070
     1
1040
35.574978462728353
1040
-9.0817527749998703
1040
35.574978462728353
1040
-5.5349526163513181
1070
     2
1040
36.41813475250666
1040
-5.5349526163513181
1040
0.8431562897783067
1040
3.14159265358979
1040
3.9232937623040409
1070
     0
1070
     2
1040
38.274714325808681
1040
-7.37785494046443
1040
3.4591029039552481
1040
3.9232937623040249
1040
4.0648853663086291
1070
     0
1070
     2
1040
36.70270624722216
1040
-5.2992291799410793
1040
0.8529765732773675
1040
4.0648853663086451
1040
4.584005981923152
1070
     0
1070
     2
1040
36.761339314963038
1040
-5.7534215578004364
1040
1.310937873758359
1040
4.58400598192316
1040
5.0000253184808434
1070
     0
1070
     2
1040
36.859858745897611
1040
-5.4204061401061612
1040
0.9636550686934386
1040
5.0000253184808301
1040
5.4621228198107641
1070
     0
1070
     2
1040
36.876423932999728
1040
-5.4026151431612561
1040
0.939346119805797
1040
5.4621228198107241
1040
5.8669468745868691
1070
     0
1070
     2
1040
37.291935544050972
1040
-5.2189306043912591
1040
0.4850445583936154
1040
5.8669468745869171
1040
6.2453564869626561
1070
     0
1070
     1
1040
37.776633089684971
1040
-5.2005863168977511
1040
37.776633089684971
1040
-9.0817527749998703
1070
     1
1040
37.776633089684971
1040
-9.0817527749998703
1040
38.61834765081268
1040
-9.0817527749998703
1070
     1
1040
38.61834765081268
1040
-9.0817527749998703
1040
38.61834765081268
1040
-5.446833189390329
1070
     2
1040
39.172457965652363
1040
-5.4468331893903041
1040
0.5541103148397042
1040
3.141592653589738
1040
3.5889266427624231
1070
     0
1070
     2
1040
40.469012479140773
1040
-6.0688826824998561
1040
1.992164270129638
1040
3.5889266427625111
1040
3.782160447739765
1070
     0
1070
     2
1040
39.71455132683522
1040
-5.50648716237336
1040
1.0511539878284331
1040
3.7821604477397188
1040
4.1488030565175844
1070
     0
1070
     2
1040
39.811078980076111
1040
-5.659231366964999
1040
1.2318426146883601
1040
4.1488030565175604
1040
4.4363780282219913
1070
     0
1070
     2
1040
39.830809586350568
1040
-5.7288916595111292
1040
1.304243258204637
1040
4.436378028222002
1040
4.6659902743804551
1070
     0
1070
     2
1040
39.828967795767262
1040
-5.6892252795934972
1040
1.2645341422698431
1040
4.665990274380535
1040
4.9503010606712561
1070
     0
1070
     2
1040
39.952415471849292
1040
-5.1801729254750324
1040
0.7407272809520415
1040
4.9503010606712641
1040
5.435375173950737
1070
     0
1070
     2
1040
39.094001167838123
1040
-6.1530290565641792
1040
2.038157113015699
1040
5.4353751739506011
1040
5.5591293250197644
1070
     0
1070
     2
1040
40.128705743093953
1040
-5.2380712585658671
1040
0.6569397766875863
1040
5.5591293250198843
1040
5.99213398942371
1070
     0
1070
     2
1040
39.35896885164999
1040
-5.468652167031621
1040
1.460471006571489
1040
5.992133989423702
1040
6.1884326502685907
1070
     0
1070
     1
1040
40.812888659309237
1040
-5.33047563526139
1040
40.812888659309237
1040
-9.0817527749998703
1070
     1
1040
40.812888659309237
1040
-9.0817527749998703
1040
41.661717981830392
1040
-9.0817527749998703
1070
     1
1040
41.661717981830392
1040
-9.0817527749998703
1040
41.661717981830392
1040
-4.7859387779507161
1070
     2
1040
41.16866355339053
1040
-4.7859387779507161
1040
0.4930544284398481
1040
0.0
1040
0.5155742996745946
1070
     1
1070
     2
1040
4.0833178430216321
1040
-25.802207194916448
1040
43.11941252564926
1040
0.5155742996746136
1040
0.5236428798510758
1070
     1
1070
     2
1040
40.997528749301551
1040
-4.487606771056277
1040
0.4934678667664942
1040
0.5236428798509798
1040
0.8668828820809302
1070
     1
1070
     2
1040
37.47893915037173
1040
-8.6319978667703481
1040
5.9300523018627791
1040
0.8668828820810111
1040
0.9455447359200285
1070
     1
1070
     2
1040
40.536606587737921
1040
-4.3962215192960912
1040
0.7059608570896339
1040
0.9455447359200414
1040
1.679034274165369
1070
     1
1070
     1
1040
40.460343945992058
1040
-3.6943919522239521
1040
40.035662981212681
1040
-3.6943919522239521
1070
     2
1040
40.035662981212532
1040
-7.4254774650927393
1040
3.7310855128687872
1040
1.570796326794865
1040
1.7159167928136261
1070
     1
1070
     2
1040
39.60620816375507
1040
-4.486982142439615
1040
0.7613740451514671
1040
1.715916792813698
1040
2.1952449599002981
1070
     1
1070
     2
1040
41.819098662146921
1040
-7.5576843641414069
1040
4.5463570691870041
1040
2.1952449599002342
1040
2.2880889375739701
1070
     1
1070
     2
1040
40.024198230459753
1040
-5.4999947269052711
1040
1.815834371449478
1040
2.288088937573995
1040
2.5268470424561951
1070
     1
1071
        0
1071
        1
1071
       22
1070
     1
1040
56.687567291019043
1040
-3.7120345925850402
1040
56.625224461137009
1040
-3.7028521554200871
1070
     2
1040
56.418488879812458
1040
-5.1064535028146452
1040
1.418744636287097
1040
1.424558394295794
1040
1.717034259293994
1070
     1
1070
     2
1040
56.436700455003319
1040
-5.230098360232712
1040
1.543723483444795
1040
1.717034259293972
1040
1.929148262364345
1070
     1
1070
     2
1040
56.325361202031232
1040
-4.9328151098413811
1040
1.2262746525828541
1040
1.9291482623644021
1040
2.1192888652201001
1070
     1
1070
     2
1040
56.311717620270031
1040
-4.9104863952565827
1040
1.200107520178165
1040
2.11928886522016
1040
2.3168948920043162
1070
     1
1070
     2
1040
57.201665103378041
1040
-5.8732835046646681
1040
2.5112081252328902
1040
2.316894892004095
1040
2.4218220258763981
1070
     1
1070
     2
1040
56.969349024595559
1040
-5.6696207880721081
1040
2.202259484532318
1040
2.4218220258766441
1040
2.5307691875002201
1070
     1
1070
     2
1040
60.831883891759333
1040
-8.3739563729297686
1040
6.9174059886807564
1040
2.5307691875000442
1040
2.5693894842680081
1070
     1
1070
     1
1040
55.016351281137418
1040
-4.6282807239941191
1040
55.016351281137418
1040
-3.84787941439262
1070
     1
1040
55.016351281137418
1040
-3.84787941439262
1040
54.17001104655818
1040
-3.84787941439262
1070
     1
1040
54.17001104655818
1040
-3.84787941439262
1040
54.17001104655818
1040
-9.0830742491259002
1070
     1
1040
54.17001104655818
1040
-9.0830742491259002
1040
55.000076056916392
1040
-9.0830742491259002
1070
     1
1040
55.000076056916392
1040
-9.0830742491259002
1040
55.000076056916392
1040
-5.9126924363283671
1070
     2
1040
55.75710641113146
1040
-5.9126924363283671
1040
0.7570303542150896
1040
3.14159265358979
1040
3.4384530145294661
1070
     0
1070
     2
1040
57.46827179345938
1040
-6.4361370855362141
1040
2.5464663733176982
1040
3.4384530145294701
1040
3.5872345195643911
1070
     0
1070
     2
1040
56.056874901785349
1040
-5.7619251357803023
1040
0.9823043168092358
1040
3.587234519564372
1040
3.8853758323323402
1070
     0
1070
     2
1040
56.47329869675935
1040
-6.145056244645982
1040
1.548164921199733
1040
3.8853758323323522
1040
4.067945919727034
1070
     0
1070
     2
1040
56.447535175617141
1040
-6.1107722096874113
1040
1.505279561522034
1040
4.0679459197270971
1040
4.2903588167208611
1070
     0
1070
     2
1040
56.576191015269963
1040
-6.3973045789366552
1040
1.8193705096634261
1040
4.2903588167207261
1040
4.4656075726604323
1070
     0
1070
     2
1040
56.511777944787177
1040
-6.141612211579341
1040
1.5556895843506431
1040
4.46560757266049
1040
4.6698510365156931
1070
     0
1070
     2
1040
56.776684062712889
1040
-12.36538078356832
1040
7.7850932868724412
1040
4.669851036515821
1040
4.7009416264766042
1070
     0
1070
     1
1040
56.687567291019043
1040
-4.5807975778784282
1040
56.687567291019043
1040
-3.7120345925850402
1071
        0
1071
       48
1071
       27
1070
     1
1040
46.639880052566291
1040
-6.7819026999621883
1040
46.639880052566291
1040
-6.3753092616980211
1070
     2
1040
44.388047874317579
1040
-6.3753092616979643
1040
2.2518321782487192
1040
6.2831853071795614
1040
6.5875318773906484
1070
     1
1070
     2
1040
42.886821629084352
1040
-6.8468522024532481
1040
3.8253737202339311
1040
0.3043465702111108
1040
0.4819319721734345
1070
     1
1070
     2
1040
45.38665156443821
1040
-5.539268845208368
1040
1.0042172300981811
1040
0.4819319721733892
1040
1.044485583152069
1070
     1
1070
     2
1040
44.842413757123033
1040
-6.476040144542309
1040
2.087607860557485
1040
1.04448558315212
1040
1.2155757452163201
1070
     1
1070
     2
1040
45.281080022677592
1040
-5.2935111915713264
1040
0.8263375417319672
1040
1.2155757452162861
1040
1.766528064504264
1070
     1
1070
     2
1040
43.126358023912012
1040
5.5740927635310404
1040
10.252815973628341
1040
1.37506458908548
1040
1.4150180786783491
1070
     0
1070
     2
1040
44.819775109529182
1040
-5.2085224018758787
1040
0.6619653448921306
1040
1.7265745749113981
1040
2.21670721889621
1070
     1
1070
     2
1040
45.625319242162028
1040
-6.277206319289915
1040
2.0002428441271021
1040
2.216707218896186
1040
2.3723245559050801
1070
     1
1070
     2
1040
44.960572162108541
1040
-5.6335654532805961
1040
1.074952487084037
1040
2.3723245559050881
1040
2.779590872842832
1070
     1
1070
     2
1040
58.289756127688683
1040
-10.681193719201611
1040
15.32787135653683
1040
2.7795908728429031
1040
2.8087874498877881
1070
     1
1070
     2
1040
44.901931975336304
1040
-6.053528839676515
1040
1.162804545134217
1040
2.8087874498877361
1040
3.184468538340361
1070
     1
1070
     2
1040
42.279477223619431
1040
-6.16603785915862
1040
1.4620625380277541
1040
6.2403094224289841
1040
6.326061191930167
1070
     0
1070
     1
1040
43.740196082396601
1040
-6.2287058790481611
1040
43.740196082396601
1040
-6.6136666648587532
1070
     2
1040
47.388897077757179
1040
-6.6136666648586671
1040
3.648700995360568
1040
3.1415926535898162
1040
3.2314820767501802
1070
     1
1070
     2
1040
45.330816240662969
1040
-6.7991662523863852
1040
1.5822773144598481
1040
3.2314820767501602
1040
3.5181448313731121
1070
     1
1070
     2
1040
48.79855306104065
1040
-5.427952550533913
1040
5.3112752591563801
1040
3.518144831373136
1040
3.59484151610862
1070
     1
1070
     2
1040
45.207357700604362
1040
-7.1771101037255081
1040
1.3167494721941531
1040
3.5948415161085681
1040
3.853138761505968
1070
     1
1070
     2
1040
45.287691633041959
1040
-7.1078445322190191
1040
1.4228214293600681
1040
3.8531387615060519
1040
4.1516200272560164
1070
     1
1070
     2
1040
44.961530321955387
1040
-7.6271921003418548
1040
0.8095489798200484
1040
4.15162002725598
1040
4.604349481695678
1070
     1
1070
     2
1040
45.29271060939746
1040
-4.5737651904812511
1040
3.8808835882030381
1040
4.6043494816956541
1040
4.700697838221636
1070
     1
1070
     2
1040
45.259097580187927
1040
-7.4487193468602859
1040
1.0057329422344341
1040
4.7006978382216831
1040
5.0798917272241351
1070
     1
1070
     2
1040
44.940366619724628
1040
-6.62083167234249
1040
1.892856060395804
1040
5.0798917272241431
1040
5.2882659525845161
1070
     1
1070
     2
1040
45.31759275304767
1040
-7.201812865120754
1040
1.2001521539365541
1040
5.2882659525844451
1040
5.5887326714569694
1070
     1
1070
     2
1040
45.251894821478679
1040
-7.147096379171554
1040
1.285651347190484
1040
5.5887326714569401
1040
5.9255397910018131
1070
     1
1070
     2
1040
42.936695059741481
1040
-6.281866495115791
1040
3.7572444951440791
1040
5.9255397910018921
1040
6.048005044478705
1070
     1
1070
     2
1040
44.86109794057181
1040
-6.7429809596525843
1040
1.77836779429757
1040
6.0480050444786251
1040
6.2633675854114443
1070
     1
1071
        0
1070
     0
1070
     1
1040
0.7853981633974483
1040
2.5
1070
     0
1070
     1
1040
0.7853981633974483
1040
-145.06181772491681
1040
-144.33407845518931
1040
-0.2209708691207961
1040
0.2209708691207961
1070
     0
1071
        1
1040
-145.06181772491681
1040
-144.33407845518931
1040
0.0
1002
}
  0
INSERT
  5
262
  8
LOGO
  6
CONTINUOUS
  2
*X5
 10
0.0
 20
0.0
 30
0.0
1001
ACAD
1000
HATCH
1002
{
1070
    19
1000
LINE
1040
2.5
1040
0.7853981633974483
1000
R14_HATCH_DATA
1000
262
1011
1.0
1021
0.0
1031
0.0
1021
0.0
1031
0.0
1011
0.0
1021
0.0
1031
0.0
1021
1.0
1031
0.0
1011
0.0
1021
0.0
1031
0.0
1021
0.0
1031
1.0
1040
0.0
1010
0.0
1020
0.0
1030
1.0
1000
LINE
1070
     0
1070
     0
1071
        8
1071
        1
1071
        4
1070
     1
1040
61.300935559287872
1040
-4.7312741456988192
1040
61.300935559287872
1040
-4.42906049836935
1070
     1
1040
61.300935559287872
1040
-4.42906049836935
1040
57.358854281697027
1040
-4.42906049836935
1070
     1
1040
57.358854281697027
1040
-4.42906049836935
1040
57.358854281697027
1040
-4.7312741456988761
1070
     1
1040
57.358854281697027
1040
-4.7312741456988761
1040
61.300935559287872
1040
-4.7312741456988192
1071
        0
1071
        1
1071
        4
1070
     1
1040
60.622937944686527
1040
-5.5101748461485132
1040
60.87968912964115
1040
-5.208352325333605
1070
     1
1040
60.87968912964115
1040
-5.208352325333605
1040
59.646394539980093
1040
-5.208352325333574
1070
     1
1040
59.646394539980093
1040
-5.208352325333574
1040
59.392856795005621
1040
-5.5101748461485132
1070
     1
1040
59.392856795005621
1040
-5.5101748461485132
1040
60.622937944686527
1040
-5.5101748461485132
1071
        0
1071
        1
1071
        4
1070
     1
1040
61.414263195097902
1040
-8.3369530599259161
1040
61.414263195097902
1040
-8.0347394125964247
1070
     1
1040
61.414263195097902
1040
-8.0347394125964247
1040
57.135581156890282
1040
-8.0347394125964247
1070
     1
1040
57.135581156890282
1040
-8.0347394125964247
1040
57.135581156890282
1040
-8.3369530599259161
1070
     1
1040
57.135581156890282
1040
-8.3369530599259161
1040
61.414263195097902
1040
-8.3369530599259161
1071
        0
1071
        1
1071
        4
1070
     1
1040
61.300935559287872
1040
-3.985152956498891
1040
61.300935559287872
1040
-3.6829393091693681
1070
     1
1040
61.300935559287872
1040
-3.6829393091693681
1040
57.358854281697027
1040
-3.6829393091693681
1070
     1
1040
57.358854281697027
1040
-3.6829393091693681
1040
57.358854281697027
1040
-3.985152956498891
1070
     1
1040
57.358854281697027
1040
-3.985152956498891
1040
61.300935559287872
1040
-3.985152956498891
1071
        0
1071
        1
1071
        4
1070
     1
1040
61.414263195097902
1040
-9.0830742491259002
1040
61.414263195097902
1040
-8.7808606017964053
1070
     1
1040
61.414263195097902
1040
-8.7808606017964053
1040
57.135581156890282
1040
-8.7808606017964053
1070
     1
1040
57.135581156890282
1040
-8.7808606017964053
1040
57.135581156890282
1040
-9.0830742491259002
1070
     1
1040
57.135581156890282
1040
-9.0830742491259002
1040
61.414263195097902
1040
-9.0830742491259002
1071
        0
1071
        1
1071
        4
1070
     1
1040
58.718830534845942
1040
-7.7485384137486299
1040
58.975581719800552
1040
-7.4467158929336659
1070
     1
1040
58.975581719800552
1040
-7.4467158929336659
1040
57.766118509450607
1040
-7.4467158929335824
1070
     1
1040
57.766118509450607
1040
-7.4467158929335824
1040
57.512580764476162
1040
-7.7485384137484621
1070
     1
1040
57.512580764476162
1040
-7.7485384137485189
1040
58.718830534845942
1040
-7.7485384137486299
1071
        0
1071
        1
1071
        4
1070
     1
1040
59.019635863136941
1040
-5.9544735145335581
1040
60.244986659694348
1040
-5.9544735145336141
1070
     1
1040
60.244986659694312
1040
-5.9544735145335581
1040
59.988235474739753
1040
-6.2562960353484964
1070
     1
1040
59.988235474739753
1040
-6.256296035348468
1040
58.766098118162489
1040
-6.2562960353485551
1070
     1
1040
58.766098118162461
1040
-6.2562960353484964
1040
59.019635863136941
1040
-5.9544735145335581
1071
        0
1071
        1
1071
        4
1070
     1
1040
58.392877186293752
1040
-6.7005947037336284
1040
59.61028418974746
1040
-6.7005947037335991
1070
     1
1040
59.61028418974746
1040
-6.7005947037335991
1040
59.353533004792858
1040
-7.0024172245485374
1070
     1
1040
59.353533004792858
1040
-7.0024172245485374
1040
58.139339441319279
1040
-7.0024172245485374
1070
     1
1040
58.139339441319279
1040
-7.0024172245485374
1040
58.39287718629371
1040
-6.7005947037335991
1071
        0
1070
     0
1070
     1
1040
0.7853981633974483
1040
2.5
1070
     0
1070
     1
1040
0.7853981633974483
1040
-145.06181772491681
1040
-144.33407845518931
1040
-0.2209708691207961
1040
0.2209708691207961
1070
     0
1071
        1
1040
-145.06181772491681
1040
-144.33407845518931
1040
0.0
1002
}
  0
INSERT
  5
263
  8
LOGO
  6
CONTINUOUS
  2
*X6
 10
0.0
 20
0.0
 30
0.0
1001
ACAD
1000
HATCH
1002
{
1070
    19
1000
LINE
1040
2.5
1040
0.7853981633974483
1000
R14_HATCH_DATA
1000
263
1011
1.0
1021
0.0
1031
0.0
1021
0.0
1031
0.0
1011
0.0
1021
0.0
1031
0.0
1021
1.0
1031
0.0
1011
0.0
1021
0.0
1031
0.0
1021
0.0
1031
1.0
1040
0.0
1010
0.0
1020
0.0
1030
1.0
1000
LINE
1070
     0
1070
     0
1071
        2
1071
        1
1071
        3
1070
     2
1040
64.7481581230914
1040
-5.6715055322989372
1040
2.087454529752907
1040
0.929567918583125
1040
1.659614510377033
1070
     1
1070
     2
1040
64.377837621639856
1040
-5.6715055322989372
1040
2.087454529752907
1040
1.481978143212755
1040
2.2120247350065951
1070
     1
1070
     1
1040
63.129163462434462
1040
-3.9986997282922512
1040
65.99683228229685
1040
-3.9986997282922512
1071
        0
1071
       33
1071
       10
1070
     2
1040
63.852976213802172
1040
-6.1490038824959763
1040
3.0947837751066798
1040
0.4758599234294861
1040
0.5892715665936628
1070
     1
1070
     2
1040
64.7481581230914
1040
-5.6715055322989372
1040
2.087454529752907
1040
0.6357150333992979
1040
0.6375098018718248
1070
     1
1070
     2
1040
64.592618231806455
1040
-5.8207254609716861
1040
1.396926812256317
1040
0.8944924159254508
1040
1.5920018611280831
1070
     1
1070
     1
1040
65.466975338743282
1040
-4.7312741456988761
1040
66.603926778255243
1040
-4.7312741456987562
1070
     1
1040
66.42581149225721
1040
-4.42906049836935
1040
64.713751012942112
1040
-4.42906049836935
1070
     2
1040
64.377837621639856
1040
-5.6715055322989372
1040
2.087454529752907
1040
2.5040828517179681
1040
2.5058776201904922
1070
     1
1070
     2
1040
65.273019530929076
1040
-6.1490038824959763
1040
3.0947837751066798
1040
2.5534915599158001
1040
2.665732730160324
1070
     1
1070
     1
1040
62.522068966476013
1040
-4.7312741456988761
1040
63.659020405987931
1040
-4.7312741456988761
1070
     2
1040
64.533377512924801
1040
-5.8207254609716861
1040
1.396926812256317
1040
1.5495907924617081
1040
2.2471002376643421
1070
     1
1070
     1
1040
64.412244731789173
1040
-4.42906049836935
1040
62.700400066483333
1040
-4.42906049836935
1071
        0
1070
     0
1070
     1
1040
0.7853981633974483
1040
2.5
1070
     0
1070
     1
1040
0.7853981633974483
1040
-145.06181772491681
1040
-144.33407845518931
1040
-0.2209708691207961
1040
0.2209708691207961
1070
     0
1071
        1
1040
-145.06181772491681
1040
-144.33407845518931
1040
0.0
1002
}
  0
INSERT
  5
264
  8
LOGO
  6
CONTINUOUS
  2
*X7
 10
0.0
 20
0.0
 30
0.0
1001
ACAD
1000
HATCH
1002
{
1070
    19
1000
LINE
1040
2.5
1040
0.7853981633974483
1000
R14_HATCH_DATA
1000
264
1011
1.0
1021
0.0
1031
0.0
1021
0.0
1031
0.0
1011
0.0
1021
0.0
1031
0.0
1021
1.0
1031
0.0
1011
0.0
1021
0.0
1031
0.0
1021
0.0
1031
1.0
1040
0.0
1010
0.0
1020
0.0
1030
1.0
1000
LINE
1070
     0
1070
     0
1071
       11
1071
        1
1071
        3
1070
     2
1040
64.7481581230914
1040
-7.1121983933890061
1040
2.087454529752907
1040
4.6235707968025501
1040
5.3569284474135772
1070
     1
1070
     1
1040
66.002364185913109
1040
-8.7808606017964621
1040
63.123631558818062
1040
-8.7808606017963484
1070
     2
1040
64.377837621639856
1040
-7.1121983933890061
1040
2.087454529752907
1040
4.067849513355716
1040
4.8012071639668283
1070
     1
1071
        0
1071
        1
1071
        5
1070
     1
1040
65.908104145568132
1040
-7.4467158929338648
1040
66.839331329060826
1040
-7.446715892933951
1070
     2
1040
63.852976213802172
1040
-6.634700043191966
1040
3.0947837751066798
1040
0.2654899613936061
1040
0.3681696062787916
1070
     0
1070
     1
1040
66.740371354571579
1040
-7.7485384137488591
1040
65.74773731020332
1040
-7.7485384137489151
1070
     2
1040
64.592618231806455
1040
-6.962978464716282
1040
1.396926812256317
1040
5.685961898521585
1040
5.836921253532072
1070
     1
1070
     2
1040
63.890035810327312
1040
-6.5816081686751291
1040
2.1956801179301482
1040
5.8183438900167284
1040
5.878200883502382
1070
     1
1071
        0
1071
        1
1071
        4
1070
     1
1040
66.925836557065224
1040
-7.0024172245485374
1040
66.04501398162482
1040
-7.0024172245485374
1070
     2
1040
63.890035810327312
1040
-6.5816081686751291
1040
2.1956801179301482
1040
6.090339042233829
1040
6.2289675507485214
1070
     1
1070
     1
1040
66.08248954638394
1040
-6.7005947037333442
1040
66.947058389242216
1040
-6.7005947037333442
1070
     2
1040
63.852976213802172
1040
-6.634700043191966
1040
3.0947837751066798
1040
0.021293778599115
1040
0.1190997427417351
1070
     0
1071
        0
1071
        1
1071
        4
1070
     1
1040
66.945899589606995
1040
-6.2562960353482131
1040
66.085046860436648
1040
-6.2562960353482691
1070
     2
1040
63.890035810327312
1040
-6.2020957570128381
1040
2.1956801179301482
1040
6.258497838422965
1040
6.3962027596062141
1070
     1
1070
     1
1040
66.071708197580563
1040
-5.9544735145335581
1040
66.941640091695646
1040
-5.9544735145335581
1070
     2
1040
63.852976213802172
1040
-6.1490038824959763
1040
3.0947837751066798
1040
6.2202863420933854
1040
6.3178609630684832
1070
     0
1071
        0
1071
        1
1071
        5
1070
     1
1040
66.881108324028332
1040
-5.5101748461484883
1040
65.973844014885117
1040
-5.51017484614857
1070
     2
1040
63.890035810327312
1040
-6.2020957570128381
1040
2.1956801179301482
1040
0.3205918235894531
1040
0.4648414171628568
1070
     1
1070
     2
1040
64.592618231806455
1040
-5.8207254609716861
1040
1.396926812256317
1040
0.446264053647511
1040
0.4537861845231812
1070
     1
1070
     1
1040
65.848167379211404
1040
-5.208352325333574
1040
66.801342076898436
1040
-5.208352325333574
1070
     2
1040
63.852976213802172
1040
-6.1490038824959763
1040
3.0947837751066798
1040
5.9743519202817712
1040
6.0752693216970721
1070
     0
1071
        0
1071
        1
1071
        4
1070
     2
1040
63.852976213802172
1040
-6.634700043191966
1040
3.0947837751066798
1040
5.7007738899521394
1040
5.8137454451024633
1070
     1
1070
     1
1040
66.612971934592565
1040
-8.0347394125964247
1040
65.488571907729323
1040
-8.034739412596366
1070
     2
1040
64.592618231806455
1040
-6.962978464716282
1040
1.396926812256317
1040
0.8745074745594605
1040
1.389271123588383
1070
     0
1070
     1
1040
64.844805326081996
1040
-8.3369530599259161
1040
66.437549927528252
1040
-8.3369530599258592
1071
        0
1071
        1
1071
        4
1070
     2
1040
65.273019530929076
1040
-6.634700043191966
1040
3.0947837751066798
1040
3.6110325156669161
1040
3.7240040708172542
1070
     1
1070
     1
1040
62.68844581720208
1040
-8.3369530599259161
1040
64.281190418649274
1040
-8.3369530599259161
1070
     2
1040
64.533377512924801
1040
-6.962978464716282
1040
1.396926812256317
1040
1.752321530001369
1040
2.2670851790303321
1070
     0
1070
     1
1040
63.637423837001933
1040
-8.034739412596366
1040
62.513023810138677
1040
-8.0347394125964247
1071
        0
1071
        1
1071
        5
1070
     1
1040
63.378258434527808
1040
-7.7485384137488031
1040
62.385624390159613
1040
-7.7485384137487179
1070
     2
1040
65.273019530929076
1040
-6.634700043191966
1040
3.0947837751066798
1040
2.773423047311053
1040
2.876102692196234
1070
     0
1070
     1
1040
62.286664415670337
1040
-7.4467158929337209
1040
63.21789159916306
1040
-7.446715892933752
1070
     2
1040
65.235959934403922
1040
-6.5816081686751291
1040
2.1956801179301482
1040
3.5465770772669472
1040
3.6064340707526461
1070
     1
1070
     2
1040
64.533377512924801
1040
-6.962978464716282
1040
1.396926812256317
1040
3.5878567072373002
1040
3.738816062247706
1070
     1
1071
        0
1071
        1
1071
        4
1070
     1
1040
62.178937355489033
1040
-6.700594703733425
1040
63.043506198347352
1040
-6.700594703733425
1070
     2
1040
65.235959934403922
1040
-6.5816081686751291
1040
2.1956801179301482
1040
3.195810410020901
1040
3.3344389185355481
1070
     1
1070
     1
1040
63.08098176310645
1040
-7.0024172245485374
1040
62.200159187666031
1040
-7.0024172245485374
1070
     2
1040
65.273019530929076
1040
-6.634700043191966
1040
3.0947837751066798
1040
3.0224929108480501
1040
3.1202988749906462
1070
     0
1071
        0
1071
        1
1071
        4
1070
     1
1040
63.0409488842946
1040
-6.2562960353483827
1040
62.180096155124247
1040
-6.2562960353484121
1070
     2
1040
65.273019530929076
1040
-6.1490038824959763
1040
3.0947837751066798
1040
3.106916997700834
1040
3.2044916186759922
1070
     0
1070
     1
1040
62.184355653035588
1040
-5.9544735145335581
1040
63.0542875471507
1040
-5.9544735145335581
1070
     2
1040
65.235959934403922
1040
-6.2020957570128381
1040
2.1956801179301482
1040
3.0285752011631621
1040
3.1662801223464561
1070
     1
1071
        0
1071
        1
1071
        5
1070
     2
1040
65.273019530929076
1040
-6.1490038824959763
1040
3.0947837751066798
1040
2.8327592666919901
1040
2.933676668107279
1070
     1
1070
     1
1040
62.244887420702867
1040
-5.5101748461485132
1040
63.152151729846103
1040
-5.51017484614857
1070
     2
1040
65.235959934403922
1040
-6.2020957570128381
1040
2.1956801179301482
1040
3.462184477179246
1040
3.6064340707526461
1070
     0
1070
     2
1040
64.533377512924801
1040
-5.8207254609716861
1040
1.396926812256317
1040
3.5878567072373002
1040
3.5953788381129641
1070
     0
1070
     1
1040
63.277828365519809
1040
-5.208352325333605
1040
62.32465366783277
1040
-5.208352325333605
1071
        0
1070
     0
1070
     1
1040
0.7853981633974483
1040
2.5
1070
     0
1070
     1
1040
0.7853981633974483
1040
-145.06181772491681
1040
-144.33407845518931
1040
-0.2209708691207961
1040
0.2209708691207961
1070
     0
1071
        1
1040
-145.06181772491681
1040
-144.33407845518931
1040
0.0
1002
}
  0
INSERT
  5
265
  8
LOGO
  6
CONTINUOUS
  2
*X8
 10
0.0
 20
0.0
 30
0.0
1001
ACAD
1000
HATCH
1002
{
1070
    19
1000
LINE
1040
2.5
1040
0.7853981633974483
1000
R14_HATCH_DATA
1000
265
1011
1.0
1021
0.0
1031
0.0
1021
0.0
1031
0.0
1011
0.0
1021
0.0
1031
0.0
1021
1.0
1031
0.0
1011
0.0
1021
0.0
1031
0.0
1021
0.0
1031
1.0
1040
0.0
1010
0.0
1020
0.0
1030
1.0
1000
LINE
1070
     0
1070
     0
1071
       16
1071
        1
1071
       12
1070
     2
1040
71.125023233409081
1040
-5.020230287336342
1040
1.1304192694867621
1040
0.2584874614295043
1040
0.4895039893819849
1070
     1
1070
     2
1040
70.917897820109303
1040
-5.1305765973405331
1040
1.365104686515914
1040
0.4895039893819842
1040
0.5397153172070504
1070
     1
1070
     1
1040
72.088959717716946
1040
-4.42906049836935
1040
68.095877545256599
1040
-4.42906049836935
1070
     1
1040
68.095877545256599
1040
-4.42906049836935
1040
68.095877545256599
1040
-4.7312741456988192
1070
     1
1040
68.095877545256599
1040
-4.7312741456988192
1040
69.484331999555366
1040
-4.7312741456987562
1070
     2
1040
70.117347783432891
1040
-5.5010128024619851
1040
0.9965975026828357
1040
4.0241513526384391
1040
4.260136370673103
1070
     0
1070
     2
1040
70.349641954471281
1040
-5.9791453630548972
1040
1.5281718882560651
1040
4.260136370673095
1040
4.462447007871936
1070
     0
1070
     2
1040
70.372153411270858
1040
-6.067328718531142
1040
1.619183260459147
1040
4.4624470078719431
1040
4.6619032947517507
1070
     0
1070
     2
1040
70.364904932288653
1040
-5.92387578674973
1040
1.475547317588878
1040
4.661903294751748
1040
4.9936157035907582
1070
     0
1070
     2
1040
70.590557329617411
1040
-5.1427552844002644
1040
0.6624862844487442
1040
4.993615703590776
1040
5.4512286861545611
1070
     0
1070
     2
1040
58.805039193948097
1040
-18.080167355131241
1040
18.163202521622718
1040
5.4512286861545611
1040
5.4576047422737251
1070
     0
1070
     1
1040
71.122058960297863
1040
-4.7312741456988192
1040
72.21788739378627
1040
-4.7312741456988192
1071
        0
1071
        1
1071
        4
1070
     1
1040
72.255442502895846
1040
-5.5101748461485132
1040
72.255442502895875
1040
-5.2083523253335171
1070
     1
1040
72.255442502895875
1040
-5.2083523253335171
1040
71.414374842161578
1040
-5.2083523253335171
1070
     1
1040
71.414374842161578
1040
-5.2083523253335171
1040
71.414374842161578
1040
-5.5101748461485132
1070
     1
1040
71.414374842161536
1040
-5.5101748461485132
1040
72.255442502895875
1040
-5.5101748461485132
1071
        0
1071
        1
1071
        4
1070
     1
1040
72.255442502895846
1040
-8.3369530599258592
1040
72.255442502895875
1040
-8.0347394125964762
1070
     1
1040
72.255442502895875
1040
-8.0347394125964762
1040
71.414374842161578
1040
-8.0347394125964762
1070
     1
1040
71.414374842161578
1040
-8.0347394125964247
1040
71.414374842161578
1040
-8.3369530599259747
1070
     1
1040
71.414374842161578
1040
-8.3369530599259747
1040
72.255442502895846
1040
-8.3369530599258592
1071
        0
1071
        1
1071
        4
1070
     1
1040
72.255442502895846
1040
-6.2562960353483827
1040
72.255442502895846
1040
-5.954473514533646
1070
     1
1040
72.255442502895875
1040
-5.954473514533646
1040
71.414374842161578
1040
-5.954473514533646
1070
     1
1040
71.414374842161578
1040
-5.954473514533646
1040
71.414374842161635
1040
-6.2562960353484121
1070
     1
1040
71.414374842161578
1040
-6.256296035348468
1040
72.255442502895875
1040
-6.2562960353483827
1071
        0
1071
        1
1071
        4
1070
     1
1040
72.255442502895846
1040
-7.0024172245485934
1040
72.255442502895846
1040
-6.7005947037334863
1070
     1
1040
72.255442502895875
1040
-6.7005947037334863
1040
71.414374842161649
1040
-6.7005947037335432
1070
     1
1040
71.414374842161649
1040
-6.7005947037334863
1040
71.414374842161649
1040
-7.0024172245485374
1070
     1
1040
71.414374842161649
1040
-7.0024172245485374
1040
72.255442502895846
1040
-7.0024172245485934
1071
        0
1071
        1
1071
        4
1070
     1
1040
72.255442502895846
1040
-7.7485384137488591
1040
72.255442502895846
1040
-7.4467158929338648
1070
     1
1040
72.255442502895846
1040
-7.4467158929338648
1040
71.414374842161635
1040
-7.446715892933752
1070
     1
1040
71.414374842161635
1040
-7.4467158929338089
1040
71.414374842161635
1040
-7.7485384137487472
1070
     1
1040
71.414374842161635
1040
-7.7485384137487472
1040
72.255442502895875
1040
-7.7485384137488591
1071
        0
1071
        1
1071
        6
1070
     2
1040
70.917897820109303
1040
-5.1305765973405331
1040
1.365104686515914
1040
0.9955785482600839
1040
1.006953953038052
1070
     1
1070
     2
1040
70.716439795606789
1040
-5.4491804127207502
1040
1.7420579021956211
1040
1.006953953038054
1040
1.3902550238311211
1070
     1
1070
     2
1040
70.475739232686735
1040
-6.7678794238675826
1040
3.0825443224885301
1040
1.3902550238311171
1040
1.5871778529147531
1070
     1
1070
     2
1040
70.461854527279954
1040
-5.920372099110434
1040
2.2349232688559262
1040
1.587177852914748
1040
1.848261757221088
1070
     1
1070
     2
1040
70.231675211930167
1040
-5.1121927505478482
1040
1.394604057687959
1040
1.8482617572210911
1040
2.2005999181765481
1070
     1
1070
     1
1040
69.410272886422305
1040
-3.985152956498891
1040
71.660538707853036
1040
-3.985152956498891
1071
        0
1071
        1
1071
        5
1070
     2
1040
69.82960017073674
1040
-5.8394819009760113
1040
0.9398124033155694
1040
2.6616661712046201
1040
2.7835981557009002
1070
     1
1070
     1
1040
68.94937053191137
1040
-5.5101748461485132
1040
68.095877545256599
1040
-5.5101748461485132
1070
     1
1040
68.095877545256599
1040
-5.5101748461485132
1040
68.095877545256599
1040
-5.208352325333462
1070
     1
1040
68.095877545256599
1040
-5.208352325333462
1040
69.104807700174092
1040
-5.2083523253335171
1070
     2
1040
73.087983772951091
1040
-7.5355272756773939
1040
4.6131805596845181
1040
2.6128337298044162
1040
2.6616661712046241
1070
     1
1071
        0
1071
        1
1071
        4
1070
     1
1040
68.889787767421183
1040
-6.256296035348667
1040
68.889787767421126
1040
-5.9544735145335581
1070
     1
1040
68.889787767421126
1040
-5.954473514533503
1040
68.095877545256599
1040
-5.9544735145334471
1070
     1
1040
68.09587754525657
1040
-5.9544735145334471
1040
68.095877545256599
1040
-6.256296035348754
1070
     1
1040
68.095877545256599
1040
-6.2562960353486972
1040
68.889787767421183
1040
-6.256296035348667
1071
        0
1071
        1
1071
        4
1070
     1
1040
68.889787767421183
1040
-7.0024172245484522
1040
68.889787767421183
1040
-6.7005947037336284
1070
     1
1040
68.88978776742124
1040
-6.7005947037335991
1040
68.095877545256599
1040
-6.7005947037336284
1070
     1
1040
68.095877545256599
1040
-6.7005947037336284
1040
68.095877545256599
1040
-7.002417224548477
1070
     1
1040
68.095877545256599
1040
-7.002417224548477
1040
68.889787767421183
1040
-7.002417224548477
1071
        0
1071
        1
1071
        4
1070
     1
1040
68.889787767421183
1040
-7.7485384137485189
1040
68.889787767421183
1040
-7.4467158929335824
1070
     1
1040
68.889787767421183
1040
-7.446715892933522
1040
68.095877545256599
1040
-7.446715892933522
1070
     1
1040
68.09587754525657
1040
-7.4467158929334403
1040
68.095877545256599
1040
-7.7485384137484301
1070
     1
1040
68.095877545256599
1040
-7.7485384137484621
1040
68.889787767421183
1040
-7.7485384137485749
1071
        0
1071
        1
1071
        4
1070
     1
1040
68.889787767421183
1040
-8.3369530599259161
1040
68.889787767421126
1040
-8.0347394125964247
1070
     1
1040
68.889787767421126
1040
-8.0347394125964247
1040
68.095877545256599
1040
-8.0347394125964247
1070
     1
1040
68.095877545256599
1040
-8.0347394125964247
1040
68.095877545256599
1040
-8.3369530599259161
1070
     1
1040
68.095877545256599
1040
-8.3369530599259161
1040
68.889787767421183
1040
-8.3369530599258592
1071
        0
1071
        1
1071
        4
1070
     1
1040
68.90869074552343
1040
-3.9851529564989181
1040
68.90869074552343
1040
-3.6829393091693681
1070
     1
1040
68.90869074552343
1040
-3.6829393091693681
1040
68.095877545256599
1040
-3.6829393091693681
1070
     1
1040
68.095877545256599
1040
-3.6829393091693681
1040
68.095877545256599
1040
-3.985152956498891
1070
     1
1040
68.095877545256599
1040
-3.985152956498891
1040
68.90869074552343
1040
-3.9851529564989181
1071
        0
1071
        1
1071
        4
1070
     1
1040
72.255442502895846
1040
-9.0830742491259002
1040
72.255442502895846
1040
-8.7808606017964053
1070
     1
1040
72.255442502895846
1040
-8.7808606017964053
1040
71.414374842161578
1040
-8.7808606017964053
1070
     1
1040
71.414374842161578
1040
-8.7808606017964053
1040
71.414374842161578
1040
-9.0830742491259553
1070
     1
1040
71.414374842161578
1040
-9.0830742491259553
1040
72.255442502895846
1040
-9.0830742491259002
1071
        0
1071
        1
1071
        4
1070
     1
1040
68.889787767421183
1040
-9.0830742491259553
1040
68.889787767421183
1040
-8.7808606017964053
1070
     1
1040
68.889787767421183
1040
-8.7808606017964053
1040
68.09587754525657
1040
-8.7808606017964053
1070
     1
1040
68.09587754525657
1040
-8.7808606017964053
1040
68.09587754525657
1040
-9.0830742491259553
1070
     1
1040
68.09587754525657
1040
-9.0830742491259553
1040
68.889787767421183
1040
-9.0830742491259553
1071
        0
1071
       33
1071
        1
1070
     2
1040
81.335899742018057
1040
-3.1726664864914351
1040
10.12928473702388
1040
3.3439410279401112
1040
3.3444783940913432
1070
     1
1071
        0
1070
     0
1070
     1
1040
0.7853981633974483
1040
2.5
1070
     0
1070
     1
1040
0.7853981633974483
1040
-145.06181772491681
1040
-144.33407845518931
1040
-0.2209708691207961
1040
0.2209708691207961
1070
     0
1071
        1
1040
-145.06181772491681
1040
-144.33407845518931
1040
0.0
1002
}
  0
INSERT
  5
266
  8
LOGO
  6
CONTINUOUS
  2
*X9
 10
0.0
 20
0.0
 30
0.0
1001
ACAD
1000
HATCH
1002
{
1070
    19
1000
LINE
1040
2.5
1040
0.7853981633974483
1000
R14_HATCH_DATA
1000
266
1011
1.0
1021
0.0
1031
0.0
1021
0.0
1031
0.0
1011
0.0
1021
0.0
1031
0.0
1021
1.0
1031
0.0
1011
0.0
1021
0.0
1031
0.0
1021
0.0
1031
1.0
1040
0.0
1010
0.0
1020
0.0
1030
1.0
1000
LINE
1070
     0
1070
     0
1071
       12
1071
        1
1071
        8
1070
     2
1040
75.79661323509481
1040
-6.1569899206114371
1040
3.145615485818785
1040
4.7508499925754331
1040
4.9552202208443692
1070
     1
1070
     2
1040
76.187708297111811
1040
-7.7357712807341263
1040
1.519114354369776
1040
4.9552202208443692
1040
5.3510905335229371
1070
     1
1070
     2
1040
75.694672419691273
1040
-7.0717745210374972
1040
2.346142814165141
1040
5.351090533522938
1040
5.46710467496123
1070
     1
1070
     1
1040
77.301971667814442
1040
-8.7808606017965474
1040
74.154712623702267
1040
-8.7808606017965474
1070
     2
1040
75.170115999502585
1040
-7.7248358867237501
1040
1.4650024622609701
1040
3.946598610027674
1040
4.4053231682600913
1070
     1
1070
     2
1040
77.434616770284123
1040
-0.583446572902119
1040
8.9568250090406298
1040
4.4053231682601082
1040
4.4442951749222361
1070
     1
1070
     2
1040
75.693810461877376
1040
-6.9204027045544461
1040
2.38511141075633
1040
4.4442951749222281
1040
4.726490648600838
1070
     1
1070
     2
1040
75.617343425108004
1040
-1.498209609353863
1040
7.8078436712826731
1040
4.726490648600846
1040
4.7508499925754331
1070
     1
1071
        0
1071
        1
1071
        4
1070
     2
1040
75.076928161944863
1040
-6.2290984970952641
1040
3.015665364368008
1040
0.2407142683368135
1040
0.3453024037944734
1070
     1
1070
     1
1040
77.914588261865632
1040
-5.208352325333574
1040
77.013727095363095
1040
-5.208352325333574
1070
     2
1040
74.895001009118843
1040
-6.1350167389739454
1040
2.312511008414726
1040
5.8708851007100282
1040
6.0095839181797164
1070
     0
1070
     1
1040
77.121495961506781
1040
-5.5101748461480611
1040
78.005645692530095
1040
-5.5101748461480042
1071
        0
1071
        1
1071
        5
1070
     2
1040
75.076928161944863
1040
-6.2290984970952641
1040
3.015665364368008
1040
0.0
1040
0.091192474050965
1070
     1
1070
     1
1040
78.080062975569092
1040
-5.9544735145335581
1040
73.385872349577937
1040
-5.9544735145335581
1070
     2
1040
76.357057528409086
1040
-6.3290828499998204
1040
2.9947075852450711
1040
3.0161736514788871
1040
3.1172851107542821
1070
     1
1070
     1
1040
73.363234621031793
1040
-6.256296035347896
1040
78.092593526312854
1040
-6.2562960353476171
1070
     1
1040
78.092593526312854
1040
-6.2562960353476171
1040
78.092593526312854
1040
-6.2290984970952641
1071
        0
1071
        1
1071
        5
1070
     1
1040
78.092593526312854
1040
-7.0024172245485374
1040
78.092593526312811
1040
-6.700594703733401
1070
     1
1040
78.092593526312854
1040
-6.700594703733401
1040
73.362304744468304
1040
-6.700594703733401
1070
     2
1040
54.836045228332978
1040
-6.5193656187585134
1040
18.527145911889239
1040
0.0097819694451617
1040
0.0120485755394304
1070
     0
1070
     2
1040
76.574272111280493
1040
-6.781292962078254
1040
3.2126589158381562
1040
3.1295440780503561
1040
3.2104761657464911
1070
     1
1070
     1
1040
73.369232116200664
1040
-7.0024172245485374
1040
78.092593526312854
1040
-7.0024172245485374
1071
        0
1071
        1
1071
        3
1070
     2
1040
75.897312313484903
1040
-7.2718628540019372
1040
1.245223288844834
1040
5.8903564994631772
1040
6.1261621685836012
1070
     1
1070
     1
1040
77.127215840164183
1040
-7.466589211086271
1040
77.916372446833918
1040
-7.7485384137489151
1070
     1
1040
77.916372446833918
1040
-7.7485384137489151
1040
77.047686795912853
1040
-7.7485384137489453
1071
        0
1071
        1
1071
        5
1070
     2
1040
75.897312313484903
1040
-7.2718628540019372
1040
1.245223288844834
1040
5.319607765619172
1040
5.623785771367535
1070
     1
1070
     1
1040
76.881487295603364
1040
-8.0347394125968776
1040
77.824575362877212
1040
-8.0347394125968776
1070
     2
1040
76.004529560252536
1040
-7.2931495635568222
1040
1.965330055703395
1040
0.3869179890940977
1040
0.5599082962612867
1070
     0
1070
     1
1040
77.669761222460423
1040
-8.3369530599254915
1040
76.54345856990291
1040
-8.3369530599255768
1070
     2
1040
75.690370560196655
1040
-6.974013686418342
1040
1.6079063679707271
1040
5.2716480121449374
1040
5.3196077656191481
1070
     1
1071
        0
1071
        1
1071
        7
1070
     1
1040
77.495652031934426
1040
-4.42906049836935
1040
76.252772940258978
1040
-4.42906049836935
1070
     2
1040
75.865115451378841
1040
-5.5357545309413183
1040
1.172625264274662
1040
5.049317006482382
1040
5.103885709449651
1070
     0
1070
     2
1040
75.790459788928501
1040
-5.7166039646336051
1040
1.3682779811040511
1040
5.103885709449659
1040
5.368326029804023
1070
     0
1070
     2
1040
76.181754840853543
1040
-5.208174435505267
1040
0.7267077170248393
1040
5.3683260298040061
1040
5.5673502551441691
1070
     0
1070
     1
1040
76.730088880983786
1040
-4.7312741456983911
1040
77.694323776331629
1040
-4.7312741456983911
1070
     2
1040
75.076928161944863
1040
-6.2290984970952641
1040
3.015665364368008
1040
0.5197707989248653
1040
0.6159519168040993
1070
     1
1070
     2
1040
76.132158882292615
1040
-5.4821900165193824
1040
1.7228451326567511
1040
0.6159519168040986
1040
0.6576686859086789
1070
     1
1071
        0
1071
        1
1071
        5
1070
     2
1040
76.132158882292615
1040
-5.4821900165193824
1040
1.7228451326567511
1040
1.037370256456412
1040
1.0965169507086761
1070
     1
1070
     2
1040
75.810082746635317
1040
-6.1095769540987694
1040
2.4280737527546301
1040
1.0965169507086761
1040
1.3712358642076561
1070
     1
1070
     2
1040
75.773314811292593
1040
-6.2913692157853234
1040
2.6135469515691381
1040
1.3712358642076581
1040
1.6512226848220231
1070
     1
1070
     2
1040
75.753199938745396
1040
-6.0418057146570412
1040
2.363174131173245
1040
1.6512226848220171
1040
2.0973183784707761
1070
     1
1070
     1
1040
74.565635244622371
1040
-3.9986997282924222
1040
77.008202212188763
1040
-3.9986997282924781
1071
        0
1071
        1
1071
        4
1070
     2
1040
75.91286535692177
1040
-6.9949258225721271
1040
1.6486267884929611
1040
3.824066852127078
1040
4.0926452206803452
1070
     1
1070
     1
1040
74.955299076219418
1040
-8.3369530599255768
1040
73.781503950992487
1040
-8.3369530599256336
1070
     2
1040
75.711329338067003
1040
-7.097320882265362
1040
2.2936682324364441
1040
2.5706108584814911
1040
2.7205651966738391
1070
     0
1070
     1
1040
73.617968294319539
1040
-8.0347394125967622
1040
74.633506929530711
1040
-8.0347394125967924
1071
        0
1071
        1
1071
        4
1070
     1
1040
75.257493961661169
1040
-4.429060498369406
1040
74.032321637752503
1040
-4.42906049836935
1070
     2
1040
75.500487535495949
1040
-5.728274531313275
1040
1.960476525412979
1040
2.417170008065971
1040
2.608092698419183
1070
     1
1070
     1
1040
73.812453638389869
1040
-4.7312741456984782
1040
74.779082308473164
1040
-4.731274145698448
1070
     2
1040
75.555313331763216
1040
-5.4302914458965281
1040
1.044585940693282
1040
3.8746990566306709
1040
4.42327031524015
1070
     0
1071
        0
1071
        1
1071
        5
1070
     2
1040
75.868188365537478
1040
-6.0321976890695614
1040
1.5759315747475271
1040
2.7724398850947121
1040
2.8039676125280102
1070
     1
1070
     1
1040
74.381227545692354
1040
-5.5101748461482032
1040
73.476491055933195
1040
-5.5101748461482032
1070
     2
1040
76.357057528409086
1040
-6.3290828499998204
1040
2.9947075852450711
1040
3.4185723791058642
1040
3.52516655293639
1070
     0
1070
     1
1040
73.579966134125186
1040
-5.2083523253335171
1040
74.504536014306552
1040
-5.2083523253335171
1070
     2
1040
79.576511605111662
1040
-7.4669063965999349
1040
5.5521169734216391
1040
2.722653568260041
1040
2.7724398850944461
1070
     1
1071
        0
1071
        1
1071
        4
1070
     2
1040
75.962539437628763
1040
-6.968343510381203
1040
1.704966238397094
1040
3.4259866780050801
1040
3.6168883410590831
1070
     1
1070
     1
1040
74.446555998790089
1040
-7.7485384137489151
1040
73.510677238302492
1040
-7.7485384137488591
1070
     2
1040
76.574272111280493
1040
-6.781292962078254
1040
3.2126589158381562
1040
2.835774796835814
1040
2.9329570374753322
1070
     0
1070
     1
1040
73.431281555678183
1040
-7.446715892934292
1040
74.326058537133918
1040
-7.446715892934292
1071
        0
1070
     0
1070
     1
1040
0.7853981633974483
1040
2.5
1070
     0
1070
     1
1040
0.7853981633974483
1040
-145.06181772491681
1040
-144.33407845518931
1040
-0.2209708691207961
1040
0.2209708691207961
1070
     0
1071
        1
1040
-145.06181772491681
1040
-144.33407845518931
1040
0.0
1002
}
  0
ENDBLK
  5
269
  8
0
  0
BLOCK
  8
0
  2
*X3
 70
     1
 10
0.0
 20
0.0
 30
0.0
  3
*X3
  1

  0
LINE
  5
2DB8
  8
0
 62
     0
 10
19.358662679217488
 20
-9.0817527749999556
 30
0.0
 11
20.163550050534688
 21
-8.2768654036827591
 31
0.0
  0
LINE
  5
2DB9
  8
0
 62
     0
 10
18.916720940975981
 20
-9.0817527749999272
 30
0.0
 11
20.634954571325778
 21
-7.363519144650124
 31
0.0
  0
LINE
  5
2DBA
  8
0
 62
     0
 10
18.474779202734371
 20
-9.0817527749999272
 30
0.0
 11
21.106359092116801
 21
-6.4501728856174871
 31
0.0
  0
LINE
  5
2DBB
  8
0
 62
     0
 10
18.032837464492811
 20
-9.0817527749998703
 30
0.0
 11
21.577763612907798
 21
-5.5368266265848831
 31
0.0
  0
LINE
  5
2DBC
  8
0
 62
     0
 10
17.590895726251262
 20
-9.0817527749998401
 30
0.0
 11
22.049168133698849
 21
-4.6234803675522711
 31
0.0
  0
LINE
  5
2DBD
  8
0
 62
     0
 10
17.14895398800968
 20
-9.0817527749998117
 30
0.0
 11
22.493429919864958
 21
-3.7372768431445671
 31
0.0
  0
LINE
  5
2DBE
  8
0
 62
     0
 10
16.707012249768098
 20
-9.0817527749997833
 30
0.0
 11
22.342981668548639
 21
-3.4457833562192661
 31
0.0
  0
LINE
  5
2DBF
  8
0
 62
     0
 10
16.265070511526542
 20
-9.0817527749997833
 30
0.0
 11
22.192533417232362
 21
-3.154289869293958
 31
0.0
  0
LINE
  5
2DC0
  8
0
 62
     0
 10
16.114882146862598
 20
-8.7899994014221363
 30
0.0
 11
22.04208516591606
 21
-2.8627963823686842
 31
0.0
  0
LINE
  5
2DC1
  8
0
 62
     0
 10
16.586286667653749
 20
-7.8766531423893849
 30
0.0
 11
21.89163691459979
 21
-2.5713028954433521
 31
0.0
  0
LINE
  5
2DC2
  8
0
 62
     0
 10
17.05769118844486
 20
-6.9633068833566654
 30
0.0
 11
21.741188663283509
 21
-2.2798094085180192
 31
0.0
  0
LINE
  5
2DC3
  8
0
 62
     0
 10
14.988324413426961
 20
-9.0326736583745628
 30
0.0
 11
15.73024465223898
 21
-8.2907534195625452
 31
0.0
  0
LINE
  5
2DC4
  8
0
 62
     0
 10
17.529095709236032
 20
-6.0499606243239441
 30
0.0
 11
21.590740411967221
 21
-1.9883159215927431
 31
0.0
  0
LINE
  5
2DC5
  8
0
 62
     0
 10
14.629314312681879
 20
-8.9497420208780891
 30
0.0
 11
16.201649173030031
 21
-7.3774071605299412
 31
0.0
  0
LINE
  5
2DC6
  8
0
 62
     0
 10
18.000500230027171
 20
-5.1366143652911891
 30
0.0
 11
21.44029216065093
 21
-1.6968224346674381
 31
0.0
  0
LINE
  5
2DC7
  8
0
 62
     0
 10
14.281365006928439
 20
-8.8557495883899264
 30
0.0
 11
16.673053693821121
 21
-6.4640609014972483
 31
0.0
  0
LINE
  5
2DC8
  8
0
 62
     0
 10
17.511526983991359
 20
-5.1836458730853963
 30
0.0
 11
21.28984390933465
 21
-1.405328947742106
 31
0.0
  0
LINE
  5
2DC9
  8
0
 62
     0
 10
13.94380212691237
 20
-8.7513707301643802
 30
0.0
 11
16.973956763099611
 21
-5.721216093977147
 31
0.0
  0
LINE
  5
2DCA
  8
0
 62
     0
 10
17.032503145470852
 20
-5.220727973364319
 30
0.0
 11
21.139395658018369
 21
-1.113835460816829
 31
0.0
  0
LINE
  5
2DCB
  8
0
 62
     0
 10
13.61605399195483
 20
-8.6371771268803741
 30
0.0
 11
16.514122035720131
 21
-5.7391090831150651
 31
0.0
  0
LINE
  5
2DCC
  8
0
 62
     0
 10
16.595657313828688
 20
-5.2156320667648961
 30
0.0
 11
20.988947406702099
 21
-0.8223419738914968
 31
0.0
  0
LINE
  5
2DCD
  8
0
 62
     0
 10
13.297633338077841
 20
-8.5136560425157448
 30
0.0
 11
16.089806744490168
 21
-5.721482636103417
 31
0.0
  0
LINE
  5
2DCE
  8
0
 62
     0
 10
16.191550200503681
 20
-5.177797441848293
 30
0.0
 11
20.83849915538579
 21
-0.5308484869661925
 31
0.0
  0
LINE
  5
2DCF
  8
0
 62
     0
 10
12.988123266626269
 20
-8.3812243757257097
 30
0.0
 11
15.69409821881578
 21
-5.6752494235361981
 31
0.0
  0
LINE
  5
2DD0
  8
0
 62
     0
 10
15.81428807415025
 20
-5.1131178299601743
 30
0.0
 11
20.688050904069481
 21
-0.2393550000409164
 31
0.0
  0
LINE
  5
2DD1
  8
0
 62
     0
 10
12.68716630203928
 20
-8.2402396020711421
 30
0.0
 11
15.32243341074618
 21
-5.6049724933642411
 31
0.0
  0
LINE
  5
2DD2
  8
0
 62
     0
 10
15.4599205440723
 20
-5.025543621796511
 30
0.0
 11
20.537602652753211
 21
0.0521384868844166
 31
0.0
  0
LINE
  5
2DD3
  8
0
 62
     0
 10
12.394455781593759
 20
-8.0910083842750566
 30
0.0
 11
14.97163118213251
 21
-5.5138329837363074
 31
0.0
  0
LINE
  5
2DD4
  8
0
 62
     0
 10
15.12567128204512
 20
-4.9178511455820564
 30
0.0
 11
20.38715440143692
 21
0.3436319738097211
 31
0.0
  0
LINE
  5
2DD5
  8
0
 62
     0
 10
12.10972902375255
 20
-7.9337934038746569
 30
0.0
 11
14.639388705664199
 21
-5.404133721963003
 31
0.0
  0
LINE
  5
2DD6
  8
0
 62
     0
 10
14.80952686932878
 20
-4.7920538200568732
 30
0.0
 11
17.646272590500718
 21
-1.9553080988849241
 31
0.0
  0
LINE
  5
2DD7
  8
0
 62
     0
 10
17.74099208522702
 20
-1.860588604158635
 30
0.0
 11
20.23670615012065
 21
0.6351254607349972
 31
0.0
  0
LINE
  5
2DD8
  8
0
 62
     0
 10
11.83276187491165
 20
-7.7688188144739989
 30
0.0
 11
14.323996098390181
 21
-5.2775845909954731
 31
0.0
  0
LINE
  5
2DD9
  8
0
 62
     0
 10
14.509999514414689
 20
-4.6496394367293581
 30
0.0
 11
17.204330852259151
 21
-1.9553080988848981
 31
0.0
  0
LINE
  5
2DDA
  8
0
 62
     0
 10
17.59054383391069
 20
-1.5690951172333301
 30
0.0
 11
20.086257898804352
 21
0.9266189476603015
 31
0.0
  0
LINE
  5
2DDB
  8
0
 62
     0
 10
11.563364341259749
 20
-7.596274609884289
 30
0.0
 11
14.02416421213513
 21
-5.135474739008913
 31
0.0
  0
LINE
  5
2DDC
  8
0
 62
     0
 10
14.22598225237868
 20
-4.4917149605237512
 30
0.0
 11
16.765514248473039
 21
-1.9521829644293951
 31
0.0
  0
LINE
  5
2DDD
  8
0
 62
     0
 10
17.44009558259441
 20
-1.2776016303080251
 30
0.0
 11
19.935809647488039
 21
1.218112434585634
 31
0.0
  0
LINE
  5
2DDE
  8
0
 62
     0
 10
11.301377088513449
 20
-7.4163201243889878
 30
0.0
 11
13.738915734573339
 21
-4.978781478329096
 31
0.0
  0
LINE
  5
2DDF
  8
0
 62
     0
 10
13.956657072488261
 20
-4.3190984021725827
 30
0.0
 11
16.384835886682911
 21
-1.8909195879779741
 31
0.0
  0
LINE
  5
2DE0
  8
0
 62
     0
 10
17.289647331278118
 20
-0.9861081433827507
 30
0.0
 11
19.78536139617179
 21
1.5096059215109101
 31
0.0
  0
LINE
  5
2DE1
  8
0
 62
     0
 10
11.04666864738272
 20
-7.2290868272781639
 30
0.0
 11
13.46751399977305
 21
-4.8082414748878364
 31
0.0
  0
LINE
  5
2DE2
  8
0
 62
     0
 10
13.701435319499719
 20
-4.1323784169195452
 30
0.0
 11
16.061811169856892
 21
-1.772002566562346
 31
0.0
  0
LINE
  5
2DE3
  8
0
 62
     0
 10
17.139199079961831
 20
-0.6946146564574462
 30
0.0
 11
19.415566511419279
 21
1.5817527750000111
 31
0.0
  0
LINE
  5
2DE4
  8
0
 62
     0
 10
10.79913320327708
 20
-7.0346805331421924
 30
0.0
 11
13.20941553029604
 21
-4.6243982061232307
 31
0.0
  0
LINE
  5
2DE5
  8
0
 62
     0
 10
13.459919005350089
 20
-3.9319529928275472
 30
0.0
 11
15.78298257406874
 21
-1.608889424108894
 31
0.0
  0
LINE
  5
2DE6
  8
0
 62
     0
 10
16.98875082864555
 20
-0.4031211695321133
 30
0.0
 11
18.973624773177701
 21
1.5817527750000391
 31
0.0
  0
LINE
  5
2DE7
  8
0
 62
     0
 10
10.558688879369869
 20
-6.8331831188077921
 30
0.0
 11
12.96423832486548
 21
-4.427633673312183
 31
0.0
  0
LINE
  5
2DE8
  8
0
 62
     0
 10
13.23187658814251
 20
-3.7180536717935402
 30
0.0
 11
15.542603390475019
 21
-1.407326869461059
 31
0.0
  0
LINE
  5
2DE9
  8
0
 62
     0
 10
16.838302577329241
 20
-0.1116276826068372
 30
0.0
 11
18.531683034936151
 21
1.5817527750000691
 31
0.0
  0
LINE
  5
2DEA
  8
0
 62
     0
 10
10.32527644570658
 20
-6.6246538142295011
 30
0.0
 11
12.73174120014963
 21
-4.2181890597864511
 31
0.0
  0
LINE
  5
2DEB
  8
0
 62
     0
 10
13.01722958532554
 20
-3.4907589363689602
 30
0.0
 11
15.338977079292221
 21
-1.1690114424022791
 31
0.0
  0
LINE
  5
2DEC
  8
0
 62
     0
 10
16.68785432601296
 20
0.1798658043184673
 30
0.0
 11
18.089741296694609
 21
1.581752775000123
 31
0.0
  0
LINE
  5
2DED
  8
0
 62
     0
 10
10.09885840569066
 20
-6.4091301160038361
 30
0.0
 11
12.51181142795426
 21
-3.996177093740243
 31
0.0
  0
LINE
  5
2DEE
  8
0
 62
     0
 10
12.81604815235926
 20
-3.2499986310936322
 30
0.0
 11
15.173614725271721
 21
-0.8924320581811571
 31
0.0
  0
LINE
  5
2DEF
  8
0
 62
     0
 10
16.53740607469669
 20
0.4713592912438004
 30
0.0
 11
17.647799558452999
 21
1.581752775000123
 31
0.0
  0
LINE
  5
2DF0
  8
0
 62
     0
 10
9.8794184265396154
 20
-6.1866283569132721
 30
0.0
 11
12.30445913511212
 21
-3.7615876483407642
 31
0.0
  0
LINE
  5
2DF1
  8
0
 62
     0
 10
12.62855503216173
 20
-2.995550013049523
 30
0.0
 11
15.042146499681589
 21
-0.581958545529659
 31
0.0
  0
LINE
  5
2DF2
  8
0
 62
     0
 10
16.38695782338041
 20
0.7628527781691333
 30
0.0
 11
17.20585782021146
 21
1.5817527750001821
 31
0.0
  0
LINE
  5
2DF3
  8
0
 62
     0
 10
9.6669610933221541
 20
-5.9571439518891172
 30
0.0
 11
12.109817801950721
 21
-3.514287243260553
 31
0.0
  0
LINE
  5
2DF4
  8
0
 62
     0
 10
12.45513840603104
 20
-2.7270249009386842
 30
0.0
 11
14.90659374428907
 21
-0.2755695626806585
 31
0.0
  0
LINE
  5
2DF5
  8
0
 62
     0
 10
16.236509572064129
 20
1.0543462650944091
 30
0.0
 11
16.76391608196991
 21
1.5817527750002101
 31
0.0
  0
LINE
  5
2DF6
  8
0
 62
     0
 10
9.4615119778771621
 20
-5.7206513290925614
 30
0.0
 11
11.928150917675531
 21
-3.254012389294187
 31
0.0
  0
LINE
  5
2DF7
  8
0
 62
     0
 10
12.296375434565959
 20
-2.443846134162126
 30
0.0
 11
14.762731521955679
 21
0.0225099532275692
 31
0.0
  0
LINE
  5
2DF8
  8
0
 62
     0
 10
16.086061320747831
 20
1.3458397520197121
 30
0.0
 11
16.32197434372836
 21
1.581752775000238
 31
0.0
  0
LINE
  5
2DF9
  8
0
 62
     0
 10
9.2631180250456282
 20
-5.4771035436824871
 30
0.0
 11
11.759865586077201
 21
-2.9803559826509041
 31
0.0
  0
LINE
  5
2DFA
  8
0
 62
     0
 10
12.15307000244453
 20
-2.14520982804197
 30
0.0
 11
14.61084171855631
 21
0.3125618880698084
 31
0.0
  0
LINE
  5
2DFB
  8
0
 62
     0
 10
9.0718482699327581
 20
-5.226431560553749
 30
0.0
 11
11.605534785838159
 21
-2.6927450446483472
 31
0.0
  0
LINE
  5
2DFC
  8
0
 62
     0
 10
12.0237393186072
 20
-1.832598773637752
 30
0.0
 11
14.45116613235365
 21
0.5948280401086948
 31
0.0
  0
LINE
  5
2DFD
  8
0
 62
     0
 10
8.8877949120896176
 20
-4.9685431801553364
 30
0.0
 11
11.465931303290571
 21
-2.3904067889543792
 31
0.0
  0
LINE
  5
2DFE
  8
0
 62
     0
 10
11.88572585954801
 20
-1.5286704944553251
 30
0.0
 11
14.2839112349132
 21
0.8695148809098894
 31
0.0
  0
LINE
  5
2DFF
  8
0
 62
     0
 10
8.7110747863812872
 20
-4.7033215676220541
 30
0.0
 11
11.336760232386579
 21
-2.077636121616762
 31
0.0
  0
LINE
  5
2E00
  8
0
 62
     0
 10
11.73546975650134
 20
-1.236984859260386
 30
0.0
 11
14.10925199969466
 21
1.1367973839329291
 31
0.0
  0
LINE
  5
2E01
  8
0
 62
     0
 10
8.5418312868955297
 20
-4.430623328866174
 30
0.0
 11
11.195779719714491
 21
-1.7766748960472381
 31
0.0
  0
LINE
  5
2E02
  8
0
 62
     0
 10
11.57353523638065
 20
-0.9569776411395308
 30
0.0
 11
13.92733497859555
 21
1.3968221010753721
 31
0.0
  0
LINE
  5
2E03
  8
0
 62
     0
 10
8.3802368208338862
 20
-4.1502760566862911
 30
0.0
 11
11.042067702216571
 21
-1.4884451753036101
 31
0.0
  0
LINE
  5
2E04
  8
0
 62
     0
 10
11.400367011900871
 20
-0.688204127377702
 30
0.0
 11
13.738280761840629
 21
1.649709622562054
 31
0.0
  0
LINE
  5
2E05
  8
0
 62
     0
 10
8.2264958956813246
 20
-3.8620752435972161
 30
0.0
 11
10.87620985626867
 21
-1.2123612830098971
 31
0.0
  0
LINE
  5
2E06
  8
0
 62
     0
 10
8.0808489775292287
 20
-3.5657804235077002
 30
0.0
 11
10.69865952324678
 21
-0.9479698777901715
 31
0.0
  0
LINE
  5
2E07
  8
0
 62
     0
 10
11.21630873051742
 20
-0.4303206705195353
 30
0.0
 11
13.54218592313927
 21
1.8955565221023101
 31
0.0
  0
LINE
  5
2E08
  8
0
 62
     0
 10
6.314876626036976
 20
-5.3317527749999831
 30
0.0
 11
6.4605240737572274
 21
-5.1861053272797291
 31
0.0
  0
LINE
  5
2E09
  8
0
 62
     0
 10
7.9435773047713374
 20
-3.261110358024069
 30
0.0
 11
10.509758059374921
 21
-0.6949296034204622
 31
0.0
  0
LINE
  5
2E0A
  8
0
 62
     0
 10
11.021616198491611
 20
-0.1830714643037936
 30
0.0
 11
13.33912452656992
 21
2.1344368637745101
 31
0.0
  0
LINE
  5
2E0B
  8
0
 62
     0
 10
5.8729348877953651
 20
-5.3317527750000124
 30
0.0
 11
6.3100758224409503
 21
-4.8946118403544574
 31
0.0
  0
LINE
  5
2E0C
  8
0
 62
     0
 10
7.812127318891811
 20
-2.9506186056619841
 30
0.0
 11
10.30974907487122
 21
-0.4529968496825634
 31
0.0
  0
LINE
  5
2E0D
  8
0
 62
     0
 10
10.81646665210144
 20
0.0537207275476419
 30
0.0
 11
13.129149251833841
 21
2.3664033272800391
 31
0.0
  0
LINE
  5
2E0E
  8
0
 62
     0
 10
5.4309931495537844
 20
-5.3317527749999831
 30
0.0
 11
6.1596275711246431
 21
-4.6031183534291511
 31
0.0
  0
LINE
  5
2E0F
  8
0
 62
     0
 10
7.657273143954594
 20
-2.6635310423575591
 30
0.0
 11
10.098788037373851
 21
-0.2220161489383088
 31
0.0
  0
LINE
  5
2E10
  8
0
 62
     0
 10
10.60096489904174
 20
0.2801607127295824
 30
0.0
 11
12.912292178659801
 21
2.5914879923476231
 31
0.0
  0
LINE
  5
2E11
  8
0
 62
     0
 10
4.9890514113122011
 20
-5.3317527749999831
 30
0.0
 11
6.0091793198083661
 21
-4.311624866503819
 31
0.0
  0
LINE
  5
2E12
  8
0
 62
     0
 10
7.4663496277162542
 20
-2.412512820354292
 30
0.0
 11
9.8769481610095813
 21
-0.0019142870609983
 31
0.0
  0
LINE
  5
2E13
  8
0
 62
     0
 10
10.375146842609981
 20
0.4962843945394014
 30
0.0
 11
12.68856525800609
 21
2.809702809935513
 31
0.0
  0
LINE
  5
2E14
  8
0
 62
     0
 10
4.5471096730705591
 20
-5.3317527749999831
 30
0.0
 11
5.8587310684920624
 21
-4.0201313795785154
 31
0.0
  0
LINE
  5
2E15
  8
0
 62
     0
 10
7.241596021930861
 20
-2.195324687898164
 30
0.0
 11
9.6442231156496803
 21
0.2073024058206556
 31
0.0
  0
LINE
  5
2E16
  8
0
 62
     0
 10
10.13898067071324
 20
0.7020599608842133
 30
0.0
 11
12.457960486353439
 21
3.0210397765244181
 31
0.0
  0
LINE
  5
2E17
  8
0
 62
     0
 10
4.1051679348290122
 20
-5.3317527749999831
 30
0.0
 11
5.7082828171757827
 21
-3.7286378926532389
 31
0.0
  0
LINE
  5
2E18
  8
0
 62
     0
 10
6.9827410801129011
 20
-2.01223789147451
 30
0.0
 11
9.4005267942792994
 21
0.4055478226918865
 31
0.0
  0
LINE
  5
2E19
  8
0
 62
     0
 10
9.8923658028184605
 20
0.8973868312310742
 30
0.0
 11
12.22044978905654
 21
3.2254708174691271
 31
0.0
  0
LINE
  5
2E1A
  8
0
 62
     0
 10
3.6632261965874
 20
-5.3317527750000124
 30
0.0
 11
5.5578345658595083
 21
-3.437144405727905
 31
0.0
  0
LINE
  5
2E1B
  8
0
 62
     0
 10
6.686896359417914
 20
-1.866140873927888
 30
0.0
 11
9.1456901182515065
 21
0.5926528849057036
 31
0.0
  0
LINE
  5
2E1C
  8
0
 62
     0
 10
9.6351295124243261
 20
1.082092279078523
 30
0.0
 11
11.97598460876341
 21
3.4229473754176061
 31
0.0
  0
LINE
  5
2E1D
  8
0
 62
     0
 10
3.22128445834579
 20
-5.3317527750000124
 30
0.0
 11
5.4073863145431744
 21
-3.145650918802628
 31
0.0
  0
LINE
  5
2E1E
  8
0
 62
     0
 10
6.347279767421071
 20
-1.7638157276831801
 30
0.0
 11
8.8794545988118916
 21
0.7683591037076667
 31
0.0
  0
LINE
  5
2E1F
  8
0
 62
     0
 10
9.367020955265275
 20
1.255925460161049
 30
0.0
 11
11.7244951847095
 21
3.6133996896052389
 31
0.0
  0
LINE
  5
2E20
  8
0
 62
     0
 10
2.7793427201042391
 20
-5.3317527750000124
 30
0.0
 11
5.256938063226924
 21
-2.854157431877296
 31
0.0
  0
LINE
  5
2E21
  8
0
 62
     0
 10
5.9490796900679763
 20
-1.720074066794665
 30
0.0
 11
8.6014620661494217
 21
0.9323083092868099
 31
0.0
  0
LINE
  5
2E22
  8
0
 62
     0
 10
9.0877021063503207
 20
1.4185483494876781
 30
0.0
 11
11.46588949759791
 21
3.7967357407352722
 31
0.0
  0
LINE
  5
2E23
  8
0
 62
     0
 10
2.610775747016985
 20
-5.0583780098456543
 30
0.0
 11
5.1064898119106203
 21
-2.5626639449520181
 31
0.0
  0
LINE
  5
2E24
  8
0
 62
     0
 10
5.5072917686210561
 20
-1.7199202499999711
 30
0.0
 11
8.3112395698018968
 21
1.084027551180867
 31
0.0
  0
LINE
  5
2E25
  8
0
 62
     0
 10
8.7967348046924752
 20
1.569522786071444
 30
0.0
 11
11.20005184206315
 21
3.972839823442111
 31
0.0
  0
LINE
  5
2E26
  8
0
 62
     0
 10
2.46032749570068
 20
-4.7668845229203471
 30
0.0
 11
4.9560415605943433
 21
-2.271170458026686
 31
0.0
  0
LINE
  5
2E27
  8
0
 62
     0
 10
5.065350030379502
 20
-1.7199202499999711
 30
0.0
 11
8.0081778640170231
 21
1.22290758363755
 31
0.0
  0
LINE
  5
2E28
  8
0
 62
     0
 10
8.4935626662030757
 20
1.708292385823597
 30
0.0
 11
10.926840973478789
 21
4.141570693099311
 31
0.0
  0
LINE
  5
2E29
  8
0
 62
     0
 10
2.309879244384403
 20
-4.4753910359950444
 30
0.0
 11
4.805593309278092
 21
-1.9796769711013831
 31
0.0
  0
LINE
  5
2E2A
  8
0
 62
     0
 10
8.1774859584291448
 20
1.834157416291303
 30
0.0
 11
10.646087756952451
 21
4.302759214814583
 31
0.0
  0
LINE
  5
2E2B
  8
0
 62
     0
 10
2.159430993068125
 20
-4.1838975490697123
 30
0.0
 11
7.6915009804426973
 21
1.348172438304827
 31
0.0
  0
LINE
  5
2E2C
  8
0
 62
     0
 10
7.847626470504335
 20
1.946239666608079
 30
0.0
 11
10.35759222216458
 21
4.4562054182683211
 31
0.0
  0
LINE
  5
2E2D
  8
0
 62
     0
 10
2.0089827417518502
 20
-3.8924040621444069
 30
0.0
 11
7.3602229106162991
 21
1.458836106720041
 31
0.0
  0
LINE
  5
2E2E
  8
0
 62
     0
 10
7.5028776543429663
 20
2.0434325886882601
 30
0.0
 11
10.061119896050171
 21
4.6016748303954671
 31
0.0
  0
LINE
  5
2E2F
  8
0
 62
     0
 10
1.858534490435573
 20
-3.6009105752191002
 30
0.0
 11
7.0130849031183971
 21
1.5536398374636911
 31
0.0
  0
LINE
  5
2E30
  8
0
 62
     0
 10
7.1418322729246011
 20
2.1243289455115071
 30
0.0
 11
9.7563972430297383
 21
4.7388939156166412
 31
0.0
  0
LINE
  5
2E31
  8
0
 62
     0
 10
1.708086239119293
 20
-3.3094170882937681
 30
0.0
 11
6.6484623870481361
 21
1.6309590596350461
 31
0.0
  0
LINE
  5
2E32
  8
0
 62
     0
 10
6.762674275494418
 20
2.1871126863229602
 30
0.0
 11
9.4431059849403312
 21
4.8675443957688724
 31
0.0
  0
LINE
  5
2E33
  8
0
 62
     0
 10
1.55763798780299
 20
-3.0179236013684911
 30
0.0
 11
6.2642220726346221
 21
1.688660483463138
 31
0.0
  0
LINE
  5
2E34
  8
0
 62
     0
 10
6.3630110424011832
 20
2.229391191471279
 30
0.0
 11
9.1208759930888998
 21
4.9872561421589694
 31
0.0
  0
LINE
  5
2E35
  8
0
 62
     0
 10
1.4071897364867421
 20
-2.72643011444316
 30
0.0
 11
5.8535401009298731
 21
1.7199202499999431
 31
0.0
  0
LINE
  5
2E36
  8
0
 62
     0
 10
5.9275744376882891
 20
2.235896324999969
 30
0.0
 11
8.7892763324227872
 21
5.097598219734488
 31
0.0
  0
LINE
  5
2E37
  8
0
 62
     0
 10
1.256741485170437
 20
-2.4349366275178821
 30
0.0
 11
5.4115983626882631
 21
1.7199202499999431
 31
0.0
  0
LINE
  5
2E38
  8
0
 62
     0
 10
5.680965140129639
 20
2.431228765682929
 30
0.0
 11
8.4478038763010677
 21
5.198067501854351
 31
0.0
  0
LINE
  5
2E39
  8
0
 62
     0
 10
1.106293233854158
 20
-2.14344314059255
 30
0.0
 11
4.9696566244466851
 21
1.7199202499999711
 31
0.0
  0
LINE
  5
2E3A
  8
0
 62
     0
 10
6.1523696609206091
 20
3.3445750247154802
 30
0.0
 11
8.0958686736599912
 21
5.2880740374548623
 31
0.0
  0
LINE
  5
2E3B
  8
0
 62
     0
 10
0.9558449825378828
 20
-1.8519496536672471
 30
0.0
 11
4.8249231247146431
 21
2.0171284885095111
 31
0.0
  0
LINE
  5
2E3C
  8
0
 62
     0
 10
6.6237741817115801
 20
4.25792128374803
 30
0.0
 11
7.7327748959101799
 21
5.3669219979466334
 31
0.0
  0
LINE
  5
2E3D
  8
0
 62
     0
 10
0.8053967312216059
 20
-1.560456166741943
 30
0.0
 11
5.2963276455056381
 21
2.9304747475420911
 31
0.0
  0
LINE
  5
2E3E
  8
0
 62
     0
 10
7.095178702502551
 20
5.1712675427806403
 30
0.0
 11
7.3576956471716519
 21
5.4337844874497101
 31
0.0
  0
LINE
  5
2E3F
  8
0
 62
     0
 10
0.6549484799053005
 20
-1.268962679816638
 30
0.0
 11
5.7677321662965824
 21
3.8438210065746432
 31
0.0
  0
LINE
  5
2E40
  8
0
 62
     0
 10
0.5045002285890236
 20
-0.9774691928913055
 30
0.0
 11
6.2391366870875231
 21
4.7571672656072224
 31
0.0
  0
LINE
  5
2E41
  8
0
 62
     0
 10
0.3540519772727464
 20
-0.6859757059660298
 30
0.0
 11
6.3717804582387281
 21
5.3317527749999831
 31
0.0
  0
LINE
  5
2E42
  8
0
 62
     0
 10
0.2036037259564694
 20
-0.3944822190406967
 30
0.0
 11
5.9298387199971181
 21
5.331752774999952
 31
0.0
  0
LINE
  5
2E43
  8
0
 62
     0
 10
0.0531554746401923
 20
-0.1029887321153637
 30
0.0
 11
5.4878969817555401
 21
5.3317527749999831
 31
0.0
  0
LINE
  5
2E44
  8
0
 62
     0
 10
0.3048507002517624
 20
0.5906482317377595
 30
0.0
 11
5.0459552435139532
 21
5.331752774999952
 31
0.0
  0
LINE
  5
2E45
  8
0
 62
     0
 10
0.7762552210427316
 20
1.503994490770338
 30
0.0
 11
4.6040135052723441
 21
5.331752774999952
 31
0.0
  0
LINE
  5
2E46
  8
0
 62
     0
 10
1.2476597418337001
 20
2.417340749802916
 30
0.0
 11
4.1620717670307661
 21
5.3317527749999831
 31
0.0
  0
LINE
  5
2E47
  8
0
 62
     0
 10
1.719064262624725
 20
3.3306870088354961
 30
0.0
 11
3.720130028789185
 21
5.331752774999952
 31
0.0
  0
LINE
  5
2E48
  8
0
 62
     0
 10
2.1904687834156671
 20
4.244033267868045
 30
0.0
 11
3.278188290547575
 21
5.331752774999952
 31
0.0
  0
LINE
  5
2E49
  8
0
 62
     0
 10
2.661873304206662
 20
5.1573795269006553
 30
0.0
 11
2.836246552305993
 21
5.3317527749999831
 31
0.0
  0
ENDBLK
  5
2E4B
  8
0
  0
BLOCK
  8
0
  2
*X4
 70
     1
 10
0.0
 20
0.0
 30
0.0
  3
*X4
  1

  0
LINE
  5
2E4D
  8
0
 62
     0
 10
54.712680264418942
 20
-9.0830742491259002
 30
0.0
 11
55.000076056916392
 21
-8.7956784566284512
 31
0.0
  0
LINE
  5
2E4E
  8
0
 62
     0
 10
54.270738526177368
 20
-9.0830742491259002
 30
0.0
 11
55.000076056916399
 21
-8.3537367183868696
 31
0.0
  0
LINE
  5
2E4F
  8
0
 62
     0
 10
54.17001104655818
 20
-8.7418599905034853
 30
0.0
 11
55.000076056916392
 21
-7.9117949801452863
 31
0.0
  0
LINE
  5
2E50
  8
0
 62
     0
 10
54.17001104655818
 20
-8.2999182522618753
 30
0.0
 11
55.000076056916392
 21
-7.4698532419036781
 31
0.0
  0
LINE
  5
2E51
  8
0
 62
     0
 10
54.170011046558201
 20
-7.8579765140202911
 30
0.0
 11
55.000076056916399
 21
-7.0279115036620947
 31
0.0
  0
LINE
  5
2E52
  8
0
 62
     0
 10
54.17001104655818
 20
-7.4160347757786811
 30
0.0
 11
55.000076056916392
 21
-6.5859697654205132
 31
0.0
  0
LINE
  5
2E53
  8
0
 62
     0
 10
56.560823380266392
 20
-4.583280703828903
 30
0.0
 11
56.687567291019057
 21
-4.4565367930762241
 31
0.0
  0
LINE
  5
2E54
  8
0
 62
     0
 10
54.17001104655818
 20
-6.9740930375371022
 30
0.0
 11
55.000076056916392
 21
-6.1440280271789041
 31
0.0
  0
LINE
  5
2E55
  8
0
 62
     0
 10
54.170011046558201
 20
-6.5321512992955171
 30
0.0
 11
55.04334649941817
 21
-5.6588158464355427
 31
0.0
  0
LINE
  5
2E56
  8
0
 62
     0
 10
56.044938027974879
 20
-4.6572243178788391
 30
0.0
 11
56.68756729101905
 21
-4.0145950548346701
 31
0.0
  0
LINE
  5
2E57
  8
0
 62
     0
 10
51.485978216535202
 20
-9.2161841293185205
 30
0.0
 11
52.843971258035062
 21
-7.8581910878186489
 31
0.0
  0
LINE
  5
2E58
  8
0
 62
     0
 10
54.170011046558201
 20
-6.0902095610539071
 30
0.0
 11
56.564933410524063
 21
-3.6952871970880481
 31
0.0
  0
LINE
  5
2E59
  8
0
 62
     0
 10
50.964699656925291
 20
-9.2955209506868357
 30
0.0
 11
52.793631396525853
 21
-7.466589211086271
 31
0.0
  0
LINE
  5
2E5A
  8
0
 62
     0
 10
53.035566190408723
 20
-6.782712678961782
 30
0.0
 11
53.049682891584069
 21
-6.7685959777864451
 31
0.0
  0
LINE
  5
2E5B
  8
0
 62
     0
 10
51.944462920405158
 20
-7.8738159489653583
 30
0.0
 11
52.351689658284208
 21
-7.466589211086271
 31
0.0
  0
LINE
  5
2E5C
  8
0
 62
     0
 10
54.17001104655818
 20
-5.6482678228123291
 30
0.0
 11
56.093202566838329
 21
-3.725076302532186
 31
0.0
  0
LINE
  5
2E5D
  8
0
 62
     0
 10
50.516551537872338
 20
-9.3017273314981672
 30
0.0
 11
51.452275924315671
 21
-8.3660029450548432
 31
0.0
  0
LINE
  5
2E5E
  8
0
 62
     0
 10
52.59362445216712
 20
-6.782712678961782
 30
0.0
 11
53.049682891584062
 21
-6.326654239544891
 31
0.0
  0
LINE
  5
2E5F
  8
0
 62
     0
 10
54.170011046558201
 20
-5.2063260845707431
 30
0.0
 11
55.016351281137432
 21
-4.3599858499915172
 31
0.0
  0
LINE
  5
2E60
  8
0
 62
     0
 10
50.128692330776701
 20
-9.2476448003522211
 30
0.0
 11
50.801846077061512
 21
-8.5744910540674368
 31
0.0
  0
LINE
  5
2E61
  8
0
 62
     0
 10
52.151682713925538
 20
-6.782712678961782
 30
0.0
 11
53.03194040900059
 21
-5.9024549838867371
 31
0.0
  0
LINE
  5
2E62
  8
0
 62
     0
 10
54.170011046558201
 20
-4.7643843463291331
 30
0.0
 11
55.016351281137403
 21
-3.9180441117499352
 31
0.0
  0
LINE
  5
2E63
  8
0
 62
     0
 10
49.782569674974972
 20
-9.1518257179123434
 30
0.0
 11
50.382989577138211
 21
-8.5514058157491206
 31
0.0
  0
LINE
  5
2E64
  8
0
 62
     0
 10
51.709740975683971
 20
-6.782712678961782
 30
0.0
 11
52.9665510863667
 21
-5.525902568279033
 31
0.0
  0
LINE
  5
2E65
  8
0
 62
     0
 10
54.17001104655818
 20
-4.3224426080875551
 30
0.0
 11
54.644574240253121
 21
-3.84787941439262
 31
0.0
  0
LINE
  5
2E66
  8
0
 62
     0
 10
49.462229301135551
 20
-9.0302243535101923
 30
0.0
 11
50.06152743297271
 21
-8.4309262216730172
 31
0.0
  0
LINE
  5
2E67
  8
0
 62
     0
 10
52.152700563202579
 20
-5.8978113532015746
 30
0.0
 11
52.863799866091611
 21
-5.1867120503125363
 31
0.0
  0
LINE
  5
2E68
  8
0
 62
     0
 10
51.267799237442333
 20
-6.7827126789618131
 30
0.0
 11
52.006565024892161
 21
-6.0439468915119772
 31
0.0
  0
LINE
  5
2E69
  8
0
 62
     0
 10
54.17001104655818
 20
-3.880500869845974
 30
0.0
 11
54.202632502011511
 21
-3.8478794143926471
 31
0.0
  0
LINE
  5
2E6A
  8
0
 62
     0
 10
49.195291602280911
 20
-8.8552203141232422
 30
0.0
 11
49.800716023599179
 21
-8.2497958928049382
 31
0.0
  0
LINE
  5
2E6B
  8
0
 62
     0
 10
50.825857499200772
 20
-6.782712678961782
 30
0.0
 11
51.564623286650601
 21
-6.0439468915119452
 31
0.0
  0
LINE
  5
2E6C
  8
0
 62
     0
 10
52.082881047949662
 20
-5.5256891302128963
 30
0.0
 11
52.730245796356641
 21
-4.8783243818059212
 31
0.0
  0
LINE
  5
2E6D
  8
0
 62
     0
 10
48.969870597381323
 20
-8.638699580781207
 30
0.0
 11
49.58311002359379
 21
-8.0254601545687763
 31
0.0
  0
LINE
  5
2E6E
  8
0
 62
     0
 10
50.383915760959177
 20
-6.782712678961782
 30
0.0
 11
51.122681548409027
 21
-6.0439468915119452
 31
0.0
  0
LINE
  5
2E6F
  8
0
 62
     0
 10
51.966985766821622
 20
-5.199642673099329
 30
0.0
 11
52.569768726289823
 21
-4.5968597136311473
 31
0.0
  0
LINE
  5
2E70
  8
0
 62
     0
 10
48.774898438596949
 20
-8.391730001324019
 30
0.0
 11
49.408578367147328
 21
-7.7580500727736412
 31
0.0
  0
LINE
  5
2E71
  8
0
 62
     0
 10
49.941974022717567
 20
-6.782712678961782
 30
0.0
 11
50.68073981016741
 21
-6.0439468915119452
 31
0.0
  0
LINE
  5
2E72
  8
0
 62
     0
 10
51.813942524434879
 20
-4.910744177244478
 30
0.0
 11
52.381695810706432
 21
-4.3429908909729411
 31
0.0
  0
LINE
  5
2E73
  8
0
 62
     0
 10
48.611822860775249
 20
-8.1128638409041081
 30
0.0
 11
49.281980985985477
 21
-7.442705715693875
 31
0.0
  0
LINE
  5
2E74
  8
0
 62
     0
 10
49.500032284475999
 20
-6.782712678961782
 30
0.0
 11
50.238798071925842
 21
-6.0439468915119452
 31
0.0
  0
LINE
  5
2E75
  8
0
 62
     0
 10
51.619561416992767
 20
-4.6631835464450244
 30
0.0
 11
52.154555150991143
 21
-4.1281898124466041
 31
0.0
  0
LINE
  5
2E76
  8
0
 62
     0
 10
48.484054521600441
 20
-7.7986904418373504
 30
0.0
 11
49.217422872639382
 21
-7.065322090798384
 31
0.0
  0
LINE
  5
2E77
  8
0
 62
     0
 10
51.351816915367152
 20
-4.488986309829043
 30
0.0
 11
51.886101449463432
 21
-3.9547017757327581
 31
0.0
  0
LINE
  5
2E78
  8
0
 62
     0
 10
48.389372767674033
 20
-7.451430457522175
 30
0.0
 11
49.796856333684261
 21
-6.0439468915119452
 31
0.0
  0
LINE
  5
2E79
  8
0
 62
     0
 10
48.331467205692711
 20
-7.0673942812618691
 30
0.0
 11
49.354914595442622
 21
-6.0439468915119452
 31
0.0
  0
LINE
  5
2E7A
  8
0
 62
     0
 10
51.019086096063681
 20
-4.3797753908908961
 30
0.0
 11
51.577980931777219
 21
-3.820880555177351
 31
0.0
  0
LINE
  5
2E7B
  8
0
 62
     0
 10
46.283579832490517
 20
-9.1152816544640416
 30
0.0
 11
47.202777706380431
 21
-8.1960837805741562
 31
0.0
  0
LINE
  5
2E7C
  8
0
 62
     0
 10
48.319906972699883
 20
-6.6370127760131341
 30
0.0
 11
49.292975669490062
 21
-5.6639440792229721
 31
0.0
  0
LINE
  5
2E7D
  8
0
 62
     0
 10
45.670891436599902
 20
-9.2860283121131033
 30
0.0
 11
47.47879439723409
 21
-7.4781253514789219
 31
0.0
  0
LINE
  5
2E7E
  8
0
 62
     0
 10
50.5880906883121
 20
-4.368829060400909
 30
0.0
 11
51.230755450759233
 21
-3.7261642979537721
 31
0.0
  0
LINE
  5
2E7F
  8
0
 62
     0
 10
43.675740950384437
 20
-11.28117879832854
 30
0.0
 11
43.729424419143491
 21
-11.227495329569511
 31
0.0
  0
LINE
  5
2E80
  8
0
 62
     0
 10
48.322559281885731
 20
-6.1924187285856931
 30
0.0
 11
49.608843405121291
 21
-4.9061346053501032
 31
0.0
  0
LINE
  5
2E81
  8
0
 62
     0
 10
45.203589189942839
 20
-9.3113888205285757
 30
0.0
 11
47.580284069774372
 21
-6.9346939406970272
 31
0.0
  0
LINE
  5
2E82
  8
0
 62
     0
 10
49.988245856487993
 20
-4.5267321539834313
 30
0.0
 11
50.835059526701507
 21
-3.6799184837699102
 31
0.0
  0
LINE
  5
2E83
  8
0
 62
     0
 10
43.233799212142877
 20
-11.28117879832854
 30
0.0
 11
43.729424419143527
 21
-10.78555359132789
 31
0.0
  0
LINE
  5
2E84
  8
0
 62
     0
 10
46.443660881305718
 20
-7.629375390924082
 30
0.0
 11
47.576053713401393
 21
-6.4969825588284191
 31
0.0
  0
LINE
  5
2E85
  8
0
 62
     0
 10
44.816326009627332
 20
-9.2567102626024678
 30
0.0
 11
45.733555101797648
 21
-8.3394811704321512
 31
0.0
  0
LINE
  5
2E86
  8
0
 62
     0
 10
48.38994243492553
 20
-5.6830938373042841
 30
0.0
 11
50.369737931252637
 21
-3.703298340977168
 31
0.0
  0
LINE
  5
2E87
  8
0
 62
     0
 10
42.905444758441313
 20
-11.167591513788491
 30
0.0
 11
43.729424419143491
 21
-10.34361185308631
 31
0.0
  0
LINE
  5
2E88
  8
0
 62
     0
 10
46.61898329003828
 20
-7.0121112439499313
 30
0.0
 11
47.548282998303598
 21
-6.0828115356846091
 31
0.0
  0
LINE
  5
2E89
  8
0
 62
     0
 10
44.479548531207328
 20
-9.1515460027808881
 30
0.0
 11
45.178137366159397
 21
-8.4529571678287692
 31
0.0
  0
LINE
  5
2E8A
  8
0
 62
     0
 10
48.626368526178638
 20
-5.0047260078095803
 30
0.0
 11
49.747396776459752
 21
-3.8836977575284641
 31
0.0
  0
LINE
  5
2E8B
  8
0
 62
     0
 10
42.905444758441313
 20
-10.725649775546881
 30
0.0
 11
43.729424419143491
 21
-9.9016701148447037
 31
0.0
  0
LINE
  5
2E8C
  8
0
 62
     0
 10
44.20361746354267
 20
-8.9855353322039662
 30
0.0
 11
44.774348732917581
 21
-8.414804062829063
 31
0.0
  0
LINE
  5
2E8D
  8
0
 62
     0
 10
46.639880052566333
 20
-6.549272743180321
 30
0.0
 11
47.518241143701097
 21
-5.6709116520455281
 31
0.0
  0
LINE
  5
2E8E
  8
0
 62
     0
 10
42.905444758441313
 20
-10.283708037305329
 30
0.0
 11
43.729424419143527
 21
-9.4597283766031222
 31
0.0
  0
LINE
  5
2E8F
  8
0
 62
     0
 10
43.973159767460388
 20
-8.774051290044639
 30
0.0
 11
44.472927442548922
 21
-8.2742836149560901
 31
0.0
  0
LINE
  5
2E90
  8
0
 62
     0
 10
46.625548993451062
 20
-6.1216620640539361
 30
0.0
 11
47.432475178877688
 21
-5.314735878627312
 31
0.0
  0
LINE
  5
2E91
  8
0
 62
     0
 10
42.905444758441313
 20
-9.8417662990637194
 30
0.0
 11
43.729424419143491
 21
-9.0177866383615424
 31
0.0
  0
LINE
  5
2E92
  8
0
 62
     0
 10
43.757286104325132
 20
-8.5479832149383128
 30
0.0
 11
44.237484389843132
 21
-8.0677849294202968
 31
0.0
  0
LINE
  5
2E93
  8
0
 62
     0
 10
46.552202007960702
 20
-5.7530673113027131
 30
0.0
 11
47.303300592072347
 21
-5.0019687271910964
 31
0.0
  0
LINE
  5
2E94
  8
0
 62
     0
 10
42.905444758441313
 20
-9.3998245608221112
 30
0.0
 11
43.729424419143491
 21
-8.5758449001199324
 31
0.0
  0
LINE
  5
2E95
  8
0
 62
     0
 10
46.438189429802769
 20
-5.4251381512190964
 30
0.0
 11
47.155332178604048
 21
-4.7079954024178221
 31
0.0
  0
LINE
  5
2E96
  8
0
 62
     0
 10
42.905444758441313
 20
-8.9578828225805296
 30
0.0
 11
44.052909631299343
 21
-7.8104179497225319
 31
0.0
  0
LINE
  5
2E97
  8
0
 62
     0
 10
46.30062881935978
 20
-5.12075702342048
 30
0.0
 11
46.971756164773723
 21
-4.4496296780065441
 31
0.0
  0
LINE
  5
2E98
  8
0
 62
     0
 10
42.905444758441313
 20
-8.515941084338948
 30
0.0
 11
43.912080403633347
 21
-7.5093054391469121
 31
0.0
  0
LINE
  5
2E99
  8
0
 62
     0
 10
46.122997745233221
 20
-4.8564463593054361
 30
0.0
 11
46.750362722320389
 21
-4.2290813822182542
 31
0.0
  0
LINE
  5
2E9A
  8
0
 62
     0
 10
42.905444758441313
 20
-8.073999346097338
 30
0.0
 11
43.795929359999157
 21
-7.1835147445394787
 31
0.0
  0
LINE
  5
2E9B
  8
0
 62
     0
 10
42.905444758441298
 20
-7.6320576078557529
 30
0.0
 11
43.744601003532189
 21
-6.7929013627648942
 31
0.0
  0
LINE
  5
2E9C
  8
0
 62
     0
 10
45.875518673693321
 20
-4.6619836926037692
 30
0.0
 11
46.504896975180174
 21
-4.0326053911168991
 31
0.0
  0
LINE
  5
2E9D
  8
0
 62
     0
 10
41.455749591297149
 20
-9.0817527749998952
 30
0.0
 11
41.661717981830392
 21
-8.8757843844666695
 31
0.0
  0
LINE
  5
2E9E
  8
0
 62
     0
 10
42.905444758441313
 20
-7.190115869614174
 30
0.0
 11
43.740196082396601
 21
-6.3553645456588841
 31
0.0
  0
LINE
  5
2E9F
  8
0
 62
     0
 10
45.574539336490602
 20
-4.5210212915648924
 30
0.0
 11
46.226791878311381
 21
-3.868768749744075
 31
0.0
  0
LINE
  5
2EA0
  8
0
 62
     0
 10
41.013807853055589
 20
-9.0817527749998703
 30
0.0
 11
41.661717981830392
 21
-8.4338426462250595
 31
0.0
  0
LINE
  5
2EA1
  8
0
 62
     0
 10
42.905444758441313
 20
-6.7481741313725641
 30
0.0
 11
43.74865744647002
 21
-5.9049614433438631
 31
0.0
  0
LINE
  5
2EA2
  8
0
 62
     0
 10
45.180273385654367
 20
-4.473345504159508
 30
0.0
 11
45.896193502612931
 21
-3.7574253872009522
 31
0.0
  0
LINE
  5
2EA3
  8
0
 62
     0
 10
40.812888659309237
 20
-8.8407302305046471
 30
0.0
 11
41.661717981830392
 21
-7.9919009079834771
 31
0.0
  0
LINE
  5
2EA4
  8
0
 62
     0
 10
42.905444758441313
 20
-6.3062323931309843
 30
0.0
 11
43.953147063118969
 21
-5.2585300884533401
 31
0.0
  0
LINE
  5
2EA5
  8
0
 62
     0
 10
44.640335757582939
 20
-4.5713413939893712
 30
0.0
 11
45.517201564086022
 21
-3.694475587486294
 31
0.0
  0
LINE
  5
2EA6
  8
0
 62
     0
 10
40.812888659309237
 20
-8.3987884922630371
 30
0.0
 11
41.661717981830392
 21
-7.5499591697418964
 31
0.0
  0
LINE
  5
2EA7
  8
0
 62
     0
 10
42.905444758441313
 20
-5.8642906548894
 30
0.0
 11
45.084233225083999
 21
-3.6855021882466872
 31
0.0
  0
LINE
  5
2EA8
  8
0
 62
     0
 10
40.812888659309237
 20
-7.956846754021484
 30
0.0
 11
41.661717981830392
 21
-7.1080174315002864
 31
0.0
  0
LINE
  5
2EA9
  8
0
 62
     0
 10
42.905444758441313
 20
-5.4223489166477901
 30
0.0
 11
44.539123501845381
 21
-3.7886701732437
 31
0.0
  0
LINE
  5
2EAA
  8
0
 62
     0
 10
40.812888659309237
 20
-7.514905015779874
 30
0.0
 11
41.661717981830392
 21
-6.6660756932587031
 31
0.0
  0
LINE
  5
2EAB
  8
0
 62
     0
 10
42.905444758441313
 20
-4.9804071784062094
 30
0.0
 11
43.639036859892329
 21
-4.2468150769552153
 31
0.0
  0
LINE
  5
2EAC
  8
0
 62
     0
 10
40.812888659309237
 20
-7.072963277538264
 30
0.0
 11
41.661717981830392
 21
-6.2241339550171491
 31
0.0
  0
LINE
  5
2EAD
  8
0
 62
     0
 10
40.812888659309237
 20
-6.631021539296678
 30
0.0
 11
41.661717981830392
 21
-5.7821922167755391
 31
0.0
  0
LINE
  5
2EAE
  8
0
 62
     0
 10
42.905444758441313
 20
-4.5384654401646252
 30
0.0
 11
43.608958612737808
 21
-3.8349515858681111
 31
0.0
  0
LINE
  5
2EAF
  8
0
 62
     0
 10
38.36215742360605
 20
-9.0817527749998952
 30
0.0
 11
38.61834765081268
 21
-8.8255625477932504
 31
0.0
  0
LINE
  5
2EB0
  8
0
 62
     0
 10
40.812888659309237
 20
-6.1890798010551
 30
0.0
 11
41.661717981830392
 21
-5.3402504785339291
 31
0.0
  0
LINE
  5
2EB1
  8
0
 62
     0
 10
42.905444758441313
 20
-4.0965237019230161
 30
0.0
 11
43.167016874496213
 21
-3.8349515858681111
 31
0.0
  0
LINE
  5
2EB2
  8
0
 62
     0
 10
37.920215685364468
 20
-9.0817527749998703
 30
0.0
 11
38.61834765081268
 21
-8.3836208095516724
 31
0.0
  0
LINE
  5
2EB3
  8
0
 62
     0
 10
40.81288865930928
 20
-5.74713806281349
 30
0.0
 11
41.661717981830392
 21
-4.8983087402923191
 31
0.0
  0
LINE
  5
2EB4
  8
0
 62
     0
 10
37.776633089684978
 20
-8.783393632437793
 30
0.0
 11
38.61834765081268
 21
-7.9416790713100891
 31
0.0
  0
LINE
  5
2EB5
  8
0
 62
     0
 10
40.810527981968562
 20
-5.3075570019126124
 30
0.0
 11
41.589525813164272
 21
-4.5285591707169033
 31
0.0
  0
LINE
  5
2EB6
  8
0
 62
     0
 10
37.776633089684992
 20
-8.341451894196183
 30
0.0
 11
38.61834765081268
 21
-7.49973733306848
 31
0.0
  0
LINE
  5
2EB7
  8
0
 62
     0
 10
40.721404922858703
 20
-4.9547383227808552
 30
0.0
 11
41.428685731757852
 21
-4.247457513881697
 31
0.0
  0
LINE
  5
2EB8
  8
0
 62
     0
 10
37.776633089684971
 20
-7.8995101559545979
 30
0.0
 11
38.61834765081268
 21
-7.0577955948268993
 31
0.0
  0
LINE
  5
2EB9
  8
0
 62
     0
 10
40.528767250735733
 20
-4.7054342566622722
 30
0.0
 11
41.210774491621322
 21
-4.0234270157766572
 31
0.0
  0
LINE
  5
2EBA
  8
0
 62
     0
 10
37.776633089684978
 20
-7.457568417713019
 30
0.0
 11
38.61834765081268
 21
-6.615853856585316
 31
0.0
  0
LINE
  5
2EBB
  8
0
 62
     0
 10
40.277612196388283
 20
-4.514647572768097
 30
0.0
 11
40.960618846831622
 21
-3.8316409223247341
 31
0.0
  0
LINE
  5
2EBC
  8
0
 62
     0
 10
37.776633089684992
 20
-7.0156266794714091
 30
0.0
 11
38.618347650812687
 21
-6.173912118343706
 31
0.0
  0
LINE
  5
2EBD
  8
0
 62
     0
 10
37.776633089684971
 20
-6.5736849412298284
 30
0.0
 11
38.61834765081268
 21
-5.7319703801021262
 31
0.0
  0
LINE
  5
2EBE
  8
0
 62
     0
 10
39.922186288523932
 20
-4.4281317423908604
 30
0.0
 11
40.65076599031439
 21
-3.6995520406003921
 31
0.0
  0
LINE
  5
2EBF
  8
0
 62
     0
 10
35.268565255914922
 20
-9.0817527749998703
 30
0.0
 11
35.574978462728382
 21
-8.7753395681864088
 31
0.0
  0
LINE
  5
2EC0
  8
0
 62
     0
 10
37.776633089684978
 20
-6.131743202988245
 30
0.0
 11
38.652169908910921
 21
-5.2562063837623043
 31
0.0
  0
LINE
  5
2EC1
  8
0
 62
     0
 10
39.415869151311853
 20
-4.4925071413613811
 30
0.0
 11
40.213984340449237
 21
-3.6943919522239801
 31
0.0
  0
LINE
  5
2EC2
  8
0
 62
     0
 10
34.826623517673333
 20
-9.0817527749998952
 30
0.0
 11
35.574978462728367
 21
-8.3333978299448574
 31
0.0
  0
LINE
  5
2EC3
  8
0
 62
     0
 10
37.776633089684971
 20
-5.6898014647466644
 30
0.0
 11
39.7619923614388
 21
-3.7044421929928122
 31
0.0
  0
LINE
  5
2EC4
  8
0
 62
     0
 10
34.736948719389019
 20
-8.729485835042567
 30
0.0
 11
35.574978462728339
 21
-7.8914560917032732
 31
0.0
  0
LINE
  5
2EC5
  8
0
 62
     0
 10
37.776633089684971
 20
-5.2478597265050553
 30
0.0
 11
39.139726716543443
 21
-3.8847660996465829
 31
0.0
  0
LINE
  5
2EC6
  8
0
 62
     0
 10
34.736948719389027
 20
-8.2875440968009855
 30
0.0
 11
35.574978462728382
 21
-7.4495143534616339
 31
0.0
  0
LINE
  5
2EC7
  8
0
 62
     0
 10
37.674829516426222
 20
-4.9077215615221501
 30
0.0
 11
38.355161312835442
 21
-4.2273897651129744
 31
0.0
  0
LINE
  5
2EC8
  8
0
 62
     0
 10
34.736948719389027
 20
-7.8456023585593719
 30
0.0
 11
35.574978462728353
 21
-7.0075726152200541
 31
0.0
  0
LINE
  5
2EC9
  8
0
 62
     0
 10
37.46785073330971
 20
-4.672758606397136
 30
0.0
 11
38.155330122347777
 21
-3.9852792173590781
 31
0.0
  0
LINE
  5
2ECA
  8
0
 62
     0
 10
34.736948719389069
 20
-7.403660620317793
 30
0.0
 11
35.574978462728367
 21
-6.565630876978469
 31
0.0
  0
LINE
  5
2ECB
  8
0
 62
     0
 10
37.185300069358888
 20
-4.5133675321063427
 30
0.0
 11
37.894188205217283
 21
-3.8044793962479839
 31
0.0
  0
LINE
  5
2ECC
  8
0
 62
     0
 10
34.736948719389027
 20
-6.9617188820762124
 30
0.0
 11
35.574978462728382
 21
-6.1236891387368644
 31
0.0
  0
LINE
  5
2ECD
  8
0
 62
     0
 10
34.736948719389027
 20
-6.5197771438345971
 30
0.0
 11
35.574978462728353
 21
-5.681747400495281
 31
0.0
  0
LINE
  5
2ECE
  8
0
 62
     0
 10
36.813215365104668
 20
-4.4435104981189681
 30
0.0
 11
37.543335472044511
 21
-3.7133903911791322
 31
0.0
  0
LINE
  5
2ECF
  8
0
 62
     0
 10
32.044889198640789
 20
-9.2118366645828473
 30
0.0
 11
33.378967583418302
 21
-7.8777582798053292
 31
0.0
  0
LINE
  5
2ED0
  8
0
 62
     0
 10
34.736948719389069
 20
-6.0778354055930164
 30
0.0
 11
35.67143681057938
 21
-5.1433473144026891
 31
0.0
  0
LINE
  5
2ED1
  8
0
 62
     0
 10
36.216146780479491
 20
-4.5986373445025741
 30
0.0
 11
37.13519183535022
 21
-3.67959228963187
 31
0.0
  0
LINE
  5
2ED2
  8
0
 62
     0
 10
31.520278668930491
 20
-9.2945054560515814
 30
0.0
 11
33.34819491389581
 21
-7.466589211086271
 31
0.0
  0
LINE
  5
2ED3
  8
0
 62
     0
 10
33.590129707778686
 20
-6.782712678961782
 30
0.0
 11
33.590664081007333
 21
-6.7821783057331402
 31
0.0
  0
LINE
  5
2ED4
  8
0
 62
     0
 10
32.467328466017818
 20
-7.9055139207226253
 30
0.0
 11
32.906253175654172
 21
-7.4665892110863004
 31
0.0
  0
LINE
  5
2ED5
  8
0
 62
     0
 10
34.736948719389027
 20
-5.6358936673514393
 30
0.0
 11
36.640100562507797
 21
-3.7327418242326722
 31
0.0
  0
LINE
  5
2ED6
  8
0
 62
     0
 10
31.070422816711162
 20
-9.3024195700293149
 30
0.0
 11
32.026748930785892
 21
-8.3460934559545876
 31
0.0
  0
LINE
  5
2ED7
  8
0
 62
     0
 10
33.148187969537076
 20
-6.782712678961782
 30
0.0
 11
33.590664081007333
 21
-6.3402365674915284
 31
0.0
  0
LINE
  5
2ED8
  8
0
 62
     0
 10
34.736948719389027
 20
-5.1939519291098284
 30
0.0
 11
35.55292555974232
 21
-4.3779750887565561
 31
0.0
  0
LINE
  5
2ED9
  8
0
 62
     0
 10
30.680789417343291
 20
-9.2501112311555822
 30
0.0
 11
31.35793943035344
 21
-8.5729612181454211
 31
0.0
  0
LINE
  5
2EDA
  8
0
 62
     0
 10
32.706246231295481
 20
-6.7827126789617571
 30
0.0
 11
33.57423317805484
 21
-5.9147257322024371
 31
0.0
  0
LINE
  5
2EDB
  8
0
 62
     0
 10
34.736948719389069
 20
-4.7520101908682193
 30
0.0
 11
35.55292555974232
 21
-3.936033350514943
 31
0.0
  0
LINE
  5
2EDC
  8
0
 62
     0
 10
30.333968009609741
 20
-9.1549909006475332
 30
0.0
 11
30.93510587193019
 21
-8.5538530383270732
 31
0.0
  0
LINE
  5
2EDD
  8
0
 62
     0
 10
32.26430449305392
 20
-6.782712678961782
 30
0.0
 11
33.510141774520612
 21
-5.5368753974950931
 31
0.0
  0
LINE
  5
2EDE
  8
0
 62
     0
 10
34.736948719389027
 20
-4.3100684526266644
 30
0.0
 11
35.186330441003548
 21
-3.8606867310121231
 31
0.0
  0
LINE
  5
2EDF
  8
0
 62
     0
 10
30.0122348721635
 20
-9.0347822998521927
 30
0.0
 11
30.611349578545202
 21
-8.4356675934704981
 31
0.0
  0
LINE
  5
2EE0
  8
0
 62
     0
 10
32.695129278787277
 20
-5.9099461549868124
 30
0.0
 11
33.408422941364229
 21
-5.196652492409866
 31
0.0
  0
LINE
  5
2EE1
  8
0
 62
     0
 10
31.822362754812289
 20
-6.782712678961782
 30
0.0
 11
32.561128542262132
 21
-6.0439468915119452
 31
0.0
  0
LINE
  5
2EE2
  8
0
 62
     0
 10
34.736948719389027
 20
-3.8681267143850562
 30
0.0
 11
34.744388702761967
 21
-3.8606867310121231
 31
0.0
  0
LINE
  5
2EE3
  8
0
 62
     0
 10
29.743740106160399
 20
-8.8613353276136824
 30
0.0
 11
30.349050781521761
 21
-8.2560246522523322
 31
0.0
  0
LINE
  5
2EE4
  8
0
 62
     0
 10
31.380421016570711
 20
-6.7827126789617571
 30
0.0
 11
32.119186804020551
 21
-6.0439468915119452
 31
0.0
  0
LINE
  5
2EE5
  8
0
 62
     0
 10
32.626754640557913
 20
-5.5363790549745842
 30
0.0
 11
33.275747710126879
 21
-4.8873859854056141
 31
0.0
  0
LINE
  5
2EE6
  8
0
 62
     0
 10
29.51732777576451
 20
-8.6458059197679802
 30
0.0
 11
30.13015138242967
 21
-8.0329823131028188
 31
0.0
  0
LINE
  5
2EE7
  8
0
 62
     0
 10
30.93847927832914
 20
-6.782712678961782
 30
0.0
 11
31.67724506577898
 21
-6.0439468915119452
 31
0.0
  0
LINE
  5
2EE8
  8
0
 62
     0
 10
32.512114605956747
 20
-5.209077351334173
 30
0.0
 11
33.11605733754908
 21
-4.6051346197418441
 31
0.0
  0
LINE
  5
2EE9
  8
0
 62
     0
 10
29.321409487006491
 20
-8.3997824702844355
 30
0.0
 11
29.954243499208012
 21
-7.766948458082906
 31
0.0
  0
LINE
  5
2EEA
  8
0
 62
     0
 10
30.49653754008753
 20
-6.782712678961782
 30
0.0
 11
31.23530332753737
 21
-6.0439468915119452
 31
0.0
  0
LINE
  5
2EEB
  8
0
 62
     0
 10
32.360127474907472
 20
-4.919122744141843
 30
0.0
 11
32.929021119295697
 21
-4.3502290997536193
 31
0.0
  0
LINE
  5
2EEC
  8
0
 62
     0
 10
29.157310609872098
 20
-8.1219396091772182
 30
0.0
 11
29.826041158540612
 21
-7.4532090605086969
 31
0.0
  0
LINE
  5
2EED
  8
0
 62
     0
 10
30.054595801845959
 20
-6.782712678961782
 30
0.0
 11
30.79336158929577
 21
-6.0439468915119452
 31
0.0
  0
LINE
  5
2EEE
  8
0
 62
     0
 10
29.028449526919399
 20
-7.8088589538883184
 30
0.0
 11
29.759181900503808
 21
-7.0781265803039162
 31
0.0
  0
LINE
  5
2EEF
  8
0
 62
     0
 10
32.167714218237208
 20
-4.669594262570512
 30
0.0
 11
32.703118564709243
 21
-4.1341899160984781
 31
0.0
  0
LINE
  5
2EF0
  8
0
 62
     0
 10
27.767435779296349
 20
-9.0698727015113736
 30
0.0
 11
28.170472292375919
 21
-8.6668361884318017
 31
0.0
  0
LINE
  5
2EF1
  8
0
 62
     0
 10
28.932758753494362
 20
-7.462607989071782
 30
0.0
 11
30.351419851054189
 21
-6.0439468915119452
 31
0.0
  0
LINE
  5
2EF2
  8
0
 62
     0
 10
31.901872129875599
 20
-4.4934946126905402
 30
0.0
 11
32.435986778900357
 21
-3.959379963665778
 31
0.0
  0
LINE
  5
2EF3
  8
0
 62
     0
 10
27.32225307166782
 20
-9.0731136708983229
 30
0.0
 11
28.120529446032151
 21
-8.274837296533974
 31
0.0
  0
LINE
  5
2EF4
  8
0
 62
     0
 10
28.873585519336221
 20
-7.0798394849883231
 30
0.0
 11
29.90947811281259
 21
-6.0439468915119452
 31
0.0
  0
LINE
  5
2EF5
  8
0
 62
     0
 10
31.571622117833531
 20
-4.3818028864910161
 30
0.0
 11
32.128973182715782
 21
-3.8244518216087591
 31
0.0
  0
LINE
  5
2EF6
  8
0
 62
     0
 10
26.969654648700271
 20
-8.9837703556242428
 30
0.0
 11
27.643518775142329
 21
-8.3099062291822197
 31
0.0
  0
LINE
  5
2EF7
  8
0
 62
     0
 10
28.860796282772899
 20
-6.6506869833100382
 30
0.0
 11
29.82980254902683
 21
-5.681680717056107
 31
0.0
  0
LINE
  5
2EF8
  8
0
 62
     0
 10
31.143694619986451
 20
-4.3677886460964723
 30
0.0
 11
31.78308029438119
 21
-3.7284029717017391
 31
0.0
  0
LINE
  5
2EF9
  8
0
 62
     0
 10
26.71774986157061
 20
-8.7937334045123237
 30
0.0
 11
27.368130293574811
 21
-8.1433529725081222
 31
0.0
  0
LINE
  5
2EFA
  8
0
 62
     0
 10
28.862925656763011
 20
-6.2066158710783554
 30
0.0
 11
30.132690465527769
 21
-4.9368510623135924
 31
0.0
  0
LINE
  5
2EFB
  8
0
 62
     0
 10
30.559943502874731
 20
-4.5095980249666354
 30
0.0
 11
31.389068398079718
 21
-3.6804731297616482
 31
0.0
  0
LINE
  5
2EFC
  8
0
 62
     0
 10
26.55107945374645
 20
-8.5184620740948809
 30
0.0
 11
27.347922528822401
 21
-7.7216189990189399
 31
0.0
  0
LINE
  5
2EFD
  8
0
 62
     0
 10
28.927141662577331
 20
-5.7004581270224381
 30
0.0
 11
30.92655254823967
 21
-3.7010472413600941
 31
0.0
  0
LINE
  5
2EFE
  8
0
 62
     0
 10
26.510417709878269
 20
-8.1171820797215162
 30
0.0
 11
27.347922528822441
 21
-7.2796772607773299
 31
0.0
  0
LINE
  5
2EFF
  8
0
 62
     0
 10
29.155372028390449
 20
-5.0302860229677151
 30
0.0
 11
30.312609451337451
 21
-3.8730486000207232
 31
0.0
  0
LINE
  5
2F00
  8
0
 62
     0
 10
26.510417709878229
 20
-7.6752403414799319
 30
0.0
 11
27.347922528822409
 21
-6.837735522535751
 31
0.0
  0
LINE
  5
2F01
  8
0
 62
     0
 10
26.51041770987824
 20
-7.2332986032383531
 30
0.0
 11
27.347922528822409
 21
-6.395793784294165
 31
0.0
  0
LINE
  5
2F02
  8
0
 62
     0
 10
26.510417709878269
 20
-6.7913568649967431
 30
0.0
 11
27.347922528822441
 21
-5.9538520460525604
 31
0.0
  0
LINE
  5
2F03
  8
0
 62
     0
 10
26.510417709878229
 20
-6.3494151267551571
 30
0.0
 11
27.347922528822409
 21
-5.5119103078109761
 31
0.0
  0
LINE
  5
2F04
  8
0
 62
     0
 10
28.039972469987699
 20
-4.377918628404128
 30
0.0
 11
28.178722490313021
 21
-4.239168608078784
 31
0.0
  0
LINE
  5
2F05
  8
0
 62
     0
 10
26.510417709878269
 20
-5.9074733885135791
 30
0.0
 11
27.347922528822441
 21
-5.0699685695693972
 31
0.0
  0
LINE
  5
2F06
  8
0
 62
     0
 10
27.598030731746089
 20
-4.377918628404128
 30
0.0
 11
28.178722490313021
 21
-3.797226869837202
 31
0.0
  0
LINE
  5
2F07
  8
0
 62
     0
 10
26.510417709878269
 20
-5.4655316502719691
 30
0.0
 11
27.347922528822409
 21
-4.628026831327813
 31
0.0
  0
LINE
  5
2F08
  8
0
 62
     0
 10
26.510417709878229
 20
-5.0235899120303884
 30
0.0
 11
27.94034089846178
 21
-3.593666723446828
 31
0.0
  0
LINE
  5
2F09
  8
0
 62
     0
 10
26.510417709878229
 20
-4.581648173788806
 30
0.0
 11
27.498399160220171
 21
-3.593666723446856
 31
0.0
  0
LINE
  5
2F0A
  8
0
 62
     0
 10
26.290179264836748
 20
-4.3599448805886993
 30
0.0
 11
27.36200318667608
 21
-3.2881209587493441
 31
0.0
  0
LINE
  5
2F0B
  8
0
 62
     0
 10
25.84823752659517
 20
-4.35994488058867
 30
0.0
 11
27.36200318667608
 21
-2.8461792205077621
 31
0.0
  0
LINE
  5
2F0C
  8
0
 62
     0
 10
26.510417709878229
 20
-3.2558229590640031
 30
0.0
 11
27.36200318667608
 21
-2.404237482266153
 31
0.0
  0
LINE
  5
2F0D
  8
0
 62
     0
 10
25.782657211347189
 20
-3.9835834575950431
 30
0.0
 11
26.172573945495401
 21
-3.593666723446828
 31
0.0
  0
LINE
  5
2F0E
  8
0
 62
     0
 10
26.510417709878229
 20
-2.8138812208224522
 30
0.0
 11
27.145299375693192
 21
-2.178999555007465
 31
0.0
  0
LINE
  5
2F0F
  8
0
 62
     0
 10
26.510417709878269
 20
-2.3719394825808111
 30
0.0
 11
26.70335763745161
 21
-2.178999555007465
 31
0.0
  0
ENDBLK
  5
2F11
  8
0
  0
BLOCK
  8
0
  2
*X5
 70
     1
 10
0.0
 20
0.0
 30
0.0
  3
*X5
  1

  0
LINE
  5
2F13
  8
0
 62
     0
 10
61.341806338042851
 20
-9.0830742491259002
 30
0.0
 11
61.414263195097917
 21
-9.010617392070829
 31
0.0
  0
LINE
  5
2F14
  8
0
 62
     0
 10
60.899864599801241
 20
-9.0830742491259002
 30
0.0
 11
61.20207824713075
 21
-8.7808606017964053
 31
0.0
  0
LINE
  5
2F15
  8
0
 62
     0
 10
61.20404405075962
 20
-8.3369530599259161
 30
0.0
 11
61.414263195097902
 21
-8.1267339155876357
 31
0.0
  0
LINE
  5
2F16
  8
0
 62
     0
 10
60.457922861559638
 20
-9.0830742491259002
 30
0.0
 11
60.760136508889133
 21
-8.7808606017964053
 31
0.0
  0
LINE
  5
2F17
  8
0
 62
     0
 10
60.762102312518032
 20
-8.3369530599259161
 30
0.0
 11
61.064315959847512
 21
-8.0347394125964247
 31
0.0
  0
LINE
  5
2F18
  8
0
 62
     0
 10
60.015981123318042
 20
-9.0830742491258718
 30
0.0
 11
60.318194770647537
 21
-8.7808606017964053
 31
0.0
  0
LINE
  5
2F19
  8
0
 62
     0
 10
60.320160574276457
 20
-8.3369530599259161
 30
0.0
 11
60.622374221605952
 21
-8.0347394125964247
 31
0.0
  0
LINE
  5
2F1A
  8
0
 62
     0
 10
59.57403938507646
 20
-9.0830742491259002
 30
0.0
 11
59.87625303240597
 21
-8.7808606017964053
 31
0.0
  0
LINE
  5
2F1B
  8
0
 62
     0
 10
59.878218836034833
 20
-8.3369530599259161
 30
0.0
 11
60.180432483364307
 21
-8.0347394125964513
 31
0.0
  0
LINE
  5
2F1C
  8
0
 62
     0
 10
59.132097646834858
 20
-9.0830742491259002
 30
0.0
 11
59.434311294164317
 21
-8.7808606017964337
 31
0.0
  0
LINE
  5
2F1D
  8
0
 62
     0
 10
59.436277097793237
 20
-8.3369530599259161
 30
0.0
 11
59.738490745122739
 21
-8.0347394125964247
 31
0.0
  0
LINE
  5
2F1E
  8
0
 62
     0
 10
58.690155908593262
 20
-9.0830742491259002
 30
0.0
 11
58.99236955592275
 21
-8.7808606017964053
 31
0.0
  0
LINE
  5
2F1F
  8
0
 62
     0
 10
58.994335359551677
 20
-8.3369530599259161
 30
0.0
 11
59.29654900688115
 21
-8.0347394125964247
 31
0.0
  0
LINE
  5
2F20
  8
0
 62
     0
 10
58.248214170351702
 20
-9.0830742491259002
 30
0.0
 11
58.550427817681189
 21
-8.7808606017964053
 31
0.0
  0
LINE
  5
2F21
  8
0
 62
     0
 10
58.552393621310067
 20
-8.3369530599259161
 30
0.0
 11
58.854607268639541
 21
-8.0347394125964513
 31
0.0
  0
LINE
  5
2F22
  8
0
 62
     0
 10
57.806272432110092
 20
-9.0830742491259002
 30
0.0
 11
58.108486079439558
 21
-8.7808606017964337
 31
0.0
  0
LINE
  5
2F23
  8
0
 62
     0
 10
58.11045188306845
 20
-8.3369530599259161
 30
0.0
 11
58.412665530397959
 21
-8.0347394125964247
 31
0.0
  0
LINE
  5
2F24
  8
0
 62
     0
 10
58.698866529245748
 20
-7.7485384137486299
 30
0.0
 11
58.832556520473929
 21
-7.61484842252045
 31
0.0
  0
LINE
  5
2F25
  8
0
 62
     0
 10
57.364330693868482
 20
-9.0830742491259002
 30
0.0
 11
57.666544341197962
 21
-8.7808606017964053
 31
0.0
  0
LINE
  5
2F26
  8
0
 62
     0
 10
59.003045980204263
 20
-7.0024172245485641
 30
0.0
 11
59.304868501019222
 21
-6.7005947037335991
 31
0.0
  0
LINE
  5
2F27
  8
0
 62
     0
 10
59.749167169404302
 20
-6.2562960353485231
 30
0.0
 11
60.050989690219211
 21
-5.9544735145336141
 31
0.0
  0
LINE
  5
2F28
  8
0
 62
     0
 10
58.256924791004209
 20
-7.7485384137486051
 30
0.0
 11
58.558747311819189
 21
-7.4467158929336383
 31
0.0
  0
LINE
  5
2F29
  8
0
 62
     0
 10
60.495288358604277
 20
-5.5101748461485442
 30
0.0
 11
60.797110879419201
 21
-5.2083523253336352
 31
0.0
  0
LINE
  5
2F2A
  8
0
 62
     0
 10
57.668510144826911
 20
-8.3369530599259161
 30
0.0
 11
57.970723792156377
 21
-8.0347394125964513
 31
0.0
  0
LINE
  5
2F2B
  8
0
 62
     0
 10
61.274189059054002
 20
-4.7312741456988192
 30
0.0
 11
61.300935559287872
 21
-4.704527645464962
 31
0.0
  0
LINE
  5
2F2C
  8
0
 62
     0
 10
57.135581156890318
 20
-8.8698820478625144
 30
0.0
 11
57.224602602956402
 21
-8.7808606017964053
 31
0.0
  0
LINE
  5
2F2D
  8
0
 62
     0
 10
59.307225431162692
 20
-6.2562960353485231
 30
0.0
 11
59.609047951977622
 21
-5.9544735145335892
 31
0.0
  0
LINE
  5
2F2E
  8
0
 62
     0
 10
58.561104241962681
 20
-7.0024172245485374
 30
0.0
 11
58.862926762777597
 21
-6.7005947037336284
 31
0.0
  0
LINE
  5
2F2F
  8
0
 62
     0
 10
60.053346620362703
 20
-5.5101748461485132
 30
0.0
 11
60.355169141177598
 21
-5.208352325333605
 31
0.0
  0
LINE
  5
2F30
  8
0
 62
     0
 10
57.81498305276267
 20
-7.7485384137485473
 30
0.0
 11
58.116805573577601
 21
-7.4467158929336099
 31
0.0
  0
LINE
  5
2F31
  8
0
 62
     0
 10
60.832247320812371
 20
-4.7312741456988467
 30
0.0
 11
61.134460968141859
 21
-4.42906049836935
 31
0.0
  0
LINE
  5
2F32
  8
0
 62
     0
 10
57.226568406585301
 20
-8.3369530599259161
 30
0.0
 11
57.528782053914782
 21
-8.0347394125964247
 31
0.0
  0
LINE
  5
2F33
  8
0
 62
     0
 10
59.611404882121093
 20
-5.5101748461485132
 30
0.0
 11
59.913227402936002
 21
-5.208352325333605
 31
0.0
  0
LINE
  5
2F34
  8
0
 62
     0
 10
60.39030558257079
 20
-4.7312741456988192
 30
0.0
 11
60.692519229900263
 21
-4.42906049836935
 31
0.0
  0
LINE
  5
2F35
  8
0
 62
     0
 10
58.865283692921039
 20
-6.2562960353485551
 30
0.0
 11
59.167106213736048
 21
-5.9544735145335581
 31
0.0
  0
LINE
  5
2F36
  8
0
 62
     0
 10
61.136426771770722
 20
-3.985152956498891
 30
0.0
 11
61.300935559287872
 21
-3.820644168981743
 31
0.0
  0
LINE
  5
2F37
  8
0
 62
     0
 10
58.245286195137538
 20
-6.876293533132066
 30
0.0
 11
58.42098502453598
 21
-6.7005947037336284
 31
0.0
  0
LINE
  5
2F38
  8
0
 62
     0
 10
60.694485033529119
 20
-3.9851529564989181
 30
0.0
 11
60.996698680858671
 21
-3.6829393091693681
 31
0.0
  0
LINE
  5
2F39
  8
0
 62
     0
 10
59.948363844329151
 20
-4.7312741456988761
 30
0.0
 11
60.250577491658689
 21
-4.42906049836935
 31
0.0
  0
LINE
  5
2F3A
  8
0
 62
     0
 10
60.252543295287538
 20
-3.985152956498891
 30
0.0
 11
60.554756942617082
 21
-3.6829393091693681
 31
0.0
  0
LINE
  5
2F3B
  8
0
 62
     0
 10
59.506422106087591
 20
-4.7312741456988467
 30
0.0
 11
59.808635753417093
 21
-4.42906049836935
 31
0.0
  0
LINE
  5
2F3C
  8
0
 62
     0
 10
59.810601557045928
 20
-3.985152956498891
 30
0.0
 11
60.112815204375451
 21
-3.6829393091693681
 31
0.0
  0
LINE
  5
2F3D
  8
0
 62
     0
 10
59.064480367845988
 20
-4.7312741456988467
 30
0.0
 11
59.366694015175483
 21
-4.42906049836935
 31
0.0
  0
LINE
  5
2F3E
  8
0
 62
     0
 10
59.368659818804332
 20
-3.9851529564989181
 30
0.0
 11
59.670873466133891
 21
-3.6829393091693681
 31
0.0
  0
LINE
  5
2F3F
  8
0
 62
     0
 10
58.622538629604392
 20
-4.7312741456988761
 30
0.0
 11
58.924752276933923
 21
-4.42906049836935
 31
0.0
  0
LINE
  5
2F40
  8
0
 62
     0
 10
58.926718080562772
 20
-3.985152956498891
 30
0.0
 11
59.228931727892302
 21
-3.6829393091693681
 31
0.0
  0
LINE
  5
2F41
  8
0
 62
     0
 10
58.180596891362804
 20
-4.7312741456988761
 30
0.0
 11
58.48281053869232
 21
-4.42906049836935
 31
0.0
  0
LINE
  5
2F42
  8
0
 62
     0
 10
58.484776342321183
 20
-3.985152956498891
 30
0.0
 11
58.786989989650671
 21
-3.6829393091693681
 31
0.0
  0
LINE
  5
2F43
  8
0
 62
     0
 10
57.738655153121186
 20
-4.7312741456988761
 30
0.0
 11
58.04086880045071
 21
-4.42906049836935
 31
0.0
  0
LINE
  5
2F44
  8
0
 62
     0
 10
58.042834604079573
 20
-3.9851529564989181
 30
0.0
 11
58.345048251409111
 21
-3.682939309169396
 31
0.0
  0
LINE
  5
2F45
  8
0
 62
     0
 10
57.35885428169702
 20
-4.669133278881473
 30
0.0
 11
57.598927062209128
 21
-4.42906049836935
 31
0.0
  0
LINE
  5
2F46
  8
0
 62
     0
 10
57.600892865837999
 20
-3.985152956498891
 30
0.0
 11
57.90310651316755
 21
-3.6829393091693681
 31
0.0
  0
LINE
  5
2F47
  8
0
 62
     0
 10
57.358854281697027
 20
-3.785249802398253
 30
0.0
 11
57.461164774925912
 21
-3.6829393091693681
 31
0.0
  0
ENDBLK
  5
2F49
  8
0
  0
BLOCK
  8
0
  2
*X6
 70
     1
 10
0.0
 20
0.0
 30
0.0
  3
*X6
  1

  0
LINE
  5
2F4B
  8
0
 62
     0
 10
66.577489917953145
 20
-4.7312741456987562
 30
0.0
 11
66.594889737468208
 21
-4.7138743261837091
 31
0.0
  0
LINE
  5
2F4C
  8
0
 62
     0
 10
66.135548179711492
 20
-4.7312741456988467
 30
0.0
 11
66.430590859725044
 21
-4.436231465685295
 31
0.0
  0
LINE
  5
2F4D
  8
0
 62
     0
 10
65.693606441469854
 20
-4.7312741456988761
 30
0.0
 11
65.995820088799363
 21
-4.4290604983693811
 31
0.0
  0
LINE
  5
2F4E
  8
0
 62
     0
 10
65.984239120634896
 20
-3.9986997282922512
 30
0.0
 11
65.989607717258039
 21
-3.9933311316690911
 31
0.0
  0
LINE
  5
2F4F
  8
0
 62
     0
 10
65.34146465563397
 20
-4.64147419329319
 30
0.0
 11
65.553878350557795
 21
-4.42906049836935
 31
0.0
  0
LINE
  5
2F50
  8
0
 62
     0
 10
65.542297382393286
 20
-3.9986997282922512
 30
0.0
 11
65.717980442821386
 21
-3.8230166678641502
 31
0.0
  0
LINE
  5
2F51
  8
0
 62
     0
 10
65.042703999714206
 20
-4.4982931109713311
 30
0.0
 11
65.111936612316185
 21
-4.42906049836935
 31
0.0
  0
LINE
  5
2F52
  8
0
 62
     0
 10
64.672945299660171
 20
-4.4261100727837572
 30
0.0
 11
65.407979599749424
 21
-3.691075772694516
 31
0.0
  0
LINE
  5
2F53
  8
0
 62
     0
 10
64.658413905910123
 20
-3.9986997282922512
 30
0.0
 11
65.050980896717761
 21
-3.606132737484613
 31
0.0
  0
LINE
  5
2F54
  8
0
 62
     0
 10
64.190609107613653
 20
-4.4665045265887171
 30
0.0
 11
64.228053135833022
 21
-4.42906049836935
 31
0.0
  0
LINE
  5
2F55
  8
0
 62
     0
 10
64.216472167668485
 20
-3.9986997282922512
 30
0.0
 11
64.62763889960263
 21
-3.5875329963581351
 31
0.0
  0
LINE
  5
2F56
  8
0
 62
     0
 10
63.483897750261889
 20
-4.7312741456988761
 30
0.0
 11
63.786111397591412
 21
-4.42906049836935
 31
0.0
  0
LINE
  5
2F57
  8
0
 62
     0
 10
63.774530429426918
 20
-3.9986997282922512
 30
0.0
 11
64.179760173298192
 21
-3.593469984420977
 31
0.0
  0
LINE
  5
2F58
  8
0
 62
     0
 10
63.041956012020293
 20
-4.7312741456988761
 30
0.0
 11
63.344169659349809
 21
-4.42906049836935
 31
0.0
  0
LINE
  5
2F59
  8
0
 62
     0
 10
63.33258869118535
 20
-3.9986997282922512
 30
0.0
 11
63.59481183601406
 21
-3.7364765834635421
 31
0.0
  0
LINE
  5
2F5A
  8
0
 62
     0
 10
62.600014273778719
 20
-4.7312741456988761
 30
0.0
 11
62.902227921108242
 21
-4.42906049836935
 31
0.0
  0
ENDBLK
  5
2F5C
  8
0
  0
BLOCK
  8
0
  2
*X7
 70
     1
 10
0.0
 20
0.0
 30
0.0
  3
*X7
  1

  0
LINE
  5
2F5E
  8
0
 62
     0
 10
66.065403171417216
 20
-8.3369530599258592
 30
0.0
 11
66.36761681874664
 21
-8.0347394125964247
 31
0.0
  0
LINE
  5
2F5F
  8
0
 62
     0
 10
66.653817817594174
 20
-7.7485384137488591
 30
0.0
 11
66.788919022319234
 21
-7.613437209023826
 31
0.0
  0
LINE
  5
2F60
  8
0
 62
     0
 10
65.268629786980028
 20
-9.1337264443630488
 30
0.0
 11
65.621495629546573
 21
-8.7808606017964888
 31
0.0
  0
LINE
  5
2F61
  8
0
 62
     0
 10
65.623461433175578
 20
-8.3369530599258894
 30
0.0
 11
65.925675080505073
 21
-8.0347394125963945
 31
0.0
  0
LINE
  5
2F62
  8
0
 62
     0
 10
66.211876079352578
 20
-7.7485384137488893
 30
0.0
 11
66.513698600167544
 21
-7.4467158929339234
 31
0.0
  0
LINE
  5
2F63
  8
0
 62
     0
 10
64.76079984976792
 20
-9.1996146433335433
 30
0.0
 11
65.179553891305034
 21
-8.7808606017964337
 31
0.0
  0
LINE
  5
2F64
  8
0
 62
     0
 10
65.76993434111094
 20
-7.7485384137489453
 30
0.0
 11
66.071756861925962
 21
-7.4467158929339234
 31
0.0
  0
LINE
  5
2F65
  8
0
 62
     0
 10
65.181519694933939
 20
-8.3369530599259463
 30
0.0
 11
65.462334936680861
 21
-8.0561378181790246
 31
0.0
  0
LINE
  5
2F66
  8
0
 62
     0
 10
66.516055530311291
 20
-7.0024172245485641
 30
0.0
 11
66.817878051126513
 21
-6.7005947037333691
 31
0.0
  0
LINE
  5
2F67
  8
0
 62
     0
 10
64.3196314930386
 20
-9.1988412618212578
 30
0.0
 11
64.737612153063452
 21
-8.7808606017964337
 31
0.0
  0
LINE
  5
2F68
  8
0
 62
     0
 10
66.074113792069738
 20
-7.0024172245485641
 30
0.0
 11
66.375936312884932
 21
-6.7005947037333691
 31
0.0
  0
LINE
  5
2F69
  8
0
 62
     0
 10
66.820234981270062
 20
-6.2562960353482371
 30
0.0
 11
66.947694278657991
 21
-6.1288367379603121
 31
0.0
  0
LINE
  5
2F6A
  8
0
 62
     0
 10
63.926299353968403
 20
-9.1502316626498992
 30
0.0
 11
64.295670414821856
 21
-8.7808606017964053
 31
0.0
  0
LINE
  5
2F6B
  8
0
 62
     0
 10
66.378293243028423
 20
-6.2562960353482691
 30
0.0
 11
66.680115763843133
 21
-5.9544735145335581
 31
0.0
  0
LINE
  5
2F6C
  8
0
 62
     0
 10
63.58951414169649
 20
-9.0450751366801914
 30
0.0
 11
63.853728676580289
 21
-8.7808606017963768
 31
0.0
  0
LINE
  5
2F6D
  8
0
 62
     0
 10
66.083737609137586
 20
-6.108909930997525
 30
0.0
 11
66.238174025601523
 21
-5.9544735145335892
 31
0.0
  0
LINE
  5
2F6E
  8
0
 62
     0
 10
63.855694480209159
 20
-8.3369530599259463
 30
0.0
 11
63.957133347017347
 21
-8.2355141931177496
 31
0.0
  0
LINE
  5
2F6F
  8
0
 62
     0
 10
66.682472693986568
 20
-5.5101748461485442
 30
0.0
 11
66.842798612108027
 21
-5.349848928027086
 31
0.0
  0
LINE
  5
2F70
  8
0
 62
     0
 10
63.29550554007406
 20
-8.8971420000610522
 30
0.0
 11
63.411786938338743
 21
-8.7808606017963768
 31
0.0
  0
LINE
  5
2F71
  8
0
 62
     0
 10
66.24053095574493
 20
-5.51017484614857
 30
0.0
 11
66.542353476559938
 21
-5.208352325333574
 31
0.0
  0
LINE
  5
2F72
  8
0
 62
     0
 10
63.413752741967599
 20
-8.3369530599259161
 30
0.0
 11
63.680997015119559
 21
-8.0697087867739583
 31
0.0
  0
LINE
  5
2F73
  8
0
 62
     0
 10
65.92679769355874
 20
-5.3819663700931812
 30
0.0
 11
66.100411738318343
 21
-5.208352325333574
 31
0.0
  0
LINE
  5
2F74
  8
0
 62
     0
 10
62.97181100372601
 20
-8.3369530599259161
 30
0.0
 11
63.274024651055491
 21
-8.0347394125964247
 31
0.0
  0
LINE
  5
2F75
  8
0
 62
     0
 10
63.118283911661528
 20
-7.7485384137488031
 30
0.0
 11
63.282328622163533
 21
-7.5844937032467774
 31
0.0
  0
LINE
  5
2F76
  8
0
 62
     0
 10
62.627017675826806
 20
-8.2398046495835047
 30
0.0
 11
62.832082912813917
 21
-8.0347394125964247
 31
0.0
  0
LINE
  5
2F77
  8
0
 62
     0
 10
62.676342173419989
 20
-7.7485384137487472
 30
0.0
 11
62.978164694234962
 21
-7.4467158929337769
 31
0.0
  0
LINE
  5
2F78
  8
0
 62
     0
 10
62.980521624378603
 20
-7.0024172245485374
 30
0.0
 11
63.06603225251439
 21
-6.9169065964127583
 31
0.0
  0
LINE
  5
2F79
  8
0
 62
     0
 10
62.345267090415597
 20
-7.6376717585115443
 30
0.0
 11
62.536222955993424
 21
-7.4467158929337209
 31
0.0
  0
LINE
  5
2F7A
  8
0
 62
     0
 10
62.538579886137001
 20
-7.0024172245485374
 30
0.0
 11
62.840402406952101
 21
-6.700594703733425
 31
0.0
  0
LINE
  5
2F7B
  8
0
 62
     0
 10
62.842759337095551
 20
-6.2562960353483561
 30
0.0
 11
63.045296238994801
 21
-6.0537591334491481
 31
0.0
  0
LINE
  5
2F7C
  8
0
 62
     0
 10
62.190386307560303
 20
-6.9086690648836386
 30
0.0
 11
62.398460668710499
 21
-6.700594703733425
 31
0.0
  0
LINE
  5
2F7D
  8
0
 62
     0
 10
63.146938788053767
 20
-5.5101748461486011
 30
0.0
 11
63.15476760980178
 21
-5.5023460244005911
 31
0.0
  0
LINE
  5
2F7E
  8
0
 62
     0
 10
62.400817598853941
 20
-6.2562960353484414
 30
0.0
 11
62.702640119668793
 21
-5.9544735145335581
 31
0.0
  0
LINE
  5
2F7F
  8
0
 62
     0
 10
62.704997049812221
 20
-5.5101748461485442
 30
0.0
 11
63.006819570627158
 21
-5.208352325333605
 31
0.0
  0
LINE
  5
2F80
  8
0
 62
     0
 10
62.18034256989219
 20
-6.034829326068575
 30
0.0
 11
62.260698381427197
 21
-5.9544735145335581
 31
0.0
  0
LINE
  5
2F81
  8
0
 62
     0
 10
62.263055311570639
 20
-5.5101748461485132
 30
0.0
 11
62.564877832385562
 21
-5.208352325333605
 31
0.0
  0
ENDBLK
  5
2F83
  8
0
  0
BLOCK
  8
0
  2
*X8
 70
     1
 10
0.0
 20
0.0
 30
0.0
  3
*X8
  1

  0
LINE
  5
2F85
  8
0
 62
     0
 10
71.948408055841014
 20
-9.0830742491259286
 30
0.0
 11
72.250621703170523
 21
-8.7808606017964337
 31
0.0
  0
LINE
  5
2F86
  8
0
 62
     0
 10
72.252587506799472
 20
-8.3369530599258592
 30
0.0
 11
72.255442502895846
 21
-8.3340980638294866
 31
0.0
  0
LINE
  5
2F87
  8
0
 62
     0
 10
71.506466317599376
 20
-9.0830742491259553
 30
0.0
 11
71.808679964928899
 21
-8.7808606017964053
 31
0.0
  0
LINE
  5
2F88
  8
0
 62
     0
 10
71.810645768557862
 20
-8.3369530599259161
 30
0.0
 11
72.112859415887272
 21
-8.0347394125965081
 31
0.0
  0
LINE
  5
2F89
  8
0
 62
     0
 10
71.957118676493295
 20
-7.7485384137488271
 30
0.0
 11
72.255442502895846
 21
-7.4502145873463181
 31
0.0
  0
LINE
  5
2F8A
  8
0
 62
     0
 10
71.414374842161607
 20
-8.291282248080563
 30
0.0
 11
71.67091767764569
 21
-8.0347394125964762
 31
0.0
  0
LINE
  5
2F8B
  8
0
 62
     0
 10
71.515176938251784
 20
-7.7485384137487738
 30
0.0
 11
71.81699945906675
 21
-7.4467158929338089
 31
0.0
  0
LINE
  5
2F8C
  8
0
 62
     0
 10
71.819356389210427
 20
-7.0024172245485641
 30
0.0
 11
72.121178910025478
 21
-6.7005947037335121
 31
0.0
  0
LINE
  5
2F8D
  8
0
 62
     0
 10
72.123535840169026
 20
-6.2562960353483827
 30
0.0
 11
72.255442502895846
 21
-6.1243893726215504
 31
0.0
  0
LINE
  5
2F8E
  8
0
 62
     0
 10
71.414374842161678
 20
-6.9654570333557011
 30
0.0
 11
71.679237171783882
 21
-6.7005947037335121
 31
0.0
  0
LINE
  5
2F8F
  8
0
 62
     0
 10
71.681594101927303
 20
-6.256296035348468
 30
0.0
 11
71.983416622742141
 21
-5.954473514533646
 31
0.0
  0
LINE
  5
2F90
  8
0
 62
     0
 10
68.854815888149815
 20
-9.0830742491259553
 30
0.0
 11
68.889787767421183
 21
-9.0481023698546021
 31
0.0
  0
LINE
  5
2F91
  8
0
 62
     0
 10
71.414374842161592
 20
-6.081573556872625
 30
0.0
 11
71.541474884500545
 21
-5.95447351453367
 31
0.0
  0
LINE
  5
2F92
  8
0
 62
     0
 10
71.985773552885689
 20
-5.5101748461485442
 30
0.0
 11
72.255442502895889
 21
-5.2405058961383251
 31
0.0
  0
LINE
  5
2F93
  8
0
 62
     0
 10
68.412874149908234
 20
-9.0830742491259837
 30
0.0
 11
68.715087797237771
 21
-8.7808606017964337
 31
0.0
  0
LINE
  5
2F94
  8
0
 62
     0
 10
68.717053600866763
 20
-8.3369530599258592
 30
0.0
 11
68.889787767421183
 21
-8.1642188933714408
 31
0.0
  0
LINE
  5
2F95
  8
0
 62
     0
 10
71.543831814644093
 20
-5.5101748461485132
 30
0.0
 11
71.845654335459088
 21
-5.2083523253335171
 31
0.0
  0
LINE
  5
2F96
  8
0
 62
     0
 10
68.095877545256599
 20
-8.9581291155360248
 30
0.0
 11
68.273146058996218
 21
-8.7808606017964053
 31
0.0
  0
LINE
  5
2F97
  8
0
 62
     0
 10
68.863526508802437
 20
-7.7485384137485749
 30
0.0
 11
68.889787767421183
 21
-7.7222771551298299
 31
0.0
  0
LINE
  5
2F98
  8
0
 62
     0
 10
71.880790776852194
 20
-4.7312741456988192
 30
0.0
 11
72.122919379771844
 21
-4.4891455427791671
 31
0.0
  0
LINE
  5
2F99
  8
0
 62
     0
 10
68.27511186262511
 20
-8.3369530599259161
 30
0.0
 11
68.577325509954562
 21
-8.0347394125964513
 31
0.0
  0
LINE
  5
2F9A
  8
0
 62
     0
 10
68.421584770560898
 20
-7.7485384137485473
 30
0.0
 11
68.723407291375921
 21
-7.446715892933522
 31
0.0
  0
LINE
  5
2F9B
  8
0
 62
     0
 10
71.438849038610599
 20
-4.7312741456988192
 30
0.0
 11
71.741062685940065
 21
-4.4290604983693811
 31
0.0
  0
LINE
  5
2F9C
  8
0
 62
     0
 10
68.095877545256599
 20
-8.0742456390528332
 30
0.0
 11
68.135383771712995
 21
-8.0347394125964513
 31
0.0
  0
LINE
  5
2F9D
  8
0
 62
     0
 10
68.725764221519356
 20
-7.002417224548477
 30
0.0
 11
68.889787767421211
 21
-6.8383936786466393
 31
0.0
  0
LINE
  5
2F9E
  8
0
 62
     0
 10
71.056814485997975
 20
-4.6713669600698591
 30
0.0
 11
71.299120947698484
 21
-4.42906049836935
 31
0.0
  0
LINE
  5
2F9F
  8
0
 62
     0
 10
68.095877545256599
 20
-7.6323039008112499
 30
0.0
 11
68.281465553134325
 21
-7.446715892933522
 31
0.0
  0
LINE
  5
2FA0
  8
0
 62
     0
 10
70.778694889156355
 20
-4.5075448186698841
 30
0.0
 11
70.857179209456888
 21
-4.42906049836935
 31
0.0
  0
LINE
  5
2FA1
  8
0
 62
     0
 10
71.301086751327347
 20
-3.985152956498891
 30
0.0
 11
71.42742558627107
 21
-3.8588141215551821
 31
0.0
  0
LINE
  5
2FA2
  8
0
 62
     0
 10
68.28382248327776
 20
-7.002417224548477
 30
0.0
 11
68.585645004092612
 21
-6.7005947037336284
 31
0.0
  0
LINE
  5
2FA3
  8
0
 62
     0
 10
70.395649174857709
 20
-4.4486487947269771
 30
0.0
 11
70.415237471215292
 21
-4.4290604983693811
 31
0.0
  0
LINE
  5
2FA4
  8
0
 62
     0
 10
68.588001934236004
 20
-6.256296035348667
 30
0.0
 11
68.88978776742114
 21
-5.9545102021635321
 31
0.0
  0
LINE
  5
2FA5
  8
0
 62
     0
 10
70.859145013085751
 20
-3.9851529564989181
 30
0.0
 11
71.095446773587554
 21
-3.7488511959971031
 31
0.0
  0
LINE
  5
2FA6
  8
0
 62
     0
 10
68.095877545256599
 20
-6.7484204243280281
 30
0.0
 11
68.143703265851016
 21
-6.700594703733656
 31
0.0
  0
LINE
  5
2FA7
  8
0
 62
     0
 10
69.876192148824543
 20
-4.526164082518533
 30
0.0
 11
69.973295732973725
 21
-4.42906049836935
 31
0.0
  0
LINE
  5
2FA8
  8
0
 62
     0
 10
68.892181385194533
 20
-5.5101748461485442
 30
0.0
 11
68.995053036340565
 21
-5.407303195002493
 31
0.0
  0
LINE
  5
2FA9
  8
0
 62
     0
 10
70.417203274844184
 20
-3.985152956498891
 30
0.0
 11
70.708240412790133
 21
-3.6941158185529441
 31
0.0
  0
LINE
  5
2FAA
  8
0
 62
     0
 10
68.146060195994352
 20
-6.256296035348722
 30
0.0
 11
68.447882716809602
 21
-5.9544735145334711
 31
0.0
  0
LINE
  5
2FAB
  8
0
 62
     0
 10
69.229140347402719
 20
-4.7312741456987562
 30
0.0
 11
69.531353994732115
 21
-4.42906049836935
 31
0.0
  0
LINE
  5
2FAC
  8
0
 62
     0
 10
69.975261536602574
 20
-3.985152956498891
 30
0.0
 11
70.266402795699577
 21
-3.694011697401888
 31
0.0
  0
LINE
  5
2FAD
  8
0
 62
     0
 10
68.450239646952951
 20
-5.5101748461485132
 30
0.0
 11
68.752062167767974
 21
-5.2083523253334931
 31
0.0
  0
LINE
  5
2FAE
  8
0
 62
     0
 10
68.787198609161067
 20
-4.7312741456988192
 30
0.0
 11
69.089412256490505
 21
-4.4290604983693811
 31
0.0
  0
LINE
  5
2FAF
  8
0
 62
     0
 10
69.533319798360964
 20
-3.9851529564989181
 30
0.0
 11
69.692398714730047
 21
-3.8260740401298392
 31
0.0
  0
LINE
  5
2FB0
  8
0
 62
     0
 10
68.095877545256599
 20
-5.422595209603287
 30
0.0
 11
68.310120429526364
 21
-5.2083523253335171
 31
0.0
  0
LINE
  5
2FB1
  8
0
 62
     0
 10
68.345256870919499
 20
-4.7312741456988192
 30
0.0
 11
68.647470518248952
 21
-4.42906049836935
 31
0.0
  0
LINE
  5
2FB2
  8
0
 62
     0
 10
68.649436321877772
 20
-3.9851529564989181
 30
0.0
 11
68.90869074552343
 21
-3.7258985328532761
 31
0.0
  0
LINE
  5
2FB3
  8
0
 62
     0
 10
68.095877545256599
 20
-4.5387117331200946
 30
0.0
 11
68.205528780007342
 21
-4.42906049836935
 31
0.0
  0
LINE
  5
2FB4
  8
0
 62
     0
 10
68.207494583636191
 20
-3.9851529564989181
 30
0.0
 11
68.509708230965714
 21
-3.682939309169396
 31
0.0
  0
ENDBLK
  5
2FB6
  8
0
  0
BLOCK
  8
0
  2
*X9
 70
     1
 10
0.0
 20
0.0
 30
0.0
  3
*X9
  1

  0
LINE
  5
2FB8
  8
0
 62
     0
 10
77.555888365698934
 20
-8.3369530599255182
 30
0.0
 11
77.799648921486678
 21
-8.0931925041377895
 31
0.0
  0
LINE
  5
2FB9
  8
0
 62
     0
 10
76.743136744066192
 20
-9.1497046815582888
 30
0.0
 11
77.111980823827892
 21
-8.7808606017965758
 31
0.0
  0
LINE
  5
2FBA
  8
0
 62
     0
 10
77.113946627457338
 20
-8.3369530599255182
 30
0.0
 11
77.416160274785952
 21
-8.034739412596906
 31
0.0
  0
LINE
  5
2FBB
  8
0
 62
     0
 10
77.702361273633954
 20
-7.7485384137489151
 30
0.0
 11
77.75869583845369
 21
-7.6922038489291822
 31
0.0
  0
LINE
  5
2FBC
  8
0
 62
     0
 10
76.17060604057508
 20
-9.2802936468077917
 30
0.0
 11
76.670039085586296
 21
-8.7808606017965474
 31
0.0
  0
LINE
  5
2FBD
  8
0
 62
     0
 10
77.260419535392288
 20
-7.7485384137489719
 30
0.0
 11
77.433087257622745
 21
-7.5758706915185314
 31
0.0
  0
LINE
  5
2FBE
  8
0
 62
     0
 10
76.672004889215714
 20
-8.3369530599255768
 30
0.0
 11
76.97421853654437
 21
-8.034739412596906
 31
0.0
  0
LINE
  5
2FBF
  8
0
 62
     0
 10
78.00654072459271
 20
-7.0024172245485641
 30
0.0
 11
78.092593526312854
 21
-6.9163644228284511
 31
0.0
  0
LINE
  5
2FC0
  8
0
 62
     0
 10
75.70346336729213
 20
-9.3054945818491603
 30
0.0
 11
76.228097347344701
 21
-8.7808606017965758
 31
0.0
  0
LINE
  5
2FC1
  8
0
 62
     0
 10
77.564598986351143
 20
-7.0024172245485641
 30
0.0
 11
77.866421507166265
 21
-6.700594703733425
 31
0.0
  0
LINE
  5
2FC2
  8
0
 62
     0
 10
75.295068977642799
 20
-9.2719472332568955
 30
0.0
 11
75.786155609103133
 21
-8.7808606017965758
 31
0.0
  0
LINE
  5
2FC3
  8
0
 62
     0
 10
77.122657248109562
 20
-7.0024172245485374
 30
0.0
 11
77.424479768924698
 21
-6.700594703733401
 31
0.0
  0
LINE
  5
2FC4
  8
0
 62
     0
 10
77.868778437310425
 20
-6.2562960353476731
 30
0.0
 11
78.086564924479461
 21
-6.0385095481786371
 31
0.0
  0
LINE
  5
2FC5
  8
0
 62
     0
 10
74.939387264085894
 20
-9.1856872085722046
 30
0.0
 11
75.344213870861552
 21
-8.7808606017965474
 31
0.0
  0
LINE
  5
2FC6
  8
0
 62
     0
 10
76.680715509867952
 20
-7.0024172245485374
 30
0.0
 11
76.98253803068306
 21
-6.700594703733401
 31
0.0
  0
LINE
  5
2FC7
  8
0
 62
     0
 10
77.426836699068829
 20
-6.256296035347642
 30
0.0
 11
77.728659219882914
 21
-5.9544735145335581
 31
0.0
  0
LINE
  5
2FC8
  8
0
 62
     0
 10
74.606183018428482
 20
-9.0769497159880075
 30
0.0
 11
74.902272132619899
 21
-8.7808606017965474
 31
0.0
  0
LINE
  5
2FC9
  8
0
 62
     0
 10
76.238773771626342
 20
-7.0024172245485374
 30
0.0
 11
76.540596292441478
 21
-6.700594703733401
 31
0.0
  0
LINE
  5
2FCA
  8
0
 62
     0
 10
76.984894960827205
 20
-6.2562960353476731
 30
0.0
 11
77.286717481641361
 21
-5.9544735145335332
 31
0.0
  0
LINE
  5
2FCB
  8
0
 62
     0
 10
74.904237936249316
 20
-8.3369530599255768
 30
0.0
 11
74.925790467293623
 21
-8.3154005288812698
 31
0.0
  0
LINE
  5
2FCC
  8
0
 62
     0
 10
77.731016150026861
 20
-5.51017484614803
 30
0.0
 11
77.94474808984522
 21
-5.2964429063296734
 31
0.0
  0
LINE
  5
2FCD
  8
0
 62
     0
 10
74.321890496770664
 20
-8.9193004994042422
 30
0.0
 11
74.460330394378346
 21
-8.7808606017965474
 31
0.0
  0
LINE
  5
2FCE
  8
0
 62
     0
 10
76.542953222585624
 20
-6.2562960353477024
 30
0.0
 11
76.844775743399765
 21
-5.9544735145335581
 31
0.0
  0
LINE
  5
2FCF
  8
0
 62
     0
 10
75.796832033384803
 20
-7.0024172245485374
 30
0.0
 11
76.098654554199925
 21
-6.700594703733401
 31
0.0
  0
LINE
  5
2FD0
  8
0
 62
     0
 10
77.289074411785265
 20
-5.5101748461480611
 30
0.0
 11
77.590896932599733
 21
-5.208352325333574
 31
0.0
  0
LINE
  5
2FD1
  8
0
 62
     0
 10
74.462296198007706
 20
-8.3369530599256336
 30
0.0
 11
74.694103173897062
 21
-8.1051460840362495
 31
0.0
  0
LINE
  5
2FD2
  8
0
 62
     0
 10
76.101011484343985
 20
-6.256296035347729
 30
0.0
 11
76.402834005158141
 21
-5.9544735145335581
 31
0.0
  0
LINE
  5
2FD3
  8
0
 62
     0
 10
77.053112036245011
 20
-5.3041954834467031
 30
0.0
 11
77.148955194358109
 21
-5.208352325333574
 31
0.0
  0
LINE
  5
2FD4
  8
0
 62
     0
 10
75.35489029514315
 20
-7.0024172245485641
 30
0.0
 11
75.656712815958301
 21
-6.700594703733401
 31
0.0
  0
LINE
  5
2FD5
  8
0
 62
     0
 10
77.626033373993309
 20
-4.7312741456983911
 30
0.0
 11
77.669165053346532
 21
-4.688142466345198
 31
0.0
  0
LINE
  5
2FD6
  8
0
 62
     0
 10
74.020354459766082
 20
-8.3369530599256336
 30
0.0
 11
74.322568107094909
 21
-8.0347394125967924
 31
0.0
  0
LINE
  5
2FD7
  8
0
 62
     0
 10
74.912948556901583
 20
-7.0024172245485374
 30
0.0
 11
75.214771077716719
 21
-6.700594703733401
 31
0.0
  0
LINE
  5
2FD8
  8
0
 62
     0
 10
75.659069746102375
 20
-6.2562960353477592
 30
0.0
 11
75.960892266916559
 21
-5.9544735145335581
 31
0.0
  0
LINE
  5
2FD9
  8
0
 62
     0
 10
74.166827367701231
 20
-7.7485384137488893
 30
0.0
 11
74.361329365647805
 21
-7.554036415802301
 31
0.0
  0
LINE
  5
2FDA
  8
0
 62
     0
 10
77.184091635751699
 20
-4.7312741456983911
 30
0.0
 11
77.486305283080753
 21
-4.42906049836935
 31
0.0
  0
LINE
  5
2FDB
  8
0
 62
     0
 10
73.705531030206004
 20
-8.2098347512441308
 30
0.0
 11
73.880626368853342
 21
-8.0347394125967622
 31
0.0
  0
LINE
  5
2FDC
  8
0
 62
     0
 10
75.217128007860737
 20
-6.2562960353478161
 30
0.0
 11
75.518950528674949
 21
-5.9544735145335581
 31
0.0
  0
LINE
  5
2FDD
  8
0
 62
     0
 10
74.471006818659987
 20
-7.0024172245485641
 30
0.0
 11
74.772829339475152
 21
-6.700594703733401
 31
0.0
  0
LINE
  5
2FDE
  8
0
 62
     0
 10
76.74214989751016
 20
-4.7312741456983911
 30
0.0
 11
77.0443635448392
 21
-4.42906049836935
 31
0.0
  0
LINE
  5
2FDF
  8
0
 62
     0
 10
73.724885629459664
 20
-7.7485384137488893
 30
0.0
 11
74.026708150274203
 21
-7.4467158929343213
 31
0.0
  0
LINE
  5
2FE0
  8
0
 62
     0
 10
74.775186269619127
 20
-6.2562960353478161
 30
0.0
 11
75.077008790433382
 21
-5.9544735145335581
 31
0.0
  0
LINE
  5
2FE1
  8
0
 62
     0
 10
74.029065080418405
 20
-7.0024172245485374
 30
0.0
 11
74.330887601233556
 21
-6.700594703733401
 31
0.0
  0
LINE
  5
2FE2
  8
0
 62
     0
 10
76.490511209250741
 20
-4.5409710957162011
 30
0.0
 11
76.60242180659759
 21
-4.42906049836935
 31
0.0
  0
LINE
  5
2FE3
  8
0
 62
     0
 10
73.460244949428059
 20
-7.5712373555388659
 30
0.0
 11
73.58476641203265
 21
-7.446715892934292
 31
0.0
  0
LINE
  5
2FE4
  8
0
 62
     0
 10
74.333244531377474
 20
-6.2562960353478401
 30
0.0
 11
74.635067052191786
 21
-5.9544735145335581
 31
0.0
  0
LINE
  5
2FE5
  8
0
 62
     0
 10
76.59084083843284
 20
-3.9986997282924781
 30
0.0
 11
76.727889834388662
 21
-3.86165073233667
 31
0.0
  0
LINE
  5
2FE6
  8
0
 62
     0
 10
73.587123342176781
 20
-7.0024172245485374
 30
0.0
 11
73.888945862991932
 21
-6.700594703733401
 31
0.0
  0
LINE
  5
2FE7
  8
0
 62
     0
 10
73.891302793135878
 20
-6.256296035347896
 30
0.0
 11
74.193125313950205
 21
-5.9544735145335581
 31
0.0
  0
LINE
  5
2FE8
  8
0
 62
     0
 10
76.148899100191343
 20
-3.9986997282924461
 30
0.0
 11
76.394671615656051
 21
-3.752927212827728
 31
0.0
  0
LINE
  5
2FE9
  8
0
 62
     0
 10
73.361616617695631
 20
-6.785982210788144
 30
0.0
 11
73.44700412475035
 21
-6.700594703733425
 31
0.0
  0
LINE
  5
2FEA
  8
0
 62
     0
 10
74.195482244093952
 20
-5.5101748461482032
 30
0.0
 11
74.497304764908634
 21
-5.2083523253335491
 31
0.0
  0
LINE
  5
2FEB
  8
0
 62
     0
 10
75.706957361949733
 20
-3.9986997282924461
 30
0.0
 11
76.016496606045621
 21
-3.6891604841965191
 31
0.0
  0
LINE
  5
2FEC
  8
0
 62
     0
 10
73.449361054894268
 20
-6.256296035347896
 30
0.0
 11
73.751183575708623
 21
-5.9544735145335581
 31
0.0
  0
LINE
  5
2FED
  8
0
 62
     0
 10
74.53244120630211
 20
-4.731274145698448
 30
0.0
 11
74.83465485363115
 21
-4.429060498369406
 31
0.0
  0
LINE
  5
2FEE
  8
0
 62
     0
 10
75.265015623708095
 20
-3.9986997282924461
 30
0.0
 11
75.578632055415284
 21
-3.685083296585276
 31
0.0
  0
LINE
  5
2FEF
  8
0
 62
     0
 10
73.753540505852342
 20
-5.5101748461482032
 30
0.0
 11
74.05536302666701
 21
-5.2083523253335171
 31
0.0
  0
LINE
  5
2FF0
  8
0
 62
     0
 10
74.090499468060514
 20
-4.7312741456984782
 30
0.0
 11
74.392713115389583
 21
-4.429060498369406
 31
0.0
  0
LINE
  5
2FF1
  8
0
 62
     0
 10
74.823073885466542
 20
-3.9986997282924461
 30
0.0
 11
75.029649313717982
 21
-3.792124300040991
 31
0.0
  0
LINE
  5
2FF2
  8
0
 62
     0
 10
73.55838459760156
 20
-5.2633890161574151
 30
0.0
 11
73.613421288425471
 21
-5.2083523253335171
 31
0.0
  0
ENDBLK
  5
2FF4
  8
0
  0
BLOCK
  8
0
  2
A$C22F44E1F
 70
     0
 10
0.0
 20
0.0
 30
0.0
  3
A$C22F44E1F
  1

  0
CIRCLE
  5
1D38
  8
VISIBLE__ANSI_
 10
38.500000384184503
 20
14.000000359790111
 30
0.0
 40
3.5
  0
CIRCLE
  5
1D39
  8
VISIBLE__ANSI_
 10
8.5000003841844816
 20
14.000000359790111
 30
0.0
 40
3.5
  0
CIRCLE
  5
1D3A
  8
VISIBLE__ANSI_
 10
58.500000384184503
 20
14.000000359790111
 30
0.0
 40
6.0
  0
CIRCLE
  5
1D3B
  8
VISIBLE__ANSI_
 10
75.3000003841845
 20
14.000000359790111
 30
0.0
 40
6.0
  0
LINE
  5
1D3C
  8
VISIBLE__ANSI_
 10
87.1174893191845
 20
28.000000359790072
 30
0.0
 11
0.0000003841844887
 21
28.000000359790079
 31
0.0
  0
LINE
  5
1D3D
  8
VISIBLE__ANSI_
 10
0.0000003841844887
 20
28.000000359790079
 30
0.0
 11
0.0000003841844887
 21
0.000000359790107
 31
0.0
  0
LINE
  5
1D3E
  8
VISIBLE__ANSI_
 10
0.0000003841844887
 20
0.000000359790107
 30
0.0
 11
87.1174893191845
 21
0.000000359790107
 31
0.0
  0
LINE
  5
1D3F
  8
VISIBLE__ANSI_
 10
84.6174893191845
 20
28.000000376790119
 30
0.0
 11
84.6174893191845
 21
0.0000002567901021
 31
0.0
  0
LINE
  5
1D40
  8
VISIBLE__ANSI_
 10
87.1174893191845
 20
28.000000376790119
 30
0.0
 11
87.1174893191845
 21
0.0000002567901021
 31
0.0
  0
POINT
  5
1D41
  8
VISIBLE__ANSI_
 10
75.3000003841845
 20
14.000000359790111
 30
0.0
  0
POINT
  5
1D42
  8
VISIBLE__ANSI_
 10
75.3000003841845
 20
14.000000359790111
 30
0.0
  0
POINT
  5
1D43
  8
VISIBLE__ANSI_
 10
75.3000003841845
 20
14.000000359790111
 30
0.0
  0
POINT
  5
1D44
  8
VISIBLE__ANSI_
 10
75.3000003841845
 20
14.000000359790111
 30
0.0
  0
ENDBLK
  5
1D48
  8
0
  0
BLOCK
  8
0
  2
*U11
 70
     1
 10
0.0
 20
0.0
 30
0.0
  3
*U11
  1

  0
TEXT
  5
30B0
  8
DIM
 62
     7
 10
3151.7767164419602
 20
1411.3439056934219
 30
0.0
 40
30.0
  1
660
  7
TITLE3
  0
ENDBLK
  5
30B2
  8
0
  0
BLOCK
  8
0
  2
*U12
 70
     1
 10
0.0
 20
0.0
 30
0.0
  3
*U12
  1

  0
TEXT
  5
30B4
  8
OUTLINE
 62
     7
 10
2995.2052878705331
 20
1129.2853521560851
 30
0.0
 40
25.0
  1
837 MTG. CENTRE
  7
TITLE3
  0
ENDBLK
  5
30B6
  8
0
  0
BLOCK
  8
0
  2
*U13
 70
     1
 10
0.0
 20
0.0
 30
0.0
  3
*U13
  1

  0
TEXT
  5
30B8
  8
OUTLINE
 62
     7
 10
3132.7052878705331
 20
599.76314662672405
 30
0.0
 40
25.0
  1
803
  7
TITLE3
  0
ENDBLK
  5
30BA
  8
0
  0
BLOCK
  8
0
  2
*U14
 70
     1
 10
0.0
 20
0.0
 30
0.0
  3
*U14
  1

  0
TEXT
  5
30BC
  8
OUTLINE
 62
     7
 10
2852.5433831086279
 20
1183.4439330365001
 30
0.0
 40
25.0
  1
894 (SPRING MTG.CTRS-OPTION)
  7
TITLE3
  0
ENDBLK
  5
30BE
  8
0
  0
BLOCK
  8
0
  2
*U15
 70
     1
 10
0.0
 20
0.0
 30
0.0
  3
*U15
  1

  0
SOLID
  5
30C0
  8
OUTLINE
 10
1756.2043562577451
 20
712.8252508130513
 30
0.0
 11
1771.0493544610911
 21
739.37004367987731
 31
0.0
 12
1765.615910603924
 22
709.44551046963272
 32
0.0
 13
1765.615910603924
 23
709.44551046963272
 33
0.0
  0
POLYLINE
  5
30C1
  8
OUTLINE
 66
     1
 10
0.0
 20
0.0
 30
0.0
  0
VERTEX
  5
3E60
  8
OUTLINE
 10
1760.910133430835
 20
711.13538064134207
 30
0.0
  0
VERTEX
  5
3E61
  8
OUTLINE
 10
1721.409294034773
 20
601.13749354932645
 30
0.0
  0
VERTEX
  5
3E62
  8
OUTLINE
 10
1691.409294034773
 20
601.13749354932645
 30
0.0
  0
SEQEND
  5
3E63
  8
OUTLINE
  0
ENDBLK
  5
30C7
  8
0
  0
BLOCK
  8
0
  2
*U16
 70
     1
 10
0.0
 20
0.0
 30
0.0
  3
*U16
  1

  0
TEXT
  5
30C9
  8
OUTLINE
 62
     7
 10
1507.1235797490581
 20
609.47082688266005
 30
0.0
 40
25.0
  1
ELECTRIC
  7
TITLE3
  0
TEXT
  5
30CA
  8
OUTLINE
 62
     7
 10
1603.5521511776301
 20
567.80416021599353
 30
0.0
 40
25.0
  1
BOX
  7
TITLE3
  0
ENDBLK
  5
30CC
  8
0
  0
BLOCK
  8
0
  2
*U17
 70
     1
 10
0.0
 20
0.0
 30
0.0
  3
*U17
  1

  0
TEXT
  5
30CE
  8
OUTLINE
 62
     7
 10
3741.1003672639249
 20
1781.7975234255091
 30
0.0
 40
25.0
  1
530
 50
90.0
  7
TITLE3
  0
ENDBLK
  5
30D0
  8
0
  0
BLOCK
  8
0
  2
*U18
 70
     1
 10
0.0
 20
0.0
 30
0.0
  3
*U18
  1

  0
TEXT
  5
30D2
  8
DIM
 62
     7
 10
3167.805287870538
 20
2188.7839354037078
 30
0.0
 40
25.0
  1
400
  7
TITLE3
  0
ENDBLK
  5
30D4
  8
0
  0
BLOCK
  8
0
  2
*U19
 70
     1
 10
0.0
 20
0.0
 30
0.0
  3
*U19
  1

  0
TEXT
  5
30D6
  8
OUTLINE
 62
     7
 10
3657.824544771634
 20
1668.0038503758069
 30
0.0
 40
25.0
  1
482 MTG. CTRS
 50
90.0
  7
TITLE3
  0
ENDBLK
  5
30D8
  8
0
  0
BLOCK
  8
0
  2
*U20
 70
     1
 10
0.0
 20
0.0
 30
0.0
  3
*U20
  1

  0
TEXT
  5
30DA
  8
OUTLINE
 62
     7
 10
2437.436172299801
 20
849.96995662606776
 30
0.0
 40
25.0
  1
420
 50
90.0
  7
TITLE3
  0
ENDBLK
  5
30DC
  8
0
  0
BLOCK
  8
0
  2
*U21
 70
     1
 10
0.0
 20
0.0
 30
0.0
  3
*U21
  1

  0
TEXT
  5
30E3
  8
DIM
 62
     7
 10
2328.1449857168768
 20
864.66995662607042
 30
0.0
 40
25.0
  1
333
 50
90.0
  7
TITLE3
  0
ENDBLK
  5
30E5
  8
0
  0
BLOCK
  8
0
  2
*U22
 70
     1
 10
0.0
 20
0.0
 30
0.0
  3
*U22
  1

  0
TEXT
  5
30E7
  8
DIM
 62
     7
 10
1511.929728971028
 20
918.67197503961961
 30
0.0
 40
25.0
  1
225
 50
90.0
  7
TITLE3
  0
ENDBLK
  5
30E9
  8
0
  0
BLOCK
  8
0
  2
*U23
 70
     1
 10
0.0
 20
0.0
 30
0.0
  3
*U23
  1

  0
TEXT
  5
30EB
  8
DIM
 62
     7
 10
3074.9052878710331
 20
531.84625444034282
 30
0.0
 40
25.0
  1
923
  7
TITLE3
  0
ENDBLK
  5
30ED
  8
0
  0
BLOCK
  8
0
  2
NEW_BLOCK
 70
     0
 10
0.0
 20
0.0
 30
0.0
  3
NEW_BLOCK
  1

  0
TEXT
  5
363C
  8
TEXT
 10
27.285946821803002
 20
25.27142175952417
 30
0.0
 40
40.0
  1
available on request
  7
TITLE3
  0
TEXT
  5
363D
  8
TEXT
 10
27.285946821803002
 20
93.842850330952714
 30
0.0
 40
40.0
  1
Certified dimensions
  7
TITLE3
  0
TEXT
  5
363E
  8
TEXT
 10
27.285946821803002
 20
162.4142789023812
 30
0.0
 40
40.0
  1
without notice or obligation.
  7
TITLE3
  0
TEXT
  5
363F
  8
TEXT
 10
27.285946821803002
 20
230.9857074738097
 30
0.0
 40
40.0
  1
specifications at any time
  7
TITLE3
  0
TEXT
  5
3640
  8
TEXT
 10
27.285946821803002
 20
299.55713604523839
 30
0.0
 40
40.0
  1
the right to change 
  7
TITLE3
  0
TEXT
  5
3641
  8
TEXT
 10
27.285946821803002
 20
436.69999318809488
 30
0.0
 40
40.0
  1
NOTE
  7
TITLE3
  0
TEXT
  5
3642
  8
TEXT
 10
27.285946821803002
 20
368.12856461666678
 30
0.0
 40
40.0
  1
The manufacturer reserves
  7
TITLE3
  0
ENDBLK
  5
3643
  8
0
  0
BLOCK
  8
0
  2
*U25
 70
     1
 10
0.0
 20
0.0
 30
0.0
  3
*U25
  1

  0
TEXT
  5
3E75
  8
DIM
 62
     7
 10
1904.3878912555119
 20
1180.362816691629
 30
0.0
 40
25.0
  1
650
  0
ENDBLK
  5
3E77
  8
0
  0
BLOCK
  8
0
  2
*U26
 70
     1
 10
0.0
 20
0.0
 30
0.0
  3
*U26
  1

  0
TEXT
  5
4045
  8
DIM
 62
     7
 10
3132.7052878705331
 20
1125.0553685902721
 30
0.0
 40
25.0
  1
803
  7
TITLE3
  0
ENDBLK
  5
4047
  8
0
  0
BLOCK
  8
0
  2
*U27
 70
     1
 10
0.0
 20
0.0
 30
0.0
  3
*U27
  1

  0
TEXT
  5
4049
  8
DIM
 62
     7
 10
3072.705287870534
 20
1187.089053114694
 30
0.0
 40
25.0
  1
923
  7
TITLE3
  0
ENDBLK
  5
404B
  8
0
  0
BLOCK
  8
0
  2
GENAXEH
 70
     0
 10
0.0
 20
0.0
 30
0.0
  3
GENAXEH
  1

  0
LINE
  5
429C
  8
0
 10
-1.0
 20
0.0
 30
0.0
 11
1.0
 21
0.0
 31
0.0
  0
ENDBLK
  5
429E
  8
0
  0
ENDSEC
  0
SECTION
  2
ENTITIES
  0
TEXT
  5
781
  8
OVERLAY-A3
 10
3286.827706138869
 20
88.253157729929356
 30
0.0
 40
19.199999999999999
  1
Date
  7
SIMPLEX
  0
TEXT
  5
782
  8
OVERLAY-A3
 10
3774.448625251985
 20
103.1908282605775
 30
0.0
 40
19.199999999999999
  1
Revision
 41
0.7812095035934875
  7
SIMPLEX
 72
     5
 11
3858.7299705539572
 21
103.1908282605775
 31
0.0
  0
LINE
  5
783
  8
OVERLAY-A3
 10
3765.152751345232
 20
16.26218092050226
 30
0.0
 11
3765.152751345232
 21
134.2031112086859
 31
0.0
  0
LINE
  5
784
  8
OVERLAY-A3
 10
3033.0408949188209
 20
416.26218092050232
 30
0.0
 11
3033.0408949188209
 21
16.26218092050226
 31
0.0
  0
LINE
  5
785
  8
OVERLAY-A3
 10
3271.0906137635779
 20
16.26218092050226
 30
0.0
 11
3271.0906137635779
 21
134.2031112086859
 31
0.0
  0
LINE
  5
786
  8
OVERLAY-A3
 10
3511.0906137635802
 20
16.26218092050226
 30
0.0
 11
3511.0906137635802
 21
134.2031112086859
 31
0.0
  0
LINE
  5
787
  8
OVERLAY-A3
 10
3511.0906137635802
 20
74.238266057419551
 30
0.0
 11
3033.0408949188209
 21
74.238266057419551
 31
0.0
  0
LINE
  5
788
  8
OVERLAY-A3
 10
3866.8200435433769
 20
134.2031112086859
 30
0.0
 11
3033.0408949188209
 21
134.2031112086859
 31
0.0
  0
LINE
  5
789
  8
OVERLAY-A3
 10
3033.0408949188209
 20
16.26218092050226
 30
0.0
 11
3866.5820378006961
 21
16.26218092050226
 31
0.0
  0
LINE
  5
78A
  8
OVERLAY-A3
 10
3866.5820378006961
 20
16.26218092050226
 30
0.0
 11
3866.5820378006961
 21
416.26218092050232
 31
0.0
  0
LINE
  5
78B
  8
OVERLAY-A3
 10
3866.5820378006961
 20
296.26218092050232
 30
0.0
 11
3033.0408949188209
 21
296.26218092050232
 31
0.0
  0
LINE
  5
78C
  8
OVERLAY-A3
 10
3866.5820378006961
 20
416.26218092050232
 30
0.0
 11
3033.0408949188209
 21
416.26218092050232
 31
0.0
  0
TEXT
  5
78D
  8
OVERLAY-A3
 10
3053.146246635592
 20
37.926177094134722
 30
0.0
 40
16.0
  1
Scale
 41
1.3701747965659781
  7
SIMPLEX
 72
     5
 11
3133.5298347007961
 21
37.926177094134722
 31
0.0
  0
TEXT
  5
78E
  8
OVERLAY-A3
 10
3053.146246635592
 20
88.923666033512575
 30
0.0
 40
16.0
  1
Drawn
 41
1.226784410878841
  7
SIMPLEX
 72
     5
 11
3133.5298347007961
 21
88.923666033512575
 31
0.0
  0
TEXT
  5
78F
  8
OVERLAY-A3
 10
3046.1696379483869
 20
383.40220244390338
 30
0.0
 40
16.0
  1
Title
  7
SIMPLEX
 72
     2
 11
3091.8839236626732
 21
383.40220244390338
 31
0.0
  0
TEXT
  5
790
  8
OVERLAY-A3
 10
3288.8997841109231
 20
37.926177094134722
 30
0.0
 40
16.0
  1
Aprvd
 41
1.2866275528729021
  7
SIMPLEX
 72
     5
 11
3369.2833721761258
 21
37.926177094134722
 31
0.0
  0
TEXT
  5
791
  8
OVERLAY-A3
 10
3557.4469702337419
 20
102.70293184721631
 30
0.0
 40
16.0
  1
Drawing No.
  7
SIMPLEX
 72
     2
 11
3696.8755416623139
 21
102.70293184721631
 31
0.0
  0
INSERT
  5
79C
  8
OUTLINE
  2
LOGO2000
 10
3137.8114663597589
 20
232.26218092050229
 30
0.0
 41
8.0
 42
8.0
 43
8.0
  0
LINE
  5
167C
  8
OUTLINE
 10
2694.1481450133901
 20
838.74736638387185
 30
0.0
 11
2694.1481450133901
 21
832.24736638387162
 31
0.0
  0
LINE
  5
16A0
  8
OUTLINE
  6
CONTINUOUS
 10
2694.1481450133911
 20
764.4973663838706
 30
0.0
 11
2694.1481450133911
 21
745.49736638387105
 31
0.0
  0
LINE
  5
16A6
  8
OUTLINE
  6
CONTINUOUS
 10
2694.1481450133901
 20
765.49736638387105
 30
0.0
 11
2694.1481450133911
 21
744.49736638387071
 31
0.0
  0
LINE
  5
16A8
  8
OUTLINE
  6
CONTINUOUS
 10
2694.1481450133911
 20
838.74736638387185
 30
0.0
 11
2694.1481450133911
 21
829.24736638387139
 31
0.0
  0
LINE
  5
16A9
  8
OUTLINE
  6
CONTINUOUS
 10
2694.1481450133901
 20
767.49736638387105
 30
0.0
 11
2694.1481450133901
 21
742.49736638387071
 31
0.0
  0
POLYLINE
  5
16AA
  8
OUTLINE
  6
CONTINUOUS
 66
     1
 10
0.0
 20
0.0
 30
0.0
 70
     1
  0
VERTEX
  5
3E47
  8
OUTLINE
  6
CONTINUOUS
 10
2693.059631917411
 20
742.49736638387071
 30
0.0
  0
VERTEX
  5
3E48
  8
OUTLINE
  6
CONTINUOUS
 10
2694.1481450133911
 20
742.49736638387071
 30
0.0
  0
VERTEX
  5
3E49
  8
OUTLINE
  6
CONTINUOUS
 10
2694.1481450133911
 20
767.49736638387105
 30
0.0
  0
VERTEX
  5
3E4A
  8
OUTLINE
  6
CONTINUOUS
 10
2693.059631917411
 20
767.49736638387105
 30
0.0
  0
SEQEND
  5
3E4B
  8
OUTLINE
  6
CONTINUOUS
  0
LINE
  5
16F9
  8
OUTLINE
 10
2760.8481450133932
 20
1095.430302703925
 30
0.0
 11
2760.8481450133932
 21
1010.812813768925
 31
0.0
  0
LINE
  5
16FA
  8
OUTLINE
 10
2763.3481450133918
 20
1097.930302703925
 30
0.0
 11
2763.3481450133918
 21
1010.812813768925
 31
0.0
  0
LINE
  5
16FB
  8
OUTLINE
 10
2760.8481450133932
 20
1095.430302703925
 30
0.0
 11
2732.848144910392
 21
1095.430302703925
 31
0.0
  0
LINE
  5
16FC
  8
OUTLINE
 10
2763.3481450133918
 20
1097.930302703925
 30
0.0
 11
2732.848144910392
 21
1097.930302703925
 31
0.0
  0
POINT
  5
16FD
  8
OUTLINE
 10
2746.8481450133918
 20
1095.430302703925
 30
0.0
 50
180.0
  0
LINE
  5
16FE
  8
OUTLINE
 10
2732.848144910392
 20
1097.930302703925
 30
0.0
 11
2732.848144910392
 21
1095.430302703925
 31
0.0
  0
ARC
  5
1700
  8
OUTLINE
 10
2748.3256560773921
 20
1572.837183709139
 30
0.0
 40
6.0000000000000151
 50
270.0
 51
90.0
  0
LINE
  5
1701
  8
OUTLINE
 10
2745.325656077393
 20
1566.837183709139
 30
0.0
 11
2748.3256560773921
 21
1566.837183709139
 31
0.0
  0
ARC
  5
1702
  8
OUTLINE
 10
2745.325656077393
 20
1572.837183709139
 30
0.0
 40
6.0000000000000151
 50
90.0
 51
270.0
  0
LINE
  5
1703
  8
OUTLINE
 10
2748.3256560773921
 20
1578.837183709139
 30
0.0
 11
2745.325656077393
 21
1578.837183709139
 31
0.0
  0
LINE
  5
1704
  8
OUTLINE
 10
2732.8306560773922
 20
1586.837183709139
 30
0.0
 11
2763.3481450133918
 21
1586.837183709139
 31
0.0
  0
LINE
  5
1705
  8
OUTLINE
 10
2763.3481450133918
 20
1558.837183709139
 30
0.0
 11
2732.8306560773922
 21
1558.837183709139
 31
0.0
  0
LINE
  5
1706
  8
OUTLINE
 10
2732.8306560773922
 20
1558.837183709139
 30
0.0
 11
2732.8306560773922
 21
1586.837183709139
 31
0.0
  0
POINT
  5
1709
  8
OUTLINE
 10
2746.8481450133909
 20
1572.8371837091399
 30
0.0
 50
180.0
  0
LINE
  5
170A
  8
OUTLINE
 10
3568.8481450133891
 20
1095.430302703925
 30
0.0
 11
3568.8481450133891
 21
1010.812813768925
 31
0.0
  0
LINE
  5
170B
  8
OUTLINE
 10
3566.3481450133881
 20
1097.930302703925
 30
0.0
 11
3566.3481450133881
 21
1010.812813768925
 31
0.0
  0
LINE
  5
170C
  8
OUTLINE
 10
3568.8481450133891
 20
1095.430302703925
 30
0.0
 11
3596.848145116388
 21
1095.430302703925
 31
0.0
  0
LINE
  5
170D
  8
OUTLINE
 10
3566.3481450133881
 20
1097.930302703925
 30
0.0
 11
3596.848145116388
 21
1097.930302703925
 31
0.0
  0
POINT
  5
170E
  8
OUTLINE
 10
3582.8481450133891
 20
1095.430302703925
 30
0.0
  0
LINE
  5
170F
  8
OUTLINE
 10
3596.848145116388
 20
1097.930302703925
 30
0.0
 11
3596.848145116388
 21
1095.430302703925
 31
0.0
  0
LINE
  5
1710
  8
OUTLINE
 10
3568.8481450133891
 20
1010.812813768925
 30
0.0
 11
3566.3481450133881
 21
1010.812813768925
 31
0.0
  0
ARC
  5
1711
  8
OUTLINE
 10
3582.370633949391
 20
1572.837183709139
 30
0.0
 40
6.0000000000000151
 50
90.0
 51
270.0
  0
LINE
  5
1712
  8
OUTLINE
 10
3585.370633949391
 20
1566.837183709139
 30
0.0
 11
3582.370633949391
 21
1566.837183709139
 31
0.0
  0
ARC
  5
1713
  8
OUTLINE
 10
3585.370633949391
 20
1572.837183709139
 30
0.0
 40
6.0000000000000151
 50
270.0
 51
90.0
  0
LINE
  5
1714
  8
OUTLINE
 10
3582.370633949391
 20
1578.837183709139
 30
0.0
 11
3585.370633949391
 21
1578.837183709139
 31
0.0
  0
LINE
  5
1715
  8
OUTLINE
 10
3597.8656339493909
 20
1586.837183709139
 30
0.0
 11
3567.3481450133909
 21
1586.837183709139
 31
0.0
  0
LINE
  5
1716
  8
OUTLINE
 10
3567.3481450133909
 20
1558.837183709139
 30
0.0
 11
3597.8656339493909
 21
1558.837183709139
 31
0.0
  0
LINE
  5
1717
  8
OUTLINE
 10
3597.8656339493909
 20
1558.837183709139
 30
0.0
 11
3597.8656339493909
 21
1586.837183709139
 31
0.0
  0
POINT
  5
171A
  8
OUTLINE
 10
3583.8481450133909
 20
1572.837183709139
 30
0.0
  0
LINE
  5
1819
  8
OUTLINE
 10
3000.948145013394
 20
2138.1403805683672
 30
0.0
 11
3443.9481450133949
 21
2138.1403805683672
 31
0.0
  0
LINE
  5
181A
  8
OUTLINE
 10
3000.948145013394
 20
2078.1403805683672
 30
0.0
 11
3000.948145013394
 21
2138.1403805683672
 31
0.0
  0
LINE
  5
181B
  8
OUTLINE
 10
3443.9481450133949
 20
2078.1403805683672
 30
0.0
 11
3443.9481450133949
 21
2138.1403805683672
 31
0.0
  0
LINE
  5
1974
  8
OUTLINE
 10
2735.3481450133918
 20
706.81281376892684
 30
0.0
 11
2735.3481450133918
 21
686.81281376892684
 31
0.0
  0
LINE
  5
1977
  8
OUTLINE
 10
2735.3481450133918
 20
706.81281376892684
 30
0.0
 11
2764.34814501339
 21
706.81281376892684
 31
0.0
  0
LINE
  5
1978
  8
OUTLINE
 10
2735.3481450133918
 20
686.81281376892684
 30
0.0
 11
2764.34814501339
 21
686.81281376892684
 31
0.0
  0
LINE
  5
1A14
  8
OUTLINE
  6
CONTINUOUS
 10
2764.3481450133909
 20
838.74736638387128
 30
0.0
 11
2694.1481450133901
 21
838.74736638387151
 31
0.0
  0
LINE
  5
1A15
  8
OUTLINE
  6
CONTINUOUS
 10
2764.3481450133909
 20
829.24736638387139
 30
0.0
 11
2694.1481450133901
 21
829.24736638387139
 31
0.0
  0
LINE
  5
1A16
  8
OUTLINE
  6
CONTINUOUS
 10
2764.34814501339
 20
764.49736638386935
 30
0.0
 11
2694.1481450133911
 21
764.4973663838706
 31
0.0
  0
LINE
  5
1A17
  8
OUTLINE
  6
CONTINUOUS
 10
2764.3481450133909
 20
745.49736638386935
 30
0.0
 11
2694.1481450133901
 21
745.49736638387071
 31
0.0
  0
LINE
  5
1A1B
  8
OUTLINE
 10
2860.34814501339
 20
1489.5403805683659
 30
0.0
 11
2860.34814501339
 21
1494.846113069281
 31
0.0
  0
LINE
  5
1A1C
  8
OUTLINE
 10
2860.34814501339
 20
1489.5403805683659
 30
0.0
 11
2860.34814501339
 21
1549.5403805683659
 31
0.0
  0
LINE
  5
1A2B
  8
OUTLINE
 10
2860.34814501339
 20
1489.5403805683659
 30
0.0
 11
3520.3481450133891
 21
1489.5403805683659
 31
0.0
  0
LINE
  5
1A2E
  8
OUTLINE
 10
3520.3481450133891
 20
1489.5403805683659
 30
0.0
 11
3520.3481450133891
 21
1549.5403805683659
 31
0.0
  0
CIRCLE
  5
1BD0
  8
OUTLINE
 10
2171.3878912555128
 20
833.31141455178204
 30
0.0
 40
12.699999999999999
  0
CIRCLE
  5
1BD2
  8
OUTLINE
 10
2171.3878912555128
 20
757.99736638387185
 30
0.0
 40
16.0
  0
ARC
  5
1C7C
  8
OUTLINE
 10
2748.3256560773921
 20
2054.8371837091408
 30
0.0
 40
6.0000000000000151
 50
270.0
 51
90.0
  0
LINE
  5
1C7D
  8
OUTLINE
 10
2745.325656077393
 20
2060.8371837091408
 30
0.0
 11
2748.3256560773921
 21
2060.8371837091408
 31
0.0
  0
ARC
  5
1C7E
  8
OUTLINE
 10
2745.325656077393
 20
2054.8371837091408
 30
0.0
 40
6.0000000000000151
 50
90.0
 51
270.0
  0
LINE
  5
1C7F
  8
OUTLINE
 10
2748.3256560773921
 20
2048.8371837091408
 30
0.0
 11
2745.325656077393
 21
2048.8371837091408
 31
0.0
  0
LINE
  5
1C80
  8
OUTLINE
 10
2732.8306560773922
 20
2040.8371837091411
 30
0.0
 11
2763.3481450133918
 21
2040.8371837091411
 31
0.0
  0
LINE
  5
1C81
  8
OUTLINE
 10
2763.3481450133918
 20
2068.8371837091408
 30
0.0
 11
2732.8306560773922
 21
2068.8371837091408
 31
0.0
  0
LINE
  5
1C82
  8
OUTLINE
 10
2732.8306560773922
 20
2068.8371837091408
 30
0.0
 11
2732.8306560773922
 21
2040.8371837091411
 31
0.0
  0
POINT
  5
1C85
  8
OUTLINE
 10
2746.8481450133909
 20
2054.8371837091399
 30
0.0
 50
180.0
  0
ARC
  5
1C86
  8
OUTLINE
 10
3582.370633949391
 20
2054.8371837091408
 30
0.0
 40
6.0000000000000151
 50
90.0
 51
270.0
  0
LINE
  5
1C87
  8
OUTLINE
 10
3585.370633949391
 20
2060.8371837091408
 30
0.0
 11
3582.370633949391
 21
2060.8371837091408
 31
0.0
  0
ARC
  5
1C88
  8
OUTLINE
 10
3585.370633949391
 20
2054.8371837091408
 30
0.0
 40
6.0000000000000151
 50
270.0
 51
90.0
  0
LINE
  5
1C89
  8
OUTLINE
 10
3582.370633949391
 20
2048.8371837091408
 30
0.0
 11
3585.370633949391
 21
2048.8371837091408
 31
0.0
  0
LINE
  5
1C8A
  8
OUTLINE
 10
3597.8656339493909
 20
2040.8371837091411
 30
0.0
 11
3567.3481450133909
 21
2040.8371837091411
 31
0.0
  0
LINE
  5
1C8B
  8
OUTLINE
 10
3567.3481450133909
 20
2068.8371837091408
 30
0.0
 11
3597.8656339493909
 21
2068.8371837091408
 31
0.0
  0
LINE
  5
1C8C
  8
OUTLINE
 10
3597.8656339493909
 20
2068.8371837091408
 30
0.0
 11
3597.8656339493909
 21
2040.8371837091411
 31
0.0
  0
POINT
  5
1C8D
  8
OUTLINE
 10
3583.8481450133909
 20
2054.8371837091408
 30
0.0
  0
LINE
  5
1D14
  8
OUTLINE
  6
HIDDEN
 10
1694.88583916169
 20
772.77788110254335
 30
0.0
 11
1687.537891255512
 21
772.77788110254335
 31
0.0
  0
LINE
  5
1D16
  8
OUTLINE
  6
HIDDEN
 10
1687.1146403746141
 20
1061.722695897477
 30
0.0
 11
1665.695871112184
 21
1051.7167492599001
 31
0.0
  0
CIRCLE
  5
1D18
  8
OUTLINE
  6
HIDDEN
 10
1841.6691656477899
 20
849.954213831071
 30
0.0
 40
97.0
  0
ARC
  5
1D19
  8
OUTLINE
  6
HIDDEN
 10
1843.5569649827969
 20
852.16697321905644
 30
0.0
 40
168.53999999999999
 50
208.10183043552871
 51
237.55498110533989
  0
ARC
  5
1D1B
  8
OUTLINE
  6
HIDDEN
 10
1826.07916564779
 20
873.26421383107072
 30
0.0
 40
199.0
 50
79.246585015436139
 51
95.146313648019714
  0
ARC
  5
1D1D
  8
OUTLINE
  6
HIDDEN
 10
1822.52916564779
 20
854.58421383107054
 30
0.0
 40
218.01000000000019
 50
60.159939162638601
 51
79.245879152937789
  0
ARC
  5
1D1F
  8
OUTLINE
  6
HIDDEN
 10
1827.429165647791
 20
863.204213831071
 30
0.0
 40
208.09999999999991
 50
29.910804609318241
 51
60.149386506434013
  0
ARC
  5
1D22
  8
OUTLINE
  6
HIDDEN
 10
1836.0491656477909
 20
868.08421383107054
 30
0.0
 40
199.19
 50
359.9780484511441
 51
29.930445573487528
  0
ARC
  5
1D23
  8
OUTLINE
  6
HIDDEN
 10
1845.6591656477899
 20
867.93421383107102
 30
0.0
 40
188.57999999999981
 50
329.3943060261434
 51
0.0225039223384064
  0
ARC
  5
1D25
  8
OUTLINE
  6
HIDDEN
 10
1854.03916564779
 20
862.95421383107089
 30
0.0
 40
178.84000000000009
 50
299.27011246215631
 51
329.4008832257652
  0
ARC
  5
1D27
  8
OUTLINE
  6
HIDDEN
 10
1851.8791656477899
 20
882.13421383107084
 30
0.0
 40
196.76999999999981
 50
283.53603139071532
 51
297.08764300777301
  0
ARC
  5
1D29
  8
OUTLINE
  6
HIDDEN
 10
1844.56916564779
 20
938.87421383107028
 30
0.0
 40
253.7200000000002
 50
262.6427616654139
 51
282.14179124572331
  0
ARC
  5
1D2B
  8
OUTLINE
  6
HIDDEN
 10
1842.009165647791
 20
853.10421383107064
 30
0.0
 40
168.54000000000011
 50
238.16999999999501
 51
259.77085780000527
  0
LINE
  5
1D2E
  8
OUTLINE
  6
HIDDEN
 10
1687.4500036154741
 20
1061.8128137689239
 30
0.0
 11
1808.1406335652091
 21
1072.4612335942511
 31
0.0
  0
LINE
  5
1D30
  8
OUTLINE
  6
HIDDEN
 10
1686.5378912555111
 20
772.77788110254335
 30
0.0
 11
1686.5378912555111
 21
1060.816683374484
 31
0.0
  0
INSERT
  5
1D49
  8
OUTLINE
  2
A$C22F44E1F
 10
2190.1378916153021
 20
1010.812813384741
 30
0.0
 50
90.0
  0
INSERT
  5
1D4A
  8
OUTLINE
  2
A$C22F44E1F
 10
1709.1378916153019
 20
1010.812813384741
 30
0.0
 50
90.0
  0
LINE
  5
2097
  8
OUTLINE
 10
2764.3481450133909
 20
1054.672228831985
 30
0.0
 11
2643.3481450133918
 21
1054.672228831985
 31
0.0
  0
LINE
  5
209A
  8
OUTLINE
 10
2643.3481450133909
 20
749.67222883198531
 30
0.0
 11
2694.1481450133901
 21
749.67222883198565
 31
0.0
  0
LINE
  5
209E
  8
OUTLINE
 10
2747.748145013391
 20
764.49736638386935
 30
0.0
 11
2747.748145013391
 21
829.24736638387139
 31
0.0
  0
LINE
  5
20A4
  8
OUTLINE
 10
2643.3481450133918
 20
1054.672228831985
 30
0.0
 11
2643.3481450133909
 21
749.67222883198542
 31
0.0
  0
LINE
  5
20A9
  8
OUTLINE
 10
2747.748145013391
 20
838.74736638387128
 30
0.0
 11
2747.748145013391
 21
1054.672228831985
 31
0.0
  0
LINE
  5
21C5
  8
OUTLINE
 10
2764.3481450133909
 20
1992.7425203018661
 30
0.0
 11
2641.748145013391
 21
1992.7425203018661
 31
0.0
  0
LINE
  5
21CF
  8
OUTLINE
 10
2641.748145013391
 20
1631.940380570866
 30
0.0
 11
2641.748145013391
 21
2005.5403805658659
 31
0.0
  0
LINE
  5
21D3
  8
OUTLINE
 10
2763.5481450133898
 20
1643.938240834864
 30
0.0
 11
2641.748145013391
 21
1643.938240834864
 31
0.0
  0
LINE
  5
21D8
  8
OUTLINE
 10
2748.5481450133911
 20
1644.738240834866
 30
0.0
 11
2748.5481450133911
 21
1992.7425203018649
 31
0.0
  0
LINE
  5
221C
  8
OUTLINE
 10
1610.6378912555119
 20
838.31483218247661
 30
0.0
 11
1610.6378912555119
 21
1063.314832182476
 31
0.0
  0
LINE
  5
2249
  8
OUTLINE
 10
2260.6378912555128
 20
1063.312813768928
 30
0.0
 11
2210.332158754597
 21
1063.312813768928
 31
0.0
  0
LINE
  5
224A
  8
OUTLINE
 10
2260.6378912555128
 20
1063.312813768928
 30
0.0
 11
2200.6378912555128
 21
1063.312813768928
 31
0.0
  0
LINE
  5
224F
  8
OUTLINE
 10
2260.6378912555128
 20
1063.312813768928
 30
0.0
 11
2260.6378912555128
 21
730.31281376892593
 31
0.0
  0
LINE
  5
2250
  8
OUTLINE
 10
2260.6378912555119
 20
730.31281376892514
 30
0.0
 11
2210.332158754597
 21
730.31281376892514
 31
0.0
  0
LINE
  5
2251
  8
OUTLINE
 10
2260.6378912555119
 20
730.31281376892582
 30
0.0
 11
2200.6378912555119
 21
730.31281376892514
 31
0.0
  0
LINE
  5
2256
  8
OUTLINE
 10
1610.6378912555119
 20
1062.3148321824769
 30
0.0
 11
1671.6378912555119
 21
1062.3148321824769
 31
0.0
  0
LINE
  5
2257
  8
OUTLINE
 10
1610.6378912555119
 20
1063.314832182476
 30
0.0
 11
1670.6378912555119
 21
1063.314832182476
 31
0.0
  0
LINE
  5
225B
  8
OUTLINE
 10
1610.6378912555119
 20
839.31483218247615
 30
0.0
 11
1671.6378912555119
 21
839.31483218247604
 31
0.0
  0
LINE
  5
225C
  8
OUTLINE
 10
1610.6378912555119
 20
838.31483218247638
 30
0.0
 11
1670.6378912555119
 21
838.31483218247638
 31
0.0
  0
ARC
  5
2260
  8
OUTLINE
 10
1978.8378912555129
 20
695.11281376892612
 30
0.0
 40
12.699999999999999
 50
270.0
 51
90.0
  0
ARC
  5
2261
  8
OUTLINE
 10
1978.837891255519
 20
695.11281376892612
 30
0.0
 40
12.699999999999999
 50
90.0
 51
270.0
  0
POLYLINE
  5
237A
  8
OUTLINE
 66
     1
 10
0.0
 20
0.0
 30
0.0
  0
VERTEX
  5
3E4C
  8
OUTLINE
 10
1709.1378912555119
 20
1092.1128137689241
 30
0.0
  0
VERTEX
  5
3E4D
  8
OUTLINE
 10
2162.1378912555128
 20
1092.1128137689241
 30
0.0
  0
SEQEND
  5
3E4E
  8
OUTLINE
  0
POLYLINE
  5
237D
  8
OUTLINE
 66
     1
 10
0.0
 20
0.0
 30
0.0
 70
     1
  0
VERTEX
  5
3E4F
  8
OUTLINE
 10
2860.3481450133891
 20
730.31281376892582
 30
0.0
  0
VERTEX
  5
3E50
  8
OUTLINE
 10
3520.3481450133918
 20
730.31281376892582
 30
0.0
  0
VERTEX
  5
3E51
  8
OUTLINE
 10
3520.3481450133918
 20
1063.312813768925
 30
0.0
  0
VERTEX
  5
3E52
  8
OUTLINE
 10
2860.3481450133891
 20
1063.312813768925
 30
0.0
  0
SEQEND
  5
3E53
  8
OUTLINE
  0
LINE
  5
2389
  8
OUTLINE
 10
1743.434694398786
 20
1054.67222883199
 30
0.0
 11
2117.034694393787
 21
1054.6722288319879
 31
0.0
  0
LINE
  5
238A
  8
OUTLINE
 10
2117.034694393787
 20
749.67222883198872
 30
0.0
 11
1743.434694398786
 21
749.67222883198963
 31
0.0
  0
LINE
  5
23BA
  8
OUTLINE
 10
1743.434694398786
 20
1054.67222883199
 30
0.0
 11
1743.434694398786
 21
749.67222883198963
 31
0.0
  0
LINE
  5
23BB
  8
OUTLINE
 10
2117.034694393787
 20
1054.6722288319879
 30
0.0
 11
2117.034694393787
 21
749.67222883198872
 31
0.0
  0
POLYLINE
  5
23BC
  8
OUTLINE
 66
     1
 10
0.0
 20
0.0
 30
0.0
  0
VERTEX
  5
3E54
  8
OUTLINE
 10
2190.1378912555119
 20
1092.1128137689241
 30
0.0
  0
VERTEX
  5
3E55
  8
OUTLINE
 10
2200.3878912555128
 20
1092.1128137689241
 30
0.0
  0
VERTEX
  5
3E56
  8
OUTLINE
 10
2200.3878912555128
 20
672.11281376892452
 30
0.0
  0
VERTEX
  5
3E57
  8
OUTLINE
 10
1670.3878912555119
 20
672.11281376892452
 30
0.0
  0
VERTEX
  5
3E58
  8
OUTLINE
 10
1670.3878912555119
 20
1092.1128137689241
 30
0.0
  0
VERTEX
  5
3E59
  8
OUTLINE
 10
1681.1378912555131
 20
1092.1128137689241
 30
0.0
  0
SEQEND
  5
3E5A
  8
OUTLINE
  0
LINE
  5
23BF
  8
DIM
 62
     7
 10
3520.3481450133891
 20
1469.5403805683659
 30
0.0
 11
3520.3481450133891
 21
1406.3439056934219
 31
0.0
  0
LINE
  5
23C0
  8
DIM
 62
     7
 10
2860.34814501339
 20
1469.5403805683659
 30
0.0
 11
2860.34814501339
 21
1406.3439056934219
 31
0.0
  0
LINE
  5
23C1
  8
DIM
 62
     7
 10
3490.3481450133868
 20
1426.3439056934219
 30
0.0
 11
3248.919573584817
 21
1426.3439056934219
 31
0.0
  0
LINE
  5
23C2
  8
DIM
 62
     7
 10
2890.34814501339
 20
1426.3439056934219
 30
0.0
 11
3131.7767164419602
 21
1426.3439056934219
 31
0.0
  0
SOLID
  5
23C3
  8
DIM
 62
     7
 10
3490.3481450133868
 20
1431.3439056934219
 30
0.0
 11
3490.3481450133868
 21
1421.3439056934219
 31
0.0
 12
3520.3481450133891
 22
1426.3439056934219
 32
0.0
 13
3520.3481450133891
 23
1426.3439056934219
 33
0.0
  0
SOLID
  5
23C4
  8
DIM
 62
     7
 10
2890.34814501339
 20
1431.3439056934219
 30
0.0
 11
2890.34814501339
 21
1421.3439056934219
 31
0.0
 12
2860.34814501339
 22
1426.3439056934219
 32
0.0
 13
2860.34814501339
 23
1426.3439056934219
 33
0.0
  0
INSERT
  5
23C5
  8
OUTLINE
  2
*U11
 10
0.0
 20
0.0
 30
0.0
  0
LINE
  5
23E7
  8
DIM
 62
     7
 10
3587.3481450133918
 20
1548.9403805683651
 30
0.0
 11
3748.6003672639258
 21
1548.9403805683651
 31
0.0
  0
LINE
  5
23E8
  8
DIM
 62
     7
 10
3587.3481450133918
 20
2078.9403805683651
 30
0.0
 11
3748.6003672639258
 21
2078.9403805683651
 31
0.0
  0
LINE
  5
23E9
  8
DIM
 62
     7
 10
3728.6003672639258
 20
1578.9403805683651
 30
0.0
 11
3728.6003672639258
 21
1761.797523425508
 31
0.0
  0
LINE
  5
23EA
  8
DIM
 62
     7
 10
3728.6003672639258
 20
2048.940380568366
 30
0.0
 11
3728.6003672639258
 21
1866.0832377112231
 31
0.0
  0
SOLID
  5
23EB
  8
DIM
 62
     7
 10
3723.6003672639258
 20
1578.9403805683651
 30
0.0
 11
3733.6003672639258
 21
1578.9403805683651
 31
0.0
 12
3728.6003672639258
 22
1548.9403805683651
 32
0.0
 13
3728.6003672639258
 23
1548.9403805683651
 33
0.0
  0
SOLID
  5
23EC
  8
DIM
 62
     7
 10
3723.6003672639258
 20
2048.940380568366
 30
0.0
 11
3733.6003672639258
 21
2048.940380568366
 31
0.0
 12
3728.6003672639258
 22
2078.9403805683651
 32
0.0
 13
3728.6003672639258
 23
2078.9403805683651
 33
0.0
  0
INSERT
  5
23ED
  8
DIM
  2
*U17
 10
0.0
 20
0.0
 30
0.0
  0
LINE
  5
23EE
  8
DIM
 62
     7
 10
3443.9481450133949
 20
2158.1403805683672
 30
0.0
 11
3443.9481450133949
 21
2221.2839354037078
 31
0.0
  0
LINE
  5
23EF
  8
DIM
 62
     7
 10
3000.948145013394
 20
2158.1403805683672
 30
0.0
 11
3000.948145013394
 21
2221.2839354037078
 31
0.0
  0
LINE
  5
23F0
  8
DIM
 62
     7
 10
3413.9481450133949
 20
2201.2839354037078
 30
0.0
 11
3252.0910021562522
 21
2201.2839354037078
 31
0.0
  0
LINE
  5
23F1
  8
DIM
 62
     7
 10
3030.9481450133949
 20
2201.2839354037078
 30
0.0
 11
3147.805287870538
 21
2201.2839354037078
 31
0.0
  0
SOLID
  5
23F2
  8
DIM
 62
     7
 10
3413.9481450133949
 20
2206.2839354037078
 30
0.0
 11
3413.9481450133949
 21
2196.2839354037078
 31
0.0
 12
3443.9481450133949
 22
2201.2839354037078
 32
0.0
 13
3443.9481450133949
 23
2201.2839354037078
 33
0.0
  0
SOLID
  5
23F3
  8
DIM
 62
     7
 10
3030.9481450133949
 20
2206.2839354037078
 30
0.0
 11
3030.9481450133949
 21
2196.2839354037078
 31
0.0
 12
3000.948145013394
 22
2201.2839354037078
 32
0.0
 13
3000.948145013394
 23
2201.2839354037078
 33
0.0
  0
INSERT
  5
23F4
  8
OUTLINE
  2
*U18
 10
0.0
 20
0.0
 30
0.0
  0
LINE
  5
23F5
  8
DIM
 10
3135.556138331317
 20
1586.4297746225791
 30
0.0
 11
3164.0887403167021
 21
1618.603007249767
 31
0.0
  0
LINE
  5
23F7
  8
DIM
 10
3174.138714294229
 20
1568.9639737835671
 30
0.0
 11
3154.0387663391748
 21
1568.9639737835671
 31
0.0
  0
LINE
  5
23F8
  8
DIM
 10
3154.0387663391748
 20
1568.9639737835671
 30
0.0
 11
3154.0387663391748
 21
1586.42977462258
 31
0.0
  0
LINE
  5
23F9
  8
DIM
 10
3154.0387663391748
 20
1586.42977462258
 30
0.0
 11
3135.556138331317
 21
1586.4297746225791
 31
0.0
  0
LINE
  5
23FD
  8
DIM
 10
3192.6213423020858
 20
1586.4297746225791
 30
0.0
 11
3164.0887403167021
 21
1618.603007249767
 31
0.0
  0
LINE
  5
23FE
  8
DIM
 10
3174.138714294229
 20
1568.9639737835671
 30
0.0
 11
3174.138714294229
 21
1586.42977462258
 31
0.0
  0
LINE
  5
23FF
  8
DIM
 10
3174.138714294229
 20
1586.42977462258
 30
0.0
 11
3192.6213423020858
 21
1586.4297746225791
 31
0.0
  0
LINE
  5
2400
  8
DIM
 10
3170.5797081140058
 20
2039.8008953030201
 30
0.0
 11
3199.11231009939
 21
2071.974127930207
 31
0.0
  0
LINE
  5
2401
  8
DIM
 10
3209.1622840769178
 20
2022.3350944640081
 30
0.0
 11
3189.0623361218632
 21
2022.3350944640081
 31
0.0
  0
LINE
  5
2402
  8
DIM
 10
3189.0623361218632
 20
2022.3350944640081
 30
0.0
 11
3189.0623361218632
 21
2039.8008953030201
 31
0.0
  0
LINE
  5
2403
  8
DIM
 10
3189.0623361218632
 20
2039.8008953030201
 30
0.0
 11
3170.5797081140058
 21
2039.8008953030201
 31
0.0
  0
LINE
  5
2404
  8
DIM
 10
3227.6449120847742
 20
2039.8008953030201
 30
0.0
 11
3199.11231009939
 21
2071.974127930207
 31
0.0
  0
LINE
  5
2405
  8
DIM
 10
3209.1622840769178
 20
2022.3350944640081
 30
0.0
 11
3209.1622840769178
 21
2039.8008953030201
 31
0.0
  0
LINE
  5
2406
  8
DIM
 10
3209.1622840769178
 20
2039.8008953030201
 30
0.0
 11
3227.6449120847742
 21
2039.8008953030201
 31
0.0
  0
LINE
  5
2407
  8
DIM
 10
2162.9409008725161
 20
895.10415154969814
 30
0.0
 11
2130.767668245328
 21
923.63675353508245
 31
0.0
  0
LINE
  5
2408
  8
DIM
 10
2180.406701711529
 20
933.68672751260954
 30
0.0
 11
2180.406701711529
 21
913.58677955755525
 31
0.0
  0
LINE
  5
2409
  8
DIM
 10
2180.406701711529
 20
913.58677955755525
 30
0.0
 11
2162.9409008725161
 21
913.58677955755525
 31
0.0
  0
LINE
  5
240A
  8
DIM
 10
2162.9409008725161
 20
913.58677955755525
 30
0.0
 11
2162.9409008725161
 21
895.10415154969814
 31
0.0
  0
LINE
  5
240B
  8
DIM
 10
2162.9409008725161
 20
952.1693555204663
 30
0.0
 11
2130.767668245328
 21
923.63675353508245
 31
0.0
  0
LINE
  5
240C
  8
DIM
 10
2180.406701711529
 20
933.68672751260954
 30
0.0
 11
2162.9409008725161
 21
933.68672751260954
 31
0.0
  0
LINE
  5
240D
  8
DIM
 10
2162.9409008725161
 20
933.68672751260954
 30
0.0
 11
2162.9409008725161
 21
952.1693555204663
 31
0.0
  0
LINE
  5
240E
  8
DIM
 10
1572.6605969335001
 20
918.04038818091158
 30
0.0
 11
1540.487364306312
 21
946.57299016629599
 31
0.0
  0
LINE
  5
240F
  8
DIM
 10
1590.1263977725121
 20
956.62296414382229
 30
0.0
 11
1590.1263977725121
 21
936.52301618876845
 31
0.0
  0
LINE
  5
2410
  8
DIM
 10
1590.1263977725121
 20
936.52301618876845
 30
0.0
 11
1572.6605969335001
 21
936.52301618876845
 31
0.0
  0
LINE
  5
2411
  8
DIM
 10
1572.6605969335001
 20
936.52301618876845
 30
0.0
 11
1572.6605969335001
 21
918.04038818091158
 31
0.0
  0
LINE
  5
2412
  8
DIM
 10
1572.6605969335001
 20
975.10559215167984
 30
0.0
 11
1540.487364306312
 21
946.57299016629599
 31
0.0
  0
LINE
  5
2413
  8
DIM
 10
1590.1263977725121
 20
956.62296414382229
 30
0.0
 11
1572.6605969335001
 21
956.62296414382229
 31
0.0
  0
LINE
  5
2414
  8
DIM
 10
1572.6605969335001
 20
956.62296414382229
 30
0.0
 11
1572.6605969335001
 21
975.10559215167984
 31
0.0
  0
LINE
  5
2421
  8
DIM
 62
     7
 10
2220.3878912555128
 20
1092.1128137689241
 30
0.0
 11
2444.9361722998001
 21
1092.1128137689241
 31
0.0
  0
LINE
  5
2422
  8
DIM
 62
     7
 10
2220.3878912555128
 20
672.11281376892452
 30
0.0
 11
2444.9361722997992
 21
672.11281376892452
 31
0.0
  0
LINE
  5
2423
  8
DIM
 62
     7
 10
2424.9361722998001
 20
1062.1128137689241
 30
0.0
 11
2424.9361722998001
 21
934.25567091178164
 31
0.0
  0
LINE
  5
2424
  8
DIM
 62
     7
 10
2424.9361722998001
 20
702.11281376892452
 30
0.0
 11
2424.9361722998001
 21
829.96995662606719
 31
0.0
  0
SOLID
  5
2425
  8
DIM
 62
     7
 10
2419.9361722998001
 20
1062.1128137689241
 30
0.0
 11
2429.9361722998001
 21
1062.1128137689241
 31
0.0
 12
2424.9361722998001
 22
1092.1128137689241
 32
0.0
 13
2424.9361722998001
 23
1092.1128137689241
 33
0.0
  0
SOLID
  5
2426
  8
DIM
 62
     7
 10
2419.9361722998001
 20
702.11281376892452
 30
0.0
 11
2429.9361722998001
 21
702.11281376892452
 31
0.0
 12
2424.9361722998001
 22
672.11281376892452
 32
0.0
 13
2424.9361722998001
 23
672.11281376892452
 33
0.0
  0
INSERT
  5
2427
  8
DIM
  2
*U20
 10
0.0
 20
0.0
 30
0.0
  0
TEXT
  5
2428
  8
TEXT
 10
3336.7224645191991
 20
336.77945357000038
 30
0.0
 40
40.0
  1
ISD 83K
  7
TITLE5
 72
     1
 11
3452.9129407096748
 21
336.77945357000038
 31
0.0
  0
TEXT
  5
2429
  8
TEXT
 10
3521.559671353104
 20
55.588186641848552
 30
0.0
 40
20.0
  1
ISD 83K
 41
1.9967213114754101
  7
TITLE3
 72
     5
 11
3753.559671353104
 21
55.588186641848552
 31
0.0
  0
TEXT
  5
242A
  8
TEXT
 10
3369.5596713531031
 20
87.588186641848566
 30
0.0
 40
20.0
  1
26-01-10
 41
0.8506329113924112
  7
TITLE3
 72
     5
 11
3497.559671353104
 21
87.588186641848566
 31
0.0
  0
TEXT
  5
242C
  8
TEXT
 10
3166.9727316654999
 20
33.970715496832973
 30
0.0
 40
20.0
  1
1:10
  7
TITLE3
  0
LINE
  5
242D
  8
OUTLINE
 10
2763.3481450133918
 20
1548.9403805683651
 30
0.0
 11
3567.3481450133918
 21
1548.9403805683651
 31
0.0
  0
LINE
  5
242E
  8
OUTLINE
 10
3567.3481450133918
 20
1548.9403805683651
 30
0.0
 11
3567.3481450133918
 21
2078.9403805683651
 31
0.0
  0
LINE
  5
242F
  8
OUTLINE
 10
3567.3481450133918
 20
2078.9403805683651
 30
0.0
 11
2763.3481450133918
 21
2078.9403805683651
 31
0.0
  0
LINE
  5
2430
  8
OUTLINE
 10
2763.3481450133918
 20
2078.9403805683651
 30
0.0
 11
2763.3481450133918
 21
1548.9403805683651
 31
0.0
  0
LINE
  5
2431
  8
OUTLINE
 10
2763.3481450133918
 20
1092.1128137689241
 30
0.0
 11
3566.3481450133881
 21
1092.1128137689241
 31
0.0
  0
LINE
  5
2432
  8
OUTLINE
 10
3566.3481450133881
 20
1092.1128137689241
 30
0.0
 11
3566.3481450133881
 21
671.31281376892582
 31
0.0
  0
LINE
  5
2433
  8
OUTLINE
 10
3566.3481450133881
 20
671.31281376892582
 30
0.0
 11
2763.3481450133918
 21
671.31281376892582
 31
0.0
  0
LINE
  5
2434
  8
OUTLINE
 10
2763.3481450133918
 20
671.31281376892582
 30
0.0
 11
2763.3481450133918
 21
1092.1128137689241
 31
0.0
  0
LINE
  5
2435
  8
DIM
  6
PHANTOM
 10
2263.3481450133918
 20
2078.9403805683651
 30
0.0
 11
2263.3481450133918
 21
1548.9403805683651
 31
0.0
  0
LINE
  5
2438
  8
DIM
  6
PHANTOM
 10
2263.3481450133918
 20
2078.9403805683651
 30
0.0
 11
2749.7691398260022
 21
2078.9403805683651
 31
0.0
  0
LINE
  5
2439
  8
DIM
  6
PHANTOM
 10
2263.3481450133918
 20
1548.9403805683651
 30
0.0
 11
2749.7691398260022
 21
1548.9403805683651
 31
0.0
  0
TEXT
  5
243A
  8
DIM
 10
2234.2045324545438
 20
1606.4650988179351
 30
0.0
 40
25.0
  1
500 mm CLEARENCE
 50
90.0
  7
TITLE3
  0
POLYLINE
  5
243C
  8
OUTLINE
 66
     1
 10
0.0
 20
0.0
 30
0.0
 70
     1
  0
VERTEX
  5
3E5B
  8
OUTLINE
 10
3890.000000000156
 20
0.0
 30
0.0
  0
VERTEX
  5
3E5C
  8
OUTLINE
 10
1402.190120252131
 20
0.0
 30
0.0
  0
VERTEX
  5
3E5D
  8
OUTLINE
 10
1402.190120252131
 20
2343.7053395651901
 30
0.0
  0
VERTEX
  5
3E5E
  8
OUTLINE
 10
3890.000000000156
 20
2343.7053395651901
 30
0.0
  0
SEQEND
  5
3E5F
  8
OUTLINE
  0
LINE
  5
243D
  8
DIM
 62
     7
 10
2280.6378912555128
 20
730.31281376892593
 30
0.0
 11
2335.6449857168768
 21
730.31281376892582
 31
0.0
  0
LINE
  5
243E
  8
DIM
 62
     7
 10
2280.6378912555128
 20
1063.312813768928
 30
0.0
 11
2335.6449857168791
 21
1063.312813768928
 31
0.0
  0
LINE
  5
243F
  8
DIM
 62
     7
 10
2315.6449857168768
 20
760.31281376892582
 30
0.0
 11
2315.6449857168768
 21
844.66995662606985
 31
0.0
  0
LINE
  5
2440
  8
DIM
 62
     7
 10
2315.6449857168782
 20
1033.312813768928
 30
0.0
 11
2315.6449857168768
 21
948.95567091178395
 31
0.0
  0
SOLID
  5
2441
  8
DIM
 62
     7
 10
2310.6449857168768
 20
760.31281376892582
 30
0.0
 11
2320.6449857168782
 21
760.31281376892582
 31
0.0
 12
2315.6449857168768
 22
730.31281376892582
 32
0.0
 13
2315.6449857168768
 23
730.31281376892582
 33
0.0
  0
SOLID
  5
2442
  8
DIM
 62
     7
 10
2310.6449857168782
 20
1033.312813768928
 30
0.0
 11
2320.6449857168782
 21
1033.312813768928
 31
0.0
 12
2315.6449857168782
 22
1063.312813768928
 32
0.0
 13
2315.6449857168782
 23
1063.312813768928
 33
0.0
  0
INSERT
  5
2443
  8
OUTLINE
  2
*U21
 10
0.0
 20
0.0
 30
0.0
  0
LINE
  5
2444
  8
DIM
 62
     7
 10
1590.6378912555119
 20
1063.314832182476
 30
0.0
 11
1479.429728971028
 21
1063.3148321824769
 31
0.0
  0
LINE
  5
2445
  8
DIM
 62
     7
 10
1590.6378912555131
 20
838.31483218247661
 30
0.0
 11
1479.429728971028
 21
838.31483218247661
 31
0.0
  0
LINE
  5
2446
  8
DIM
 62
     7
 10
1499.429728971028
 20
1033.314832182476
 30
0.0
 11
1499.429728971028
 21
1002.9576893253339
 31
0.0
  0
LINE
  5
2447
  8
DIM
 62
     7
 10
1499.429728971028
 20
868.31483218247661
 30
0.0
 11
1499.429728971028
 21
898.6719750396195
 31
0.0
  0
SOLID
  5
2448
  8
DIM
 62
     7
 10
1494.429728971028
 20
1033.314832182476
 30
0.0
 11
1504.429728971028
 21
1033.314832182476
 31
0.0
 12
1499.429728971028
 22
1063.3148321824769
 32
0.0
 13
1499.429728971028
 23
1063.3148321824769
 33
0.0
  0
SOLID
  5
2449
  8
DIM
 62
     7
 10
1494.429728971028
 20
868.31483218247661
 30
0.0
 11
1504.429728971028
 21
868.31483218247661
 31
0.0
 12
1499.429728971028
 22
838.31483218247661
 32
0.0
 13
1499.429728971028
 23
838.31483218247661
 33
0.0
  0
INSERT
  5
244A
  8
OUTLINE
  2
*U22
 10
0.0
 20
0.0
 30
0.0
  0
TEXT
  5
288B
  8
DIM
 10
2710.8261368834578
 20
1706.975854538875
 30
0.0
 40
25.0
  1
ELECT. BOX
 50
90.0
  7
TITLE3
  0
INSERT
  5
3649
  8
TEXT
  2
NEW_BLOCK
 10
1417.131468549326
 20
17.418961921217459
 30
0.0
 41
0.8399999999996906
 42
0.8400000000001455
 43
0.84
  0
LINE
  5
3BBA
  8
DIM
 62
     7
 10
1610.6378912555119
 20
1083.314832182476
 30
0.0
 11
1610.6378912555119
 21
1212.862816691629
 31
0.0
  0
LINE
  5
3BBB
  8
DIM
 62
     7
 10
2260.6378912555128
 20
1083.312813768928
 30
0.0
 11
2260.6378912555128
 21
1212.862816691629
 31
0.0
  0
LINE
  5
3BBC
  8
DIM
 62
     7
 10
1640.6378912555119
 20
1192.862816691629
 30
0.0
 11
1884.3878912555119
 21
1192.862816691629
 31
0.0
  0
LINE
  5
3BBD
  8
DIM
 62
     7
 10
2230.6378912555128
 20
1192.862816691629
 30
0.0
 11
1986.8878912555119
 21
1192.862816691629
 31
0.0
  0
SOLID
  5
3BBE
  8
DIM
 62
     7
 10
1640.6378912555119
 20
1197.862816691629
 30
0.0
 11
1640.6378912555119
 21
1187.862816691629
 31
0.0
 12
1610.6378912555119
 22
1192.862816691629
 32
0.0
 13
1610.6378912555119
 23
1192.862816691629
 33
0.0
  0
SOLID
  5
3BBF
  8
DIM
 62
     7
 10
2230.6378912555128
 20
1197.862816691629
 30
0.0
 11
2230.6378912555128
 21
1187.862816691629
 31
0.0
 12
2260.6378912555128
 22
1192.862816691629
 32
0.0
 13
2260.6378912555128
 23
1192.862816691629
 33
0.0
  0
INSERT
  5
3BC0
  8
DIM
  2
*U25
 10
0.0
 20
0.0
 30
0.0
  0
LINE
  5
4004
  8
OUTLINE
 10
2763.3481450133918
 20
1010.812813768925
 30
0.0
 11
2760.8481450133932
 21
1010.812813768925
 31
0.0
  0
LINE
  5
4009
  8
DIM
 62
     7
 10
2763.3481450133918
 20
1112.1128137689241
 30
0.0
 11
2763.3481450133918
 21
1162.42075572259
 31
0.0
  0
LINE
  5
400A
  8
DIM
 62
     7
 10
3566.3481450133881
 20
1112.1128137689241
 30
0.0
 11
3566.3481450133881
 21
1162.42075572259
 31
0.0
  0
LINE
  5
400B
  8
DIM
 62
     7
 10
2793.3481450133918
 20
1142.42075572259
 30
0.0
 11
3113.59814501339
 21
1142.42075572259
 31
0.0
  0
LINE
  5
400C
  8
DIM
 62
     7
 10
3536.3481450133881
 20
1142.42075572259
 30
0.0
 11
3216.09814501339
 21
1142.42075572259
 31
0.0
  0
SOLID
  5
400D
  8
DIM
 62
     7
 10
2793.3481450133918
 20
1147.4207557225909
 30
0.0
 11
2793.3481450133918
 21
1137.42075572259
 31
0.0
 12
2763.3481450133918
 22
1142.42075572259
 32
0.0
 13
2763.3481450133918
 23
1142.42075572259
 33
0.0
  0
SOLID
  5
400E
  8
DIM
 62
     7
 10
3536.3481450133881
 20
1147.4207557225909
 30
0.0
 11
3536.3481450133881
 21
1137.42075572259
 31
0.0
 12
3566.3481450133881
 22
1142.42075572259
 32
0.0
 13
3566.3481450133881
 23
1142.42075572259
 33
0.0
  0
INSERT
  5
4018
  8
DIM
  2
*U26
 10
0.0
 20
0.0
 30
0.0
  0
LINE
  5
4019
  8
DIM
 62
     7
 10
2643.3481450133918
 20
1074.672228831985
 30
0.0
 11
2643.3481450133918
 21
1219.589053114694
 31
0.0
  0
LINE
  5
401A
  8
DIM
 62
     7
 10
3566.3481450133881
 20
1112.1128137689241
 30
0.0
 11
3566.3481450133881
 21
1219.589053114694
 31
0.0
  0
LINE
  5
401B
  8
DIM
 62
     7
 10
2673.3481450133918
 20
1199.589053114694
 30
0.0
 11
3052.7052878705331
 21
1199.589053114694
 31
0.0
  0
LINE
  5
401C
  8
DIM
 62
     7
 10
3536.3481450133881
 20
1199.589053114694
 30
0.0
 11
3156.9910021562482
 21
1199.589053114694
 31
0.0
  0
SOLID
  5
401D
  8
DIM
 62
     7
 10
2673.3481450133918
 20
1204.589053114694
 30
0.0
 11
2673.3481450133918
 21
1194.589053114694
 31
0.0
 12
2643.3481450133918
 22
1199.589053114694
 32
0.0
 13
2643.3481450133918
 23
1199.589053114694
 33
0.0
  0
SOLID
  5
401E
  8
DIM
 62
     7
 10
3536.3481450133881
 20
1204.589053114694
 30
0.0
 11
3536.3481450133881
 21
1194.589053114694
 31
0.0
 12
3566.3481450133881
 22
1199.589053114694
 32
0.0
 13
3566.3481450133881
 23
1199.589053114694
 33
0.0
  0
INSERT
  5
401F
  8
DIM
  2
*U27
 10
0.0
 20
0.0
 30
0.0
  0
ENDSEC
  0
EOF
