  0
SECTION
  2
HEADER
  9
$ACADVER
  1
AC1015
  9
$ACADMAINTVER
 70
    20
  9
$DWGCODEPAGE
  3
ANSI_1252
  9
$INSBASE
 10
0.0
 20
0.0
 30
0.0
  9
$EXTMIN
 10
-741.2755417456219
 20
-0.3558578775973729
 30
0.0
  9
$EXTMAX
 10
6064.422023467595
 20
6733.982577544416
 30
0.0
  9
$LIMMIN
 10
0.0
 20
0.0
  9
$LIMMAX
 10
7780.0
 20
5320.0
  9
$ORTHOMODE
 70
     1
  9
$REGENMODE
 70
     1
  9
$FILLMODE
 70
     1
  9
$QTEXTMODE
 70
     0
  9
$MIRRTEXT
 70
     0
  9
$LTSCALE
 40
180.0
  9
$ATTMODE
 70
     1
  9
$TEXTSIZE
 40
60.0
  9
$TRACEWID
 40
0.05
  9
$TEXTSTYLE
  7
TITLE3
  9
$CLAYER
  8
OUTLINE
  9
$CELTYPE
  6
ByLayer
  9
$CECOLOR
 62
   256
  9
$CELTSCALE
 40
1.0
  9
$DISPSILH
 70
     0
  9
$DIMSCALE
 40
1.0
  9
$DIMASZ
 40
0.12
  9
$DIMEXO
 40
0.05
  9
$DIMDLI
 40
0.5
  9
$DIMRND
 40
0.0
  9
$DIMDLE
 40
0.0
  9
$DIMEXE
 40
0.1
  9
$DIMTP
 40
0.1
  9
$DIMTM
 40
0.1
  9
$DIMTXT
 40
0.12
  9
$DIMCEN
 40
0.0
  9
$DIMTSZ
 40
0.0
  9
$DIMTOL
 70
     0
  9
$DIMLIM
 70
     0
  9
$DIMTIH
 70
     1
  9
$DIMTOH
 70
     1
  9
$DIMSE1
 70
     0
  9
$DIMSE2
 70
     0
  9
$DIMTAD
 70
     0
  9
$DIMZIN
 70
     7
  9
$DIMBLK
  1

  9
$DIMASO
 70
     0
  9
$DIMSHO
 70
     0
  9
$DIMPOST
  1

  9
$DIMAPOST
  1
mm
  9
$DIMALT
 70
     0
  9
$DIMALTD
 70
     2
  9
$DIMALTF
 40
25.4
  9
$DIMLFAC
 40
1.0
  9
$DIMTOFL
 70
     0
  9
$DIMTVP
 40
0.0
  9
$DIMTIX
 70
     0
  9
$DIMSOXD
 70
     0
  9
$DIMSAH
 70
     0
  9
$DIMBLK1
  1

  9
$DIMBLK2
  1

  9
$DIMSTYLE
  2
AM_ANSI
  9
$DIMCLRD
 70
   256
  9
$DIMCLRE
 70
   256
  9
$DIMCLRT
 70
     2
  9
$DIMTFAC
 40
0.71
  9
$DIMGAP
 40
0.06
  9
$DIMJUST
 70
     0
  9
$DIMSD1
 70
     0
  9
$DIMSD2
 70
     0
  9
$DIMTOLJ
 70
     1
  9
$DIMTZIN
 70
     7
  9
$DIMALTZ
 70
     0
  9
$DIMALTTZ
 70
     0
  9
$DIMUPT
 70
     0
  9
$DIMDEC
 70
     4
  9
$DIMTDEC
 70
     4
  9
$DIMALTU
 70
     2
  9
$DIMALTTD
 70
     4
  9
$DIMTXSTY
  7
STANDARD
  9
$DIMAUNIT
 70
     0
  9
$DIMADEC
 70
     0
  9
$DIMALTRND
 40
0.0
  9
$DIMAZIN
 70
     2
  9
$DIMDSEP
 70
    46
  9
$DIMATFIT
 70
     3
  9
$DIMFRAC
 70
     0
  9
$DIMLDRBLK
  1

  9
$DIMLUNIT
 70
     2
  9
$DIMLWD
 70
    -1
  9
$DIMLWE
 70
    -1
  9
$DIMTMOVE
 70
     0
  9
$LUNITS
 70
     2
  9
$LUPREC
 70
     2
  9
$SKETCHINC
 40
0.1
  9
$FILLETRAD
 40
0.0
  9
$AUNITS
 70
     0
  9
$AUPREC
 70
     2
  9
$MENU
  1
\acad12\support\cnc
  9
$ELEVATION
 40
0.0
  9
$PELEVATION
 40
0.0
  9
$THICKNESS
 40
0.0
  9
$LIMCHECK
 70
     0
  9
$CHAMFERA
 40
0.0
  9
$CHAMFERB
 40
0.0
  9
$CHAMFERC
 40
0.0
  9
$CHAMFERD
 40
0.0
  9
$SKPOLY
 70
     0
  9
$TDCREATE
 40
2450982.501133218
  9
$TDUCREATE
 40
2450981.959466551
  9
$TDUPDATE
 40
2454872.599238993
  9
$TDUUPDATE
 40
2454872.057572326
  9
$TDINDWG
 40
0.4895061227
  9
$TDUSRTIMER
 40
0.4895052431
  9
$USRTIMER
 70
     1
  9
$ANGBASE
 50
0.0
  9
$ANGDIR
 70
     0
  9
$PDMODE
 70
     2
  9
$PDSIZE
 40
1.0
  9
$PLINEWID
 40
0.0
  9
$SPLFRAME
 70
     0
  9
$SPLINETYPE
 70
     6
  9
$SPLINESEGS
 70
     8
  9
$HANDSEED
  5
1D30
  9
$SURFTAB1
 70
     6
  9
$SURFTAB2
 70
     6
  9
$SURFTYPE
 70
     6
  9
$SURFU
 70
     6
  9
$SURFV
 70
     6
  9
$UCSBASE
  2

  9
$UCSNAME
  2

  9
$UCSORG
 10
0.0
 20
0.0
 30
0.0
  9
$UCSXDIR
 10
1.0
 20
0.0
 30
0.0
  9
$UCSYDIR
 10
0.0
 20
1.0
 30
0.0
  9
$UCSORTHOREF
  2

  9
$UCSORTHOVIEW
 70
     0
  9
$UCSORGTOP
 10
0.0
 20
0.0
 30
0.0
  9
$UCSORGBOTTOM
 10
0.0
 20
0.0
 30
0.0
  9
$UCSORGLEFT
 10
0.0
 20
0.0
 30
0.0
  9
$UCSORGRIGHT
 10
0.0
 20
0.0
 30
0.0
  9
$UCSORGFRONT
 10
0.0
 20
0.0
 30
0.0
  9
$UCSORGBACK
 10
0.0
 20
0.0
 30
0.0
  9
$PUCSBASE
  2

  9
$PUCSNAME
  2

  9
$PUCSORG
 10
0.0
 20
0.0
 30
0.0
  9
$PUCSXDIR
 10
1.0
 20
0.0
 30
0.0
  9
$PUCSYDIR
 10
0.0
 20
1.0
 30
0.0
  9
$PUCSORTHOREF
  2

  9
$PUCSORTHOVIEW
 70
     0
  9
$PUCSORGTOP
 10
0.0
 20
0.0
 30
0.0
  9
$PUCSORGBOTTOM
 10
0.0
 20
0.0
 30
0.0
  9
$PUCSORGLEFT
 10
0.0
 20
0.0
 30
0.0
  9
$PUCSORGRIGHT
 10
0.0
 20
0.0
 30
0.0
  9
$PUCSORGFRONT
 10
0.0
 20
0.0
 30
0.0
  9
$PUCSORGBACK
 10
0.0
 20
0.0
 30
0.0
  9
$USERI1
 70
     0
  9
$USERI2
 70
     0
  9
$USERI3
 70
     0
  9
$USERI4
 70
     0
  9
$USERI5
 70
     0
  9
$USERR1
 40
0.0
  9
$USERR2
 40
0.0
  9
$USERR3
 40
0.0
  9
$USERR4
 40
0.0
  9
$USERR5
 40
0.0
  9
$WORLDVIEW
 70
     1
  9
$SHADEDGE
 70
     3
  9
$SHADEDIF
 70
    70
  9
$TILEMODE
 70
     1
  9
$MAXACTVP
 70
    16
  9
$PINSBASE
 10
0.0
 20
0.0
 30
0.0
  9
$PLIMCHECK
 70
     0
  9
$PEXTMIN
 10
1.000000000000000E+20
 20
1.000000000000000E+20
 30
1.000000000000000E+20
  9
$PEXTMAX
 10
-1.000000000000000E+20
 20
-1.000000000000000E+20
 30
-1.000000000000000E+20
  9
$PLIMMIN
 10
0.0
 20
0.0
  9
$PLIMMAX
 10
12.0
 20
9.0
  9
$UNITMODE
 70
     0
  9
$VISRETAIN
 70
     0
  9
$PLINEGEN
 70
     0
  9
$PSLTSCALE
 70
     0
  9
$TREEDEPTH
 70
  3020
  9
$CMLSTYLE
  2
Standard
  9
$CMLJUST
 70
     0
  9
$CMLSCALE
 40
1.0
  9
$PROXYGRAPHICS
 70
     1
  9
$MEASUREMENT
 70
     0
  9
$CELWEIGHT
370
    -1
  9
$ENDCAPS
280
     0
  9
$JOINSTYLE
280
     0
  9
$LWDISPLAY
290
     0
  9
$INSUNITS
 70
     0
  9
$HYPERLINKBASE
  1

  9
$STYLESHEET
  1

  9
$XEDIT
290
     1
  9
$CEPSNTYPE
380
     0
  9
$PSTYLEMODE
290
     1
  9
$FINGERPRINTGUID
  2
{046369CD-C72C-4449-BE16-65164AB9466C}
  9
$VERSIONGUID
  2
{7CCDF96F-6442-4653-83BC-B1DAD84C2D16}
  9
$EXTNAMES
290
     1
  9
$PSVPSCALE
 40
0.0
  9
$OLESTARTUP
290
     0
  0
ENDSEC
  0
SECTION
  2
CLASSES
  0
CLASS
  1
ACDBDICTIONARYWDFLT
  2
AcDbDictionaryWithDefault
  3
ObjectDBX Classes
 90
        0
280
     0
281
     0
  0
CLASS
  1
MATERIAL
  2
AcDbMaterial
  3
ObjectDBX Classes
 90
     1153
280
     0
281
     0
  0
CLASS
  1
VISUALSTYLE
  2
AcDbVisualStyle
  3
ObjectDBX Classes
 90
     4095
280
     0
281
     0
  0
CLASS
  1
SCALE
  2
AcDbScale
  3
ObjectDBX Classes
 90
     1153
280
     0
281
     0
  0
CLASS
  1
TABLESTYLE
  2
AcDbTableStyle
  3
ObjectDBX Classes
 90
     4095
280
     0
281
     0
  0
CLASS
  1
MLEADERSTYLE
  2
AcDbMLeaderStyle
  3
ACDB_MLEADERSTYLE_CLASS
 90
     4095
280
     0
281
     0
  0
CLASS
  1
AMGSETTINGSOBJ
  2
AmgSettingsObj
  3
"AcadM|Product Description: AutoCAD Mechanical|Company: Autodesk, Inc."
 90
     1024
280
     0
281
     0
  0
CLASS
  1
ACME_DOCUMENT
  2
AcMeDbDoc
  3
AcMeServices
 90
     1024
280
     0
281
     0
  0
CLASS
  1
ACMESCOPE
  2
AcMeScope
  3
AcMeServices
 90
     1024
280
     0
281
     0
  0
CLASS
  1
ACMECOMMANDHISTORY
  2
AcMeCommandHistory
  3
AcMeServices
 90
     1024
280
     0
281
     0
  0
CLASS
  1
ACIMSYSVARMAN
  2
AcImSysVarManager
  3
AcMeServices
 90
     1024
280
     0
281
     0
  0
CLASS
  1
ACIMINTSYSVAR
  2
AcImIntSysVar
  3
AcMeServices
 90
     1024
280
     0
281
     0
  0
CLASS
  1
ACMEDRAWINGMAN
  2
AcMeDrawingMan
  3
AcMeServices
 90
     1024
280
     0
281
     0
  0
CLASS
  1
ACMEVIEW
  2
AcMeView
  3
AcMeServices
 90
     1024
280
     0
281
     0
  0
CLASS
  1
ACDBENTITYCACHE
  2
AcMeEntityCache
  3
AcMeServices
 90
     1024
280
     0
281
     0
  0
CLASS
  1
GSMANAGER
  2
AcMeGSManager
  3
AcMeServices
 90
     1024
280
     0
281
     0
  0
CLASS
  1
AMDTINTERNALREACTOR
  2
AmdtInternalReactor
  3
AcMeServices
 90
     1024
280
     0
281
     0
  0
CLASS
  1
ACMESTATEMGR
  2
AcMeStateMgr
  3
AcMeServices
 90
     1024
280
     0
281
     0
  0
CLASS
  1
ACGREFMASTER
  2
AcGrefMaster
  3
AcAttribServices
 90
     1024
280
     0
281
     0
  0
CLASS
  1
AM_DRAWING_MGR
  2
AcDmDwgMgr
  3
AcMechDwgViewMgmt
 90
     1024
280
     0
281
     0
  0
CLASS
  1
AM_DWG_DOCUMENT
  2
AcDmDwgDocument
  3
AcMechDwgViewMgmt
 90
     1024
280
     0
281
     0
  0
CLASS
  1
AM_DWG_SHEET
  2
AcDmSheet
  3
AcMechDwgViewMgmt
 90
     1024
280
     0
281
     0
  0
CLASS
  1
AM_VIEWDIMPARMAP
  2
AcDmViewDimParMap
  3
AcMechDwgViewMgmt
 90
     1024
280
     0
281
     0
  0
CLASS
  1
ACIMREALSYSVAR
  2
AcImRealSysVar
  3
AcMeServices
 90
     1024
280
     0
281
     0
  0
CLASS
  1
AM_DWGMGR_NAME
  2
AcDmDwgMgrName
  3
AcMechDwgViewMgmt
 90
     1024
280
     0
281
     0
  0
CLASS
  1
ACME_DATABASE
  2
AcMeDbDatabase
  3
AcMeServices
 90
     1024
280
     0
281
     0
  0
CLASS
  1
ACRFINSADJUSTERMGR
  2
AcRfInsAdjusterMgr
  3
AcMeServices
 90
     1024
280
     0
281
     0
  0
CLASS
  1
ACGREFACADMASTER
  2
AcGrefacadMaster
  3
AcGrefServices
 90
     1024
280
     0
281
     0
  0
CLASS
  1
AMDTMENUSTATEMGR
  2
AmdtMenuStateMgr
  3
McadcomServices
 90
     1024
280
     0
281
     0
  0
CLASS
  1
AMDTMCOMMENUSTATE
  2
AmdtMcomMenuState
  3
McadcomServices
 90
     1024
280
     0
281
     0
  0
CLASS
  1
AMIMASTER
  2
AmiMaster
  3
AmiServices
 90
     1024
280
     0
281
     0
  0
CLASS
  1
MAPIAMMOUDLE
  2
MApiAmModule
  3
MApiAmServices
 90
     1024
280
     0
281
     0
  0
CLASS
  1
ACIMSTRSYSVAR
  2
AcImStrSysVar
  3
AcMeServices
 90
     1024
280
     0
281
     0
  0
CLASS
  1
AMDTADMENUSTATE
  2
AmdtAdMenuState
  3
DesignerServices
 90
     1024
280
     0
281
     0
  0
CLASS
  1
ADAPPL
  2
AcAdAppl
  3
DesignerServices
 90
     1024
280
     0
281
     0
  0
CLASS
  1
DEPMGR
  2
AcAdDepMgr
  3
DesignerServices
 90
     1024
280
     0
281
     0
  0
CLASS
  1
PARAMMGR
  2
AcAdParamMgr
  3
DesignerServices
 90
     1024
280
     0
281
     0
  0
CLASS
  1
PARAMSCOPE
  2
AcAdParamScope
  3
DesignerServices
 90
     1024
280
     0
281
     0
  0
CLASS
  1
NAMEDAPPL
  2
AcAdNamedAppl
  3
DesignerServices
 90
     1024
280
     0
281
     0
  0
CLASS
  1
AMDTDMMENUSTATE
  2
AmdtDmMenuState
  3
AcMechDwgViewMgmt
 90
     1024
280
     0
281
     0
  0
CLASS
  1
AMDTAMMENUSTATE
  2
AmdtAmMenuState
  3
DesignerAssemblies
 90
     1024
280
     0
281
     0
  0
CLASS
  1
ACAMPROJECT
  2
AcAmProject
  3
DesignerAssemblies
 90
     1024
280
     0
281
     0
  0
CLASS
  1
ACAMGRCOMPDEF
  2
AcAmGrCompDef
  3
DesignerAssemblies
 90
     1024
280
     0
281
     0
  0
CLASS
  1
ACCMCONTEXT
  2
AcCmContext
  3
DesignerAssemblies
 90
     1024
280
     0
281
     0
  0
CLASS
  1
ACAMCOMPDEF
  2
AcAmCompDef
  3
DesignerAssemblies
 90
     1024
280
     0
281
     0
  0
CLASS
  1
ACAMCOMPDEFMGR
  2
AcAmCompDefMgr
  3
DesignerAssemblies
 90
     1024
280
     0
281
     0
  0
CLASS
  1
AMCONTEXTMGR
  2
AcAmContextMgr
  3
DesignerAssemblies
 90
     1024
280
     0
281
     0
  0
CLASS
  1
ACAMCONTEXTMODELER
  2
AcAmContextModeler
  3
DesignerAssemblies
 90
     1024
280
     0
281
     0
  0
CLASS
  1
ACMDATADICTIONARY
  2
AcmDataDictionary
  3
"AcmSymBB|Product Description: AutoCAD Mechanical|Company: Autodesk, Inc."
 90
     1024
280
     0
281
     0
  0
CLASS
  1
CATALOGSTATE
  2
AcAmCatalogState
  3
DesignerAssemblies
 90
     1024
280
     0
281
     0
  0
CLASS
  1
ACAMGRCOMPDEFSET
  2
AcAmGrCompDefSet
  3
DesignerAssemblies
 90
     1024
280
     0
281
     0
  0
CLASS
  1
AMDTBROWSERDBTAB
  2
AmdtBrowserDbTab
  3
McadcomServices
 90
     1024
280
     0
281
     0
  0
CLASS
  1
CBROWSERAPPOBJECT
  2
CBrowserAppObject
  3
McadcomServices
 90
     1024
280
     0
281
     0
  0
CLASS
  1
DM_PLACEHOLDER
  2
AcDmSelsetPlaceholder
  3
AcMechDwgViewMgmt
 90
     1024
280
     0
281
     0
  0
CLASS
  1
EXACXREFPANELOBJECT
  2
ExAcXREFPanelObject
  3
EXAC_ESW
 90
     1025
280
     0
281
     0
  0
CLASS
  1
NPOCOLLECTION
  2
AcDbImpNonPersistentObjectsCollection
  3
ObjectDBX Classes
 90
     1153
280
     0
281
     0
  0
CLASS
  1
ACMSTANDARDANSI
  2
AcmStandardANSI
  3
"Amdt_StdImp|Product Description: AutoCAD Mechanical|Company: Autodesk, Inc."
 90
    33792
280
     0
281
     0
  0
CLASS
  1
ACMSURFSTANDARDANSI
  2
AcmSurfTextStdANSI
  3
"Amdt_StdImp|Product Description: AutoCAD Mechanical|Company: Autodesk, Inc."
 90
    33792
280
     0
281
     0
  0
CLASS
  1
ACMFCFSTANDARDANSI
  2
AcmFCFStdANSI
  3
"Amdt_StdImp|Product Description: AutoCAD Mechanical|Company: Autodesk, Inc."
 90
    33792
280
     0
281
     0
  0
CLASS
  1
ACMWELDSTANDARDANSI
  2
AcmWeldingStdANSI
  3
"Amdt_StdImp|Product Description: AutoCAD Mechanical|Company: Autodesk, Inc."
 90
    33792
280
     0
281
     0
  0
CLASS
  1
ACMIDSTANDARDANSI
  2
AcmIdStdANSI
  3
"Amdt_StdImp|Product Description: AutoCAD Mechanical|Company: Autodesk, Inc."
 90
    33792
280
     0
281
     0
  0
CLASS
  1
ACMDATUMSTANDARDANSI
  2
AcmDatumStdANSI
  3
"Amdt_StdImp|Product Description: AutoCAD Mechanical|Company: Autodesk, Inc."
 90
    33792
280
     0
281
     0
  0
CLASS
  1
ACMBOMSTANDARDANSI
  2
AcmBOMStdANSI
  3
"Amdt_StdImp|Product Description: AutoCAD Mechanical|Company: Autodesk, Inc."
 90
    33792
280
     0
281
     0
  0
CLASS
  1
ACMDETAILSTANDARDANSI
  2
AmdtDetailSymStdANSI
  3
"Amdt_StdImp|Product Description: AutoCAD Mechanical|Company: Autodesk, Inc."
 90
    33792
280
     0
281
     0
  0
CLASS
  1
ACMSECTIONSTANDARDANSI
  2
AmdtSectionSymStdANSI
  3
"Amdt_StdImp|Product Description: AutoCAD Mechanical|Company: Autodesk, Inc."
 90
    33792
280
     0
281
     0
  0
CLASS
  1
ACMCENTERLINESTANDARDANSI
  2
AmdtCenterLineStdANSI
  3
"Amdt_StdImp|Product Description: AutoCAD Mechanical|Company: Autodesk, Inc."
 90
    33792
280
     0
281
     0
  0
CLASS
  1
ACMTHREADLINESTANDARDANSI
  2
AmdtThreadLineStdANSI
  3
"Amdt_StdImp|Product Description: AutoCAD Mechanical|Company: Autodesk, Inc."
 90
    33792
280
     0
281
     0
  0
CLASS
  1
ACMNOTESTANDARDANSI
  2
AmdtNoteStdANSI
  3
"Amdt_StdImp|Product Description: AutoCAD Mechanical|Company: Autodesk, Inc."
 90
    33792
280
     0
281
     0
  0
CLASS
  1
ACMTAPERSTANDARDANSI
  2
AcmTaperStdANSI
  3
"Amdt_StdImp|Product Description: AutoCAD Mechanical|Company: Autodesk, Inc."
 90
    33792
280
     0
281
     0
  0
CLASS
  1
ACMANOOTATIONVIEWSTANDARDANSI
  2
AmdtAnViewStdANSI
  3
"Amdt_StdImp|Product Description: AutoCAD Mechanical|Company: Autodesk, Inc."
 90
    33792
280
     0
281
     0
  0
CLASS
  1
ACAMGLAYSTD
  2
AcAmgLayStd
  3
"AmgLay|Product Description: AutoCAD Mechanical|Company: Autodesk, Inc."
 90
    33792
280
     0
281
     0
  0
CLASS
  1
ACAMGDIMSTD
  2
AcAmgDimStd
  3
"AmgDim|Product Description: AutoCAD Mechanical|Company: Autodesk, Inc."
 90
    33792
280
     0
281
     0
  0
CLASS
  1
ACAMGHOLECHARTSTDANSI
  2
AcAmgHoleChartStdANSI
  3
AmgDim|Product Description: AutoCAD Mechanical|Company: Autodesk, Inc.
 90
    33792
280
     0
281
     0
  0
CLASS
  1
AMGOBJPROPCFG
  2
AmgObjPropCfg
  3
"AmgLay|Product Description: AutoCAD Mechanical|Company: Autodesk, Inc."
 90
     1025
280
     0
281
     0
  0
CLASS
  1
ACAMGTITLESTD
  2
AcAmgTitleStd
  3
"AmgTitle|Product Description: AutoCAD Mechanical|Company: Autodesk, Inc."
 90
    36863
280
     0
281
     0
  0
CLASS
  1
AMDTNOTETEMPLATEDB
  2
AmdtNoteTemplateDB
  3
AcmSymBB|Product Description: AutoCAD Mechanical|Company: Autodesk, Inc.
 90
    33792
280
     0
281
     0
  0
CLASS
  1
ACAMGFILTERDAT
  2
AcAmgFilterDat
  3
"AcadM|Product Description: AutoCAD Mechanical|Company: Autodesk, Inc."
 90
    33792
280
     0
281
     0
  0
CLASS
  1
CELLSTYLEMAP
  2
AcDbCellStyleMap
  3
ObjectDBX Classes
 90
     1152
280
     0
281
     0
  0
CLASS
  1
DICTIONARYVAR
  2
AcDbDictionaryVar
  3
ObjectDBX Classes
 90
        0
280
     0
281
     0
  0
CLASS
  1
SORTENTSTABLE
  2
AcDbSortentsTable
  3
ObjectDBX Classes
 90
        0
280
     0
281
     0
  0
CLASS
  1
ACDBPLACEHOLDER
  2
AcDbPlaceHolder
  3
ObjectDBX Classes
 90
        0
280
     0
281
     0
  0
CLASS
  1
LAYOUT
  2
AcDbLayout
  3
ObjectDBX Classes
 90
        0
280
     0
281
     0
  0
ENDSEC
  0
SECTION
  2
TABLES
  0
TABLE
  2
VPORT
  5
19B8
102
{ACAD_XDICTIONARY
360
1CAB
102
}
330
0
100
AcDbSymbolTable
 70
     1
  0
VPORT
  5
1A2A
330
19B8
100
AcDbSymbolTableRecord
100
AcDbViewportTableRecord
  2
*ACTIVE
 70
     0
 10
0.0
 20
0.0
 11
1.0
 21
1.0
 12
2661.471950159317
 22
3366.963437783614
 13
0.0
 23
0.0
 14
50.0
 24
50.0
 15
100.0
 25
100.0
 16
0.0
 26
0.0
 36
1.0
 17
0.0
 27
0.0
 37
0.0
 40
6775.957527183364
 41
1.861365953109072
 42
50.0
 43
0.0
 44
0.0
 50
0.0
 51
0.0
 71
     0
 72
   100
 73
     1
 74
     0
 75
     0
 76
     0
 77
     0
 78
     1
281
     0
 65
     0
110
0.0
120
0.0
130
0.0
111
1.0
121
0.0
131
0.0
112
0.0
122
1.0
132
0.0
 79
     0
146
0.0
  0
ENDTAB
  0
TABLE
  2
LTYPE
  5
19B5
330
0
100
AcDbSymbolTable
 70
    17
  0
LTYPE
  5
1A12
330
19B5
100
AcDbSymbolTableRecord
100
AcDbLinetypeTableRecord
  2
ByBlock
 70
     0
  3

 72
    65
 73
     0
 40
0.0
  0
LTYPE
  5
1A13
330
19B5
100
AcDbSymbolTableRecord
100
AcDbLinetypeTableRecord
  2
ByLayer
 70
     0
  3

 72
    65
 73
     0
 40
0.0
  0
LTYPE
  5
1A14
330
19B5
100
AcDbSymbolTableRecord
100
AcDbLinetypeTableRecord
  2
CONTINUOUS
 70
     0
  3
Solid line
 72
    65
 73
     0
 40
0.0
  0
LTYPE
  5
1A2B
330
19B5
100
AcDbSymbolTableRecord
100
AcDbLinetypeTableRecord
  2
PHANTOM
 70
     0
  3
Phantom ______  __  __  ______  __  __  ______
 72
    65
 73
     6
 40
2.5
 49
1.25
 74
     0
 49
-0.25
 74
     0
 49
0.25
 74
     0
 49
-0.25
 74
     0
 49
0.25
 74
     0
 49
-0.25
 74
     0
  0
LTYPE
  5
1A2C
330
19B5
100
AcDbSymbolTableRecord
100
AcDbLinetypeTableRecord
  2
HIDDEN
 70
     0
  3
Hidden __ __ __ __ __ __ __ __ __ __ __ __ __ _
 72
    65
 73
     2
 40
0.375
 49
0.25
 74
     0
 49
-0.125
 74
     0
  0
LTYPE
  5
1A2D
330
19B5
100
AcDbSymbolTableRecord
100
AcDbLinetypeTableRecord
  2
PHANTOM2
 70
     0
  3
Phantom (.5x) ___ _ _ ___ _ _ ___ _ _ ___ _ _
 72
    65
 73
     6
 40
1.25
 49
0.625
 74
     0
 49
-0.125
 74
     0
 49
0.125
 74
     0
 49
-0.125
 74
     0
 49
0.125
 74
     0
 49
-0.125
 74
     0
  0
LTYPE
  5
1A2E
330
19B5
100
AcDbSymbolTableRecord
100
AcDbLinetypeTableRecord
  2
CENTER
 70
     0
  3
Center ____ _ ____ _ ____ _ ____ _ ____ _ ____
 72
    65
 73
     4
 40
2.0
 49
1.25
 74
     0
 49
-0.25
 74
     0
 49
0.25
 74
     0
 49
-0.25
 74
     0
  0
LTYPE
  5
1A2F
330
19B5
100
AcDbSymbolTableRecord
100
AcDbLinetypeTableRecord
  2
AM_ISO02W050
 70
     0
  3
__ __ __ __ __ __ __ __ __ __ __ __ __ __ __
 72
    65
 73
     2
 40
7.5
 49
6.0
 74
     0
 49
-1.5
 74
     0
  0
LTYPE
  5
1A30
330
19B5
100
AcDbSymbolTableRecord
100
AcDbLinetypeTableRecord
  2
AM_ISO08W050
 70
     0
  3
____ . ____ . ____ . ____ . ____ . ____ . ____
 72
    65
 73
     4
 40
18.0
 49
12.0
 74
     0
 49
-1.5
 74
     0
 49
3.0
 74
     0
 49
-1.5
 74
     0
  0
LTYPE
  5
1A31
330
19B5
100
AcDbSymbolTableRecord
100
AcDbLinetypeTableRecord
  2
AM_ISO09W050
 70
     0
  3
_____ . . _____ . . _____ . . ____ .. ____
 72
    65
 73
     6
 40
22.5
 49
12.0
 74
     0
 49
-1.5
 74
     0
 49
3.0
 74
     0
 49
-1.5
 74
     0
 49
3.0
 74
     0
 49
-1.5
 74
     0
  0
LTYPE
  5
1A32
330
19B5
100
AcDbSymbolTableRecord
100
AcDbLinetypeTableRecord
  2
AMCONSTR
 70
     0
  3
_______________________
 72
    65
 73
     2
 40
9999.0
 49
9999.0
 74
     0
 49
0.0
 74
     0
  0
LTYPE
  5
1A33
330
19B5
100
AcDbSymbolTableRecord
100
AcDbLinetypeTableRecord
  2
AM_ISO08W050X2
 70
     0
  3
__ . __ . __ . __ . __ . __
 72
    65
 73
     4
 40
9.0
 49
6.0
 74
     0
 49
-0.75
 74
     0
 49
1.5
 74
     0
 49
-0.75
 74
     0
  0
LTYPE
  5
1A34
330
19B5
100
AcDbSymbolTableRecord
100
AcDbLinetypeTableRecord
  2
AM_ISO02W050X2
 70
     0
  3
 _ _ _ _ _ _ _ _ _ _ _ _
 72
    65
 73
     2
 40
3.75
 49
3.0
 74
     0
 49
-0.75
 74
     0
  0
LTYPE
  5
1A35
330
19B5
100
AcDbSymbolTableRecord
100
AcDbLinetypeTableRecord
  2
AMZIGZAG
 70
     0
  3
/\/-/\/-/\/-/\/-/\/-/\/
 72
    65
 73
     2
 40
11.0001
 49
0.0001
 74
     0
 49
-11.0
 74
     0
  0
LTYPE
  5
1A36
330
19B5
100
AcDbSymbolTableRecord
100
AcDbLinetypeTableRecord
  2
CENTER2
 70
     0
  3
Center (.5x) ___ _ ___ _ ___ _ ___ _ ___ _ ___
 72
    65
 73
     4
 40
1.125
 49
0.75
 74
     0
 49
-0.125
 74
     0
 49
0.125
 74
     0
 49
-0.125
 74
     0
  0
LTYPE
  5
1A37
330
19B5
100
AcDbSymbolTableRecord
100
AcDbLinetypeTableRecord
  2
HIDDEN2
 70
     0
  3
Hidden (.5x) _ _ _ _ _ _ _ _ _ _ _ _ _ _ _ _ _
 72
    65
 73
     2
 40
0.1875
 49
0.125
 74
     0
 49
-0.0625
 74
     0
  0
LTYPE
  5
1A38
330
19B5
100
AcDbSymbolTableRecord
100
AcDbLinetypeTableRecord
  2
AMZIGZAG2
 70
     0
  3
/\/-/\/-/\/-/\/-/\/-/\/
 72
    65
 73
     2
 40
0.4401
 49
0.0001
 74
     0
 49
-0.4400000000000003
 74
     0
  0
LTYPE
  5
1A39
330
19B5
100
AcDbSymbolTableRecord
100
AcDbLinetypeTableRecord
  2
ACANSTGB
 70
     0
  3
__ . . __ . .
 72
    65
 73
     6
 40
0.35433070866
 49
0.15748031496
 74
     0
 49
-0.03937007874
 74
     0
 49
0.03937007874
 74
     0
 49
-0.03937007874
 74
     0
 49
0.03937007874
 74
     0
 49
-0.03937007874
 74
     0
  0
LTYPE
  5
1A3A
330
19B5
100
AcDbSymbolTableRecord
100
AcDbLinetypeTableRecord
  2
ACANSTGL
 70
     0
  3
_ _ _ _ _
 72
    65
 73
     2
 40
0.11811023622
 49
0.07874015748
 74
     0
 49
-0.03937007874
 74
     0
  0
ENDTAB
  0
TABLE
  2
LAYER
  5
19B2
330
0
100
AcDbSymbolTable
 70
     6
  0
LAYER
  5
1A0C
102
{ACAD_XDICTIONARY
360
1AD7
102
}
330
19B2
100
AcDbSymbolTableRecord
100
AcDbLayerTableRecord
  2
0
 70
     0
 62
     7
  6
CONTINUOUS
370
    -3
390
19BF
  0
LAYER
  5
1A28
102
{ACAD_XDICTIONARY
360
1AD9
102
}
330
19B2
100
AcDbSymbolTableRecord
100
AcDbLayerTableRecord
  2
TEXT
 70
     0
 62
   100
  6
CONTINUOUS
370
    -3
390
19BF
  0
LAYER
  5
1A3B
102
{ACAD_XDICTIONARY
360
1ADB
102
}
330
19B2
100
AcDbSymbolTableRecord
100
AcDbLayerTableRecord
  2
OUTLINE
 70
     0
 62
     7
  6
CONTINUOUS
370
    -3
390
19BF
  0
LAYER
  5
1A3C
102
{ACAD_XDICTIONARY
360
1ADD
102
}
330
19B2
100
AcDbSymbolTableRecord
100
AcDbLayerTableRecord
  2
DIM
 70
     0
 62
     7
  6
CONTINUOUS
370
    -3
390
19BF
  0
LAYER
  5
1A3D
102
{ACAD_XDICTIONARY
360
1ADF
102
}
330
19B2
100
AcDbSymbolTableRecord
100
AcDbLayerTableRecord
  2
CLEAR
 70
     0
 62
     1
  6
PHANTOM
370
    -3
390
19BF
  0
LAYER
  5
1A3E
102
{ACAD_XDICTIONARY
360
1AE1
102
}
330
19B2
100
AcDbSymbolTableRecord
100
AcDbLayerTableRecord
  2
OVERLAY-A3
 70
     0
 62
     7
  6
CONTINUOUS
370
    -3
390
19BF
  0
ENDTAB
  0
TABLE
  2
STYLE
  5
19B3
330
0
100
AcDbSymbolTable
 70
     8
  0
STYLE
  5
1A0D
330
19B3
100
AcDbSymbolTableRecord
100
AcDbTextStyleTableRecord
  2
STANDARD
 70
     0
 40
0.0
 41
1.0
 50
0.0
 71
     0
 42
0.2
  3
txt
  4

  0
STYLE
  5
1A11
330
19B3
100
AcDbSymbolTableRecord
100
AcDbTextStyleTableRecord
  2
ANNOTATIVE
 70
     0
 40
0.0
 41
1.0
 50
0.0
 71
     0
 42
0.2
  3
txt
  4

1001
ACADANNOTATIVE
1000
AnnotativeData
1002
{
1070
     1
1070
     1
1002
}
  0
STYLE
  5
1A29
330
19B3
100
AcDbSymbolTableRecord
100
AcDbTextStyleTableRecord
  2
TITLE3
 70
     0
 40
60.0
 41
1.0
 50
0.0
 71
     0
 42
60.0
  3
SIMPLEX
  4

  0
STYLE
  5
1A3F
330
19B3
100
AcDbSymbolTableRecord
100
AcDbTextStyleTableRecord
  2
TITLE5
 70
     0
 40
100.0
 41
1.0
 50
0.0
 71
     0
 42
100.0
  3
SIMPLEX
  4

  0
STYLE
  5
1A40
330
19B3
100
AcDbSymbolTableRecord
100
AcDbTextStyleTableRecord
  2
SIMPLEX
 70
     0
 40
60.0
 41
1.0
 50
0.0
 71
     0
 42
60.0
  3
simplex
  4

  0
STYLE
  5
1A41
330
19B3
100
AcDbSymbolTableRecord
100
AcDbTextStyleTableRecord
  2

 70
     1
 40
0.0
 41
1.0
 50
0.0
 71
     0
 42
60.0
  3
genltshp.shx
  4

  0
STYLE
  5
1A42
330
19B3
100
AcDbSymbolTableRecord
100
AcDbTextStyleTableRecord
  2
ACANSTS
 70
     0
 40
1.0
 41
1.0
 50
0.0
 71
     0
 42
60.0
  3
romans.shx
  4

  0
STYLE
  5
1A43
330
19B3
100
AcDbSymbolTableRecord
100
AcDbTextStyleTableRecord
  2
ACANSGDT
 70
     0
 40
0.0
 41
1.0
 50
0.0
 71
     0
 42
60.0
  3
amgdt.shx
  4

  0
ENDTAB
  0
TABLE
  2
VIEW
  5
19B6
330
0
100
AcDbSymbolTable
 70
     0
  0
ENDTAB
  0
TABLE
  2
UCS
  5
19B7
330
0
100
AcDbSymbolTable
 70
     0
  0
ENDTAB
  0
TABLE
  2
APPID
  5
19B9
330
0
100
AcDbSymbolTable
 70
    16
  0
APPID
  5
1A0E
330
19B9
100
AcDbSymbolTableRecord
100
AcDbRegAppTableRecord
  2
ACAD
 70
     0
  0
APPID
  5
1A15
330
19B9
100
AcDbSymbolTableRecord
100
AcDbRegAppTableRecord
  2
ACADANNOTATIVE
 70
     0
  0
APPID
  5
1A1F
330
19B9
100
AcDbSymbolTableRecord
100
AcDbRegAppTableRecord
  2
ACAD_MLEADERVER
 70
     0
  0
APPID
  5
1A44
330
19B9
100
AcDbSymbolTableRecord
100
AcDbRegAppTableRecord
  2
MCAD_NO_VIS
 70
     0
  0
APPID
  5
1A45
330
19B9
100
AcDbSymbolTableRecord
100
AcDbRegAppTableRecord
  2
ACAD_TEMP_GRAPHIC
 70
     0
  0
APPID
  5
1A46
330
19B9
100
AcDbSymbolTableRecord
100
AcDbRegAppTableRecord
  2
AD_DRAW
 70
     0
  0
APPID
  5
1A47
330
19B9
100
AcDbSymbolTableRecord
100
AcDbRegAppTableRecord
  2
ACATTRIBSERVICES
 70
     0
  0
APPID
  5
1A48
330
19B9
100
AcDbSymbolTableRecord
100
AcDbRegAppTableRecord
  2
DESIGNERASSEMBLIES
 70
     0
  0
APPID
  5
1A49
330
19B9
100
AcDbSymbolTableRecord
100
AcDbRegAppTableRecord
  2
ACADM_DIM_EDIT
 70
     0
  0
APPID
  5
1A4A
330
19B9
100
AcDbSymbolTableRecord
100
AcDbRegAppTableRecord
  2
AMDT_DM_ADJ
 70
     0
  0
APPID
  5
1A4B
330
19B9
100
AcDbSymbolTableRecord
100
AcDbRegAppTableRecord
  2
ACAD_EXEMPT_FROM_CAD_STANDARDS
 70
     0
  0
APPID
  5
1BCE
330
19B9
100
AcDbSymbolTableRecord
100
AcDbRegAppTableRecord
  2
ACAD_DSTYLE_DIMRADIAL_EXTENSION
 70
     0
  0
APPID
  5
1CB1
330
19B9
100
AcDbSymbolTableRecord
100
AcDbRegAppTableRecord
  2
ACAD_DSTYLE_DIMARC_LENGTH_SYMBOL
 70
     0
  0
APPID
  5
1CB2
330
19B9
100
AcDbSymbolTableRecord
100
AcDbRegAppTableRecord
  2
ACAD_DSTYLE_DIM_LINETYPE
 70
     0
  0
APPID
  5
1CB3
330
19B9
100
AcDbSymbolTableRecord
100
AcDbRegAppTableRecord
  2
ACAD_DSTYLE_DIM_EXT1_LINETYPE
 70
     0
  0
APPID
  5
1CB4
330
19B9
100
AcDbSymbolTableRecord
100
AcDbRegAppTableRecord
  2
ACAD_DSTYLE_DIM_EXT2_LINETYPE
 70
     0
  0
ENDTAB
  0
TABLE
  2
DIMSTYLE
  5
19BA
330
0
100
AcDbSymbolTable
 70
     8
100
AcDbDimStyleTable
 71
     1
340
1A4C
  0
DIMSTYLE
105
1A0F
330
19BA
100
AcDbSymbolTableRecord
100
AcDbDimStyleTableRecord
  2
STANDARD
 70
     0
271
     2
272
     2
279
     2
284
     7
285
     7
286
     7
340
1A29
  0
DIMSTYLE
105
1A10
330
19BA
100
AcDbSymbolTableRecord
100
AcDbDimStyleTableRecord
  2
ANNOTATIVE
 70
     0
271
     2
272
     2
279
     2
284
     7
285
     7
286
     7
340
1A29
1001
ACADANNOTATIVE
1000
AnnotativeData
1002
{
1070
     1
1070
     1
1002
}
  0
DIMSTYLE
105
1A4C
330
19BA
100
AcDbSymbolTableRecord
100
AcDbDimStyleTableRecord
  2
AM_ANSI
 70
     0
  4
mm
 41
0.12
 42
0.05
 43
0.5
 44
0.1
 47
0.1
 48
0.1
 78
     7
 79
     2
140
0.12
141
0.0
146
0.71
147
0.06
176
   256
177
   256
178
     2
274
     4
284
     7
340
1A0D
371
    -1
372
    -1
1001
ACAD_DSTYLE_DIMARC_LENGTH_SYMBOL
1070
   379
1070
     1
1001
ACAD_DSTYLE_DIM_LINETYPE
1070
   380
1005
1A12
1001
ACAD_DSTYLE_DIM_EXT1_LINETYPE
1070
   381
1005
1A12
1001
ACAD_DSTYLE_DIM_EXT2_LINETYPE
1070
   382
1005
1A12
  0
DIMSTYLE
105
1A4D
330
19BA
100
AcDbSymbolTableRecord
100
AcDbDimStyleTableRecord
  2
AM_ANSI$3
 70
     0
  4
mm
 41
0.12
 42
0.05
 43
0.5
 44
0.1
 47
0.1
 48
0.1
 78
     7
 79
     2
140
0.12
141
0.0
146
0.71
147
0.06
176
   256
177
   256
178
     2
274
     4
284
     7
288
     1
289
     0
340
1A0D
371
    -1
372
    -1
1001
ACAD_DSTYLE_DIMARC_LENGTH_SYMBOL
1070
   379
1070
     1
1001
ACAD_DSTYLE_DIM_LINETYPE
1070
   380
1005
1A12
1001
ACAD_DSTYLE_DIM_EXT1_LINETYPE
1070
   381
1005
1A12
1001
ACAD_DSTYLE_DIM_EXT2_LINETYPE
1070
   382
1005
1A12
  0
DIMSTYLE
105
1A4E
330
19BA
100
AcDbSymbolTableRecord
100
AcDbDimStyleTableRecord
  2
AM_ANSI$4
 70
     0
  4
mm
 41
0.12
 42
0.05
 43
0.5
 44
0.1
 47
0.1
 48
0.1
 78
     7
 79
     2
140
0.12
141
0.0
146
0.71
147
0.06
176
   256
177
   256
178
     2
274
     4
284
     7
340
1A0D
371
    -1
372
    -1
1001
ACAD_DSTYLE_DIMARC_LENGTH_SYMBOL
1070
   379
1070
     1
1001
ACAD_DSTYLE_DIM_LINETYPE
1070
   380
1005
1A12
1001
ACAD_DSTYLE_DIM_EXT1_LINETYPE
1070
   381
1005
1A12
1001
ACAD_DSTYLE_DIM_EXT2_LINETYPE
1070
   382
1005
1A12
  0
DIMSTYLE
105
1A4F
330
19BA
100
AcDbSymbolTableRecord
100
AcDbDimStyleTableRecord
  2
AM_ANSI$7
 70
     0
  4
mm
 41
0.12
 42
0.05
 43
0.5
 44
0.1
 47
0.1
 48
0.1
 78
     7
 79
     2
140
0.12
141
0.0
146
0.71
147
0.06
176
   256
177
   256
178
     2
274
     4
284
     7
340
1A0D
371
    -1
372
    -1
1001
ACAD_DSTYLE_DIMARC_LENGTH_SYMBOL
1070
   379
1070
     1
1001
ACAD_DSTYLE_DIM_LINETYPE
1070
   380
1005
1A12
1001
ACAD_DSTYLE_DIM_EXT1_LINETYPE
1070
   381
1005
1A12
1001
ACAD_DSTYLE_DIM_EXT2_LINETYPE
1070
   382
1005
1A12
  0
DIMSTYLE
105
1A50
330
19BA
100
AcDbSymbolTableRecord
100
AcDbDimStyleTableRecord
  2
AM_ANSI$SF
 70
     0
  4
mm
 41
0.12
 42
0.05
 43
0.5
 44
0.1
 47
0.1
 48
0.1
 75
     1
 76
     1
 78
     7
 79
     2
140
0.12
141
0.0
146
0.71
147
0.06
176
   256
177
   256
178
     2
274
     4
284
     7
340
1A0D
371
    -1
372
    -1
1001
ACAD_DSTYLE_DIMARC_LENGTH_SYMBOL
1070
   379
1070
     1
1001
ACAD_DSTYLE_DIM_LINETYPE
1070
   380
1005
1A12
1001
ACAD_DSTYLE_DIM_EXT1_LINETYPE
1070
   381
1005
1A12
1001
ACAD_DSTYLE_DIM_EXT2_LINETYPE
1070
   382
1005
1A12
  0
DIMSTYLE
105
1A51
330
19BA
100
AcDbSymbolTableRecord
100
AcDbDimStyleTableRecord
  2
AM_ANSI$SH
 70
     0
  4
mm
 41
0.12
 42
0.05
 43
0.5
 44
0.1
 47
0.1
 48
0.1
 75
     1
 76
     1
 78
     7
 79
     2
140
0.12
141
0.0
146
0.71
147
0.06
173
     1
176
   256
177
   256
178
     2
274
     4
284
     7
340
1A0D
343
1A5D
371
    -1
372
    -1
1001
ACAD_DSTYLE_DIMARC_LENGTH_SYMBOL
1070
   379
1070
     1
1001
ACAD_DSTYLE_DIM_LINETYPE
1070
   380
1005
1A12
1001
ACAD_DSTYLE_DIM_EXT1_LINETYPE
1070
   381
1005
1A12
1001
ACAD_DSTYLE_DIM_EXT2_LINETYPE
1070
   382
1005
1A12
  0
ENDTAB
  0
TABLE
  2
BLOCK_RECORD
  5
19B1
330
0
100
AcDbSymbolTable
 70
     5
  0
BLOCK_RECORD
  5
1A24
102
{ACAD_XDICTIONARY
360
1B23
102
}
330
19B1
100
AcDbSymbolTableRecord
100
AcDbBlockTableRecord
  2
*Model_Space
340
1A27
  0
BLOCK_RECORD
  5
1A20
330
19B1
100
AcDbSymbolTableRecord
100
AcDbBlockTableRecord
  2
*Paper_Space
340
1A23
  0
BLOCK_RECORD
  5
1A57
330
19B1
100
AcDbSymbolTableRecord
100
AcDbBlockTableRecord
  2
$MODEL_SPACE
340
0
  0
BLOCK_RECORD
  5
1A59
330
19B1
100
AcDbSymbolTableRecord
100
AcDbBlockTableRecord
  2
$PAPER_SPACE
340
0
  0
BLOCK_RECORD
  5
1A5B
330
19B1
100
AcDbSymbolTableRecord
100
AcDbBlockTableRecord
  2
NEW_BLOCK
340
0
102
{BLKREFS
331
1365
102
}
  0
BLOCK_RECORD
  5
1A5D
330
19B1
100
AcDbSymbolTableRecord
100
AcDbBlockTableRecord
  2
GENAXEH
340
0
  0
ENDTAB
  0
ENDSEC
  0
SECTION
  2
BLOCKS
  0
BLOCK
  5
1A25
330
1A24
100
AcDbEntity
  8
0
100
AcDbBlockBegin
  2
*Model_Space
 70
     0
 10
0.0
 20
0.0
 30
0.0
  3
*Model_Space
  1

  0
ENDBLK
  5
1A26
330
1A24
100
AcDbEntity
  8
0
100
AcDbBlockEnd
  0
BLOCK
  5
1A21
330
1A20
100
AcDbEntity
 67
     1
  8
0
100
AcDbBlockBegin
  2
*Paper_Space
 70
     0
 10
0.0
 20
0.0
 30
0.0
  3
*Paper_Space
  1

  0
ENDBLK
  5
1A22
330
1A20
100
AcDbEntity
 67
     1
  8
0
100
AcDbBlockEnd
  0
BLOCK
  5
1A58
330
1A57
100
AcDbEntity
  8
0
100
AcDbBlockBegin
  2
$MODEL_SPACE
 70
     0
 10
0.0
 20
0.0
 30
0.0
  3
$MODEL_SPACE
  1

  0
ENDBLK
  5
186E
330
1A57
100
AcDbEntity
  8
0
100
AcDbBlockEnd
  0
BLOCK
  5
1A5A
330
1A59
100
AcDbEntity
  8
0
100
AcDbBlockBegin
  2
$PAPER_SPACE
 70
     0
 10
0.0
 20
0.0
 30
0.0
  3
$PAPER_SPACE
  1

  0
ENDBLK
  5
186A
330
1A59
100
AcDbEntity
  8
0
100
AcDbBlockEnd
  0
BLOCK
  5
1A5C
330
1A5B
100
AcDbEntity
  8
0
100
AcDbBlockBegin
  2
NEW_BLOCK
 70
     0
 10
0.0
 20
0.0
 30
0.0
  3
NEW_BLOCK
  1

  0
TEXT
  5
127C
330
1A5B
100
AcDbEntity
  8
TEXT
100
AcDbText
 10
27.285946821803
 20
25.27142175952417
 30
0.0
 40
40.0
  1
available on request
  7
TITLE3
100
AcDbText
  0
TEXT
  5
127D
330
1A5B
100
AcDbEntity
  8
TEXT
100
AcDbText
 10
27.285946821803
 20
93.84285033095272
 30
0.0
 40
40.0
  1
Certified dimensions
  7
TITLE3
100
AcDbText
  0
TEXT
  5
127E
330
1A5B
100
AcDbEntity
  8
TEXT
100
AcDbText
 10
27.285946821803
 20
162.4142789023812
 30
0.0
 40
40.0
  1
without notice or obligation.
  7
TITLE3
100
AcDbText
  0
TEXT
  5
127F
330
1A5B
100
AcDbEntity
  8
TEXT
100
AcDbText
 10
27.285946821803
 20
230.9857074738097
 30
0.0
 40
40.0
  1
specifications at any time
  7
TITLE3
100
AcDbText
  0
TEXT
  5
1280
330
1A5B
100
AcDbEntity
  8
TEXT
100
AcDbText
 10
27.285946821803
 20
299.5571360452384
 30
0.0
 40
40.0
  1
the right to change 
  7
TITLE3
100
AcDbText
  0
TEXT
  5
1281
330
1A5B
100
AcDbEntity
  8
TEXT
100
AcDbText
 10
27.285946821803
 20
436.699993188095
 30
0.0
 40
40.0
  1
NOTE
  7
TITLE3
100
AcDbText
  0
TEXT
  5
1282
330
1A5B
100
AcDbEntity
  8
TEXT
100
AcDbText
 10
27.285946821803
 20
368.1285646166668
 30
0.0
 40
40.0
  1
The manufacturer reserves
  7
TITLE3
100
AcDbText
  0
ENDBLK
  5
1283
330
1A5B
100
AcDbEntity
  8
0
100
AcDbBlockEnd
  0
BLOCK
  5
1A5E
330
1A5D
100
AcDbEntity
  8
0
100
AcDbBlockBegin
  2
GENAXEH
 70
     0
 10
0.0
 20
0.0
 30
0.0
  3
GENAXEH
  1

  0
LINE
  5
1482
330
1A5D
100
AcDbEntity
  8
0
100
AcDbLine
 10
-1.0
 20
0.0
 30
0.0
 11
1.0
 21
0.0
 31
0.0
  0
ENDBLK
  5
1484
330
1A5D
100
AcDbEntity
  8
0
100
AcDbBlockEnd
  0
ENDSEC
  0
SECTION
  2
ENTITIES
  0
TEXT
  5
1284
330
1A24
100
AcDbEntity
  8
TEXT
100
AcDbText
 10
-236.9666155246394
 20
6541.284378754339
 30
0.0
 40
85.0
  1
temperzone OSA 840
  7
TITLE5
 72
     1
 11
453.152432094408
 21
6541.284378754339
 31
0.0
100
AcDbText
  0
TEXT
  5
1285
330
1A24
100
AcDbEntity
  8
TEXT
100
AcDbText
 10
627.2285529533543
 20
6151.945766802704
 30
0.0
 40
60.0
  1
OSA840
 41
1.720338983050848
  7
TITLE3
 72
     5
 11
1207.228552953355
 21
6151.945766802704
 31
0.0
100
AcDbText
  0
LINE
  5
1287
330
1A24
100
AcDbEntity
  8
OUTLINE
100
AcDbLine
 10
1307.171878045834
 20
452.3965372573928
 30
0.0
 11
-131.8281219541684
 21
452.3965372573948
 31
0.0
  0
LINE
  5
128B
330
1A24
100
AcDbEntity
  8
DIM
100
AcDbLine
 10
4885.134710007116
 20
6286.068570827459
 30
0.0
 11
3900.478664098725
 21
6286.068570827459
 31
0.0
  0
LINE
  5
128C
330
1A24
100
AcDbEntity
  8
DIM
100
AcDbLine
 10
2707.794371422496
 20
6286.068570827459
 30
0.0
 11
3489.050092670155
 21
6286.068570827459
 31
0.0
  0
SOLID
  5
128D
330
1A24
100
AcDbEntity
  8
DIM
100
AcDbTrace
 10
4885.134710007116
 20
6296.068570827459
 30
0.0
 11
4885.134710007116
 21
6276.068570827458
 31
0.0
 12
4945.539919069112
 22
6285.721750018209
 32
0.0
 13
4945.539919069112
 23
6285.721750018209
 33
0.0
  0
SOLID
  5
128E
330
1A24
100
AcDbEntity
  8
DIM
100
AcDbTrace
 10
2707.794371422496
 20
6296.068570827459
 30
0.0
 11
2707.794371422496
 21
6276.068570827458
 31
0.0
 12
2647.794371422496
 22
6286.068570827459
 32
0.0
 13
2647.794371422496
 23
6286.068570827459
 33
0.0
  0
TEXT
  5
128F
330
1A24
100
AcDbEntity
  8
DIM
100
AcDbText
 10
3590.478664098725
 20
6256.068570827459
 30
0.0
 40
60.0
  1
2299
  7
TITLE3
 72
     1
 11
3694.764378384439
 21
6286.068570827459
 31
0.0
100
AcDbText
 73
     2
  0
LINE
  5
1290
330
1A24
100
AcDbEntity
  8
DIM
100
AcDbLine
 10
2606.594371422498
 20
4415.86002548159
 30
0.0
 11
2403.807103003461
 21
4415.86002548159
 31
0.0
  0
LINE
  5
1291
330
1A24
100
AcDbEntity
  8
DIM
100
AcDbLine
 10
2606.594371422498
 20
6093.860025481593
 30
0.0
 11
2403.807103003461
 21
6093.860025481593
 31
0.0
  0
LINE
  5
1292
330
1A24
100
AcDbEntity
  8
DIM
100
AcDbLine
 10
2443.807103003463
 20
4475.86002548159
 30
0.0
 11
2443.807103003463
 21
5131.101476619358
 31
0.0
  0
LINE
  5
1293
330
1A24
100
AcDbEntity
  8
DIM
100
AcDbLine
 10
2443.807103003463
 20
6033.86002548159
 30
0.0
 11
2443.807103003463
 21
5553.958619476504
 31
0.0
  0
SOLID
  5
1294
330
1A24
100
AcDbEntity
  8
DIM
100
AcDbTrace
 10
2453.807103003463
 20
4475.86002548159
 30
0.0
 11
2433.807103003465
 21
4475.86002548159
 31
0.0
 12
2443.807103003463
 22
4415.86002548159
 32
0.0
 13
2443.807103003463
 23
4415.86002548159
 33
0.0
  0
SOLID
  5
1295
330
1A24
100
AcDbEntity
  8
DIM
100
AcDbTrace
 10
2453.807103003463
 20
6033.86002548159
 30
0.0
 11
2433.807103003465
 21
6033.86002548159
 31
0.0
 12
2443.807103003463
 22
6093.860025481593
 32
0.0
 13
2443.807103003463
 23
6093.860025481593
 33
0.0
  0
TEXT
  5
1296
330
1A24
100
AcDbEntity
  8
DIM
100
AcDbText
 10
2473.807103003462
 20
5242.530048047933
 30
0.0
 40
60.0
  1
1678
 50
90.0
  7
TITLE3
 72
     1
 11
2443.807103003463
 21
5342.530048047933
 31
0.0
100
AcDbText
 73
     2
  0
LINE
  5
1297
330
1A24
100
AcDbEntity
  8
DIM
100
AcDbLine
 10
2829.944276882544
 20
402.3965372573957
 30
0.0
 11
2460.474157782677
 21
402.3965372573957
 31
0.0
  0
LINE
  5
1298
330
1A24
100
AcDbEntity
  8
DIM
100
AcDbLine
 10
2605.394371422497
 20
1509.396537257395
 30
0.0
 11
2460.474157782677
 21
1509.396537257395
 31
0.0
  0
LINE
  5
1299
330
1A24
100
AcDbEntity
  8
DIM
100
AcDbLine
 10
2500.474157782677
 20
450.3965372573957
 30
0.0
 11
2500.474157782677
 21
706.1679658288237
 31
0.0
  0
LINE
  5
129A
330
1A24
100
AcDbEntity
  8
DIM
100
AcDbLine
 10
2500.474157782677
 20
1449.396537257394
 30
0.0
 11
2500.474157782677
 21
1129.025108685967
 31
0.0
  0
SOLID
  5
129B
330
1A24
100
AcDbEntity
  8
DIM
100
AcDbTrace
 10
2490.474157782678
 20
462.3965372573957
 30
0.0
 11
2510.474157782677
 21
462.3965372573957
 31
0.0
 12
2500.474157782677
 22
402.3965372573957
 32
0.0
 13
2500.474157782677
 23
402.3965372573957
 33
0.0
  0
SOLID
  5
129C
330
1A24
100
AcDbEntity
  8
DIM
100
AcDbTrace
 10
2490.474157782678
 20
1449.396537257394
 30
0.0
 11
2510.474157782677
 21
1449.396537257394
 31
0.0
 12
2500.474157782677
 22
1509.396537257395
 32
0.0
 13
2500.474157782677
 23
1509.396537257395
 33
0.0
  0
TEXT
  5
129D
330
1A24
100
AcDbEntity
  8
DIM
100
AcDbText
 10
2530.474157782677
 20
823.310822971681
 30
0.0
 40
60.0
  1
1107
 50
90.0
  7
TITLE3
 72
     4
 11
2500.474157782677
 21
917.5965372573953
 31
0.0
100
AcDbText
  0
LINE
  5
129E
330
1A24
100
AcDbEntity
  8
DIM
100
AcDbLine
 10
3607.390361170379
 20
1760.551940761035
 30
0.0
 11
3569.398381674615
 21
1760.551940761035
 31
0.0
  0
LINE
  5
129F
330
1A24
100
AcDbEntity
  8
DIM
100
AcDbLine
 10
3588.394371422497
 20
1832.75103063039
 30
0.0
 11
3528.557003716667
 21
1783.600691864594
 31
0.0
  0
LINE
  5
12A0
330
1A24
100
AcDbEntity
  8
DIM
100
AcDbLine
 10
3528.557003716667
 20
1783.600691864594
 30
0.0
 11
3569.398381674615
 21
1783.600691864594
 31
0.0
  0
LINE
  5
12A1
330
1A24
100
AcDbEntity
  8
DIM
100
AcDbLine
 10
3569.398381674615
 20
1783.600691864594
 30
0.0
 11
3569.398381674615
 21
1760.551940761035
 31
0.0
  0
LINE
  5
12A2
330
1A24
100
AcDbEntity
  8
DIM
100
AcDbLine
 10
3588.394371422497
 20
1832.75103063039
 30
0.0
 11
3648.231739128324
 21
1783.600691864594
 31
0.0
  0
LINE
  5
12A3
330
1A24
100
AcDbEntity
  8
DIM
100
AcDbLine
 10
3648.231739128324
 20
1783.600691864594
 30
0.0
 11
3607.390361170379
 21
1783.600691864594
 31
0.0
  0
LINE
  5
12A4
330
1A24
100
AcDbEntity
  8
DIM
100
AcDbLine
 10
3607.390361170379
 20
1783.600691864594
 30
0.0
 11
3607.390361170379
 21
1760.551940761035
 31
0.0
  0
TEXT
  5
12A5
330
1A24
100
AcDbEntity
  8
TEXT
100
AcDbText
 10
10519.19229952241
 20
34534.02116346908
 30
0.0
 40
180.0
  1

  7
SIMPLEX
100
AcDbText
  0
TEXT
  5
12A6
330
1A24
100
AcDbEntity
  8
TEXT
100
AcDbText
 10
10519.19229952241
 20
61134.02116347016
 30
0.0
 40
180.0
  1

  7
SIMPLEX
100
AcDbText
  0
TEXT
  5
12A7
330
1A24
100
AcDbEntity
  8
TEXT
100
AcDbText
 10
10519.19229952241
 20
61134.02116346909
 30
0.0
 40
180.0
  1

  7
SIMPLEX
100
AcDbText
  0
TEXT
  5
12A8
330
1A24
100
AcDbEntity
  8
TEXT
100
AcDbText
 10
10519.19229952241
 20
37194.02116346908
 30
0.0
 40
180.0
  1

  7
SIMPLEX
100
AcDbText
  0
TEXT
  5
12A9
330
1A24
100
AcDbEntity
  8
TEXT
100
AcDbText
 10
10519.19229952241
 20
63794.02116347016
 30
0.0
 40
180.0
  1

  7
SIMPLEX
100
AcDbText
  0
TEXT
  5
12AA
330
1A24
100
AcDbEntity
  8
TEXT
100
AcDbText
 10
10519.19229952241
 20
63794.02116346909
 30
0.0
 40
180.0
  1

  7
SIMPLEX
100
AcDbText
  0
TEXT
  5
12AB
330
1A24
100
AcDbEntity
  8
TEXT
100
AcDbText
 10
6068.193491523704
 20
14067.82211798511
 30
0.0
 40
18.0
  1

  7
SIMPLEX
100
AcDbText
  0
TEXT
  5
12AC
330
1A24
100
AcDbEntity
  8
TEXT
100
AcDbText
 10
6068.193491523704
 20
14067.82211798511
 30
0.0
 40
18.0
  1

  7
SIMPLEX
100
AcDbText
  0
TEXT
  5
12AD
330
1A24
100
AcDbEntity
  8
TEXT
100
AcDbText
 10
6068.193491523704
 20
11407.82211798513
 30
0.0
 40
18.0
  1

  7
SIMPLEX
100
AcDbText
  0
TEXT
  5
12AE
330
1A24
100
AcDbEntity
  8
TEXT
100
AcDbText
 10
6068.193491523704
 20
11407.82211798513
 30
0.0
 40
18.0
  1

  7
SIMPLEX
100
AcDbText
  0
TEXT
  5
12AF
330
1A24
100
AcDbEntity
  8
TEXT
100
AcDbText
 10
10184.56997263704
 20
34556.95302002049
 30
0.0
 40
180.0
  1

  7
SIMPLEX
100
AcDbText
  0
TEXT
  5
12B0
330
1A24
100
AcDbEntity
  8
TEXT
100
AcDbText
 10
10184.56997263704
 20
61156.95302002158
 30
0.0
 40
180.0
  1

  7
SIMPLEX
100
AcDbText
  0
TEXT
  5
12B1
330
1A24
100
AcDbEntity
  8
TEXT
100
AcDbText
 10
10184.56997263704
 20
61156.95302002049
 30
0.0
 40
180.0
  1

  7
SIMPLEX
100
AcDbText
  0
TEXT
  5
12B2
330
1A24
100
AcDbEntity
  8
TEXT
100
AcDbText
 10
10184.56997263704
 20
37216.9530200205
 30
0.0
 40
180.0
  1

  7
SIMPLEX
100
AcDbText
  0
TEXT
  5
12B3
330
1A24
100
AcDbEntity
  8
TEXT
100
AcDbText
 10
10184.56997263704
 20
63816.95302002158
 30
0.0
 40
180.0
  1

  7
SIMPLEX
100
AcDbText
  0
TEXT
  5
12B4
330
1A24
100
AcDbEntity
  8
TEXT
100
AcDbText
 10
10184.56997263704
 20
63816.95302002049
 30
0.0
 40
180.0
  1

  7
SIMPLEX
100
AcDbText
  0
TEXT
  5
12B5
330
1A24
100
AcDbEntity
  8
TEXT
100
AcDbText
 10
5733.571164638326
 20
14090.75397453653
 30
0.0
 40
18.0
  1

  7
SIMPLEX
100
AcDbText
  0
TEXT
  5
12B6
330
1A24
100
AcDbEntity
  8
TEXT
100
AcDbText
 10
5733.571164638326
 20
14090.75397453653
 30
0.0
 40
18.0
  1

  7
SIMPLEX
100
AcDbText
  0
TEXT
  5
12B7
330
1A24
100
AcDbEntity
  8
TEXT
100
AcDbText
 10
5733.571164638326
 20
11430.75397453653
 30
0.0
 40
18.0
  1

  7
SIMPLEX
100
AcDbText
  0
TEXT
  5
12B8
330
1A24
100
AcDbEntity
  8
TEXT
100
AcDbText
 10
5733.571164638326
 20
11430.75397453653
 30
0.0
 40
18.0
  1

  7
SIMPLEX
100
AcDbText
  0
LINE
  5
12B9
330
1A24
100
AcDbEntity
  8
DIM
100
AcDbLine
 10
4507.390361170378
 20
1760.551940761035
 30
0.0
 11
4469.398381674614
 21
1760.551940761035
 31
0.0
  0
LINE
  5
12BA
330
1A24
100
AcDbEntity
  8
DIM
100
AcDbLine
 10
4488.394371422496
 20
1832.75103063039
 30
0.0
 11
4428.557003716665
 21
1783.600691864594
 31
0.0
  0
LINE
  5
12BB
330
1A24
100
AcDbEntity
  8
DIM
100
AcDbLine
 10
4469.398381674614
 20
1783.600691864594
 30
0.0
 11
4469.398381674614
 21
1760.551940761035
 31
0.0
  0
LINE
  5
12BC
330
1A24
100
AcDbEntity
  8
DIM
100
AcDbLine
 10
4428.557003716665
 20
1783.600691864594
 30
0.0
 11
4469.398381674614
 21
1783.600691864594
 31
0.0
  0
LINE
  5
12BD
330
1A24
100
AcDbEntity
  8
DIM
100
AcDbLine
 10
4488.394371422496
 20
1832.75103063039
 30
0.0
 11
4548.231739128326
 21
1783.600691864594
 31
0.0
  0
LINE
  5
12BE
330
1A24
100
AcDbEntity
  8
DIM
100
AcDbLine
 10
4507.390361170378
 20
1783.600691864594
 30
0.0
 11
4507.390361170378
 21
1760.551940761035
 31
0.0
  0
LINE
  5
12BF
330
1A24
100
AcDbEntity
  8
DIM
100
AcDbLine
 10
4548.231739128326
 20
1783.600691864594
 30
0.0
 11
4507.390361170378
 21
1783.600691864594
 31
0.0
  0
LINE
  5
12C0
330
1A24
100
AcDbEntity
  8
DIM
100
AcDbLine
 10
2829.944276882544
 20
402.3965372573957
 30
0.0
 11
2319.21946458064
 21
402.3965372573957
 31
0.0
  0
LINE
  5
12C1
330
1A24
100
AcDbEntity
  8
DIM
100
AcDbLine
 10
2359.219464580641
 20
462.3965372573962
 30
0.0
 11
2359.219464580641
 21
841.3108229716817
 31
0.0
  0
LINE
  5
12C2
330
1A24
100
AcDbEntity
  8
DIM
100
AcDbLine
 10
2359.219464580642
 20
1550.396537257395
 30
0.0
 11
2359.219464580642
 21
1109.88225154311
 31
0.0
  0
SOLID
  5
12C3
330
1A24
100
AcDbEntity
  8
DIM
100
AcDbTrace
 10
2349.21946458064
 20
462.3965372573962
 30
0.0
 11
2369.21946458064
 21
462.3965372573962
 31
0.0
 12
2359.219464580641
 22
402.3965372573957
 32
0.0
 13
2359.219464580641
 23
402.3965372573957
 33
0.0
  0
SOLID
  5
12C4
330
1A24
100
AcDbEntity
  8
DIM
100
AcDbTrace
 10
2349.219464580642
 20
1550.396537257395
 30
0.0
 11
2369.219464580642
 21
1550.396537257395
 31
0.0
 12
2359.219464580642
 22
1610.396537257396
 32
0.0
 13
2359.219464580642
 23
1610.396537257396
 33
0.0
  0
TEXT
  5
12C5
330
1A24
100
AcDbEntity
  8
DIM
100
AcDbText
 10
2389.21946458064
 20
882.7393944002542
 30
0.0
 40
60.0
  1
1208
 50
90.0
  7
TITLE3
100
AcDbText
  0
LINE
  5
12C6
330
1A24
100
AcDbEntity
  8
OUTLINE
100
AcDbLine
 10
2646.594371422497
 20
4415.860025481588
 30
0.0
 11
2646.594371422497
 21
6093.860025481593
 31
0.0
  0
LINE
  5
12C8
330
1A24
100
AcDbEntity
  8
OUTLINE
100
AcDbLine
 10
4943.194371422499
 20
4415.860025481588
 30
0.0
 11
2646.594371422497
 21
4415.860025481588
 31
0.0
  0
LINE
  5
12C9
330
1A24
100
AcDbEntity
  8
OUTLINE
100
AcDbLine
 10
4945.594371422497
 20
1509.396537257393
 30
0.0
 11
2646.594371422497
 21
1509.396537257393
 31
0.0
  0
LINE
  5
12CA
330
1A24
100
AcDbEntity
  8
OUTLINE
100
AcDbLine
 10
4943.594371422498
 20
455.3965372573943
 30
0.0
 11
2648.594371422497
 21
455.3965372573948
 31
0.0
  0
LINE
  5
12CB
330
1A24
100
AcDbEntity
  8
OUTLINE
100
AcDbLine
 10
2646.594371422497
 20
1509.396537257393
 30
0.0
 11
2646.594371422497
 21
1458.396537257393
 31
0.0
  0
LINE
  5
12CC
330
1A24
100
AcDbEntity
  8
OUTLINE
100
AcDbLine
 10
2967.094182342588
 20
402.3965372573948
 30
0.0
 11
2853.094182342586
 21
402.3965372573948
 31
0.0
  0
LINE
  5
12CD
330
1A24
100
AcDbEntity
  8
OUTLINE
100
AcDbLine
 10
2826.089333519382
 20
455.3965372573948
 30
0.0
 11
2853.094182342586
 21
402.3965372573948
 31
0.0
  0
LINE
  5
12CE
330
1A24
100
AcDbEntity
  8
OUTLINE
100
AcDbLine
 10
2994.099031165794
 20
455.3965372573948
 30
0.0
 11
2967.094182342588
 21
402.3965372573947
 31
0.0
  0
LINE
  5
12CF
330
1A24
100
AcDbEntity
  8
OUTLINE
100
AcDbLine
 10
4945.594371422497
 20
1509.396537257393
 30
0.0
 11
4945.594371422497
 21
1458.396537257393
 31
0.0
  0
LINE
  5
12D0
330
1A24
100
AcDbEntity
  8
OUTLINE
100
AcDbLine
 10
4624.094371422496
 20
402.3965372573948
 30
0.0
 11
4738.094371422497
 21
402.3965372573948
 31
0.0
  0
LINE
  5
12D1
330
1A24
100
AcDbEntity
  8
OUTLINE
100
AcDbLine
 10
4597.089522599293
 20
455.3965372573943
 30
0.0
 11
4624.094371422496
 21
402.3965372573948
 31
0.0
  0
LINE
  5
12D2
330
1A24
100
AcDbEntity
  8
OUTLINE
100
AcDbLine
 10
4765.0992202457
 20
455.3965372573943
 30
0.0
 11
4738.094371422497
 21
402.3965372573948
 31
0.0
  0
LINE
  5
12D3
330
1A24
100
AcDbEntity
  8
OUTLINE
100
AcDbLine
 10
2646.594371422497
 20
6093.860025481593
 30
0.0
 11
4943.194371422497
 21
6093.86002548159
 31
0.0
  0
TEXT
  5
12D4
330
1A24
100
AcDbEntity
  8
TEXT
100
AcDbText
 10
-293.1252914701035
 20
6231.945766802702
 30
0.0
 40
60.0
  1
09.02.09
 41
0.8421052631578945
  7
TITLE3
 72
     5
 11
26.87470852989645
 21
6231.945766802702
 31
0.0
100
AcDbText
  0
LINE
  5
12D5
330
1A24
100
AcDbEntity
  8
OUTLINE
100
AcDbLine
 10
2826.08933351938
 20
4391.560025481588
 30
0.0
 11
2994.099031165792
 21
4391.560025481588
 31
0.0
  0
LINE
  5
12D6
330
1A24
100
AcDbEntity
  8
OUTLINE
100
AcDbLine
 10
2826.089333519382
 20
4415.86002548159
 30
0.0
 11
2826.08933351938
 21
4391.560025481588
 31
0.0
  0
LINE
  5
12D7
330
1A24
100
AcDbEntity
  8
OUTLINE
100
AcDbLine
 10
2994.099031165794
 20
4415.86002548159
 30
0.0
 11
2994.099031165792
 21
4391.560025481588
 31
0.0
  0
LINE
  5
12D8
330
1A24
100
AcDbEntity
  8
OUTLINE
100
AcDbLine
 10
2826.08933351938
 20
6118.16002548159
 30
0.0
 11
2994.099031165792
 21
6118.160025481589
 31
0.0
  0
LINE
  5
12D9
330
1A24
100
AcDbEntity
  8
OUTLINE
100
AcDbLine
 10
2826.089333519382
 20
6093.86002548159
 30
0.0
 11
2826.08933351938
 21
6118.16002548159
 31
0.0
  0
LINE
  5
12DA
330
1A24
100
AcDbEntity
  8
OUTLINE
100
AcDbLine
 10
2994.099031165794
 20
6093.860025481589
 30
0.0
 11
2994.099031165792
 21
6118.160025481589
 31
0.0
  0
LINE
  5
12DB
330
1A24
100
AcDbEntity
  8
OUTLINE
100
AcDbLine
 10
4765.0992202457
 20
4391.560025481588
 30
0.0
 11
4597.089522599294
 21
4391.560025481588
 31
0.0
  0
LINE
  5
12DC
330
1A24
100
AcDbEntity
  8
OUTLINE
100
AcDbLine
 10
4597.089522599293
 20
4415.86002548159
 30
0.0
 11
4597.089522599294
 21
4391.560025481588
 31
0.0
  0
LINE
  5
12DD
330
1A24
100
AcDbEntity
  8
OUTLINE
100
AcDbLine
 10
4765.0992202457
 20
4415.86002548159
 30
0.0
 11
4765.0992202457
 21
4391.560025481588
 31
0.0
  0
LINE
  5
12DE
330
1A24
100
AcDbEntity
  8
OUTLINE
100
AcDbLine
 10
4765.0992202457
 20
6118.16002548159
 30
0.0
 11
4597.089522599294
 21
6118.16002548159
 31
0.0
  0
LINE
  5
12DF
330
1A24
100
AcDbEntity
  8
OUTLINE
100
AcDbLine
 10
4597.089522599293
 20
6093.86002548159
 30
0.0
 11
4597.089522599294
 21
6118.16002548159
 31
0.0
  0
LINE
  5
12E0
330
1A24
100
AcDbEntity
  8
OUTLINE
100
AcDbLine
 10
4765.0992202457
 20
6093.86002548159
 30
0.0
 11
4765.0992202457
 21
6118.16002548159
 31
0.0
  0
LINE
  5
12E1
330
1A24
100
AcDbEntity
  8
DIM
100
AcDbLine
 10
1353.171878045831
 20
359.9948289653037
 30
0.0
 11
1353.171878045831
 21
108.2256335946713
 31
0.0
  0
LINE
  5
12E2
330
1A24
100
AcDbEntity
  8
DIM
100
AcDbLine
 10
-177.8281219541686
 20
359.9948289653037
 30
0.0
 11
-177.8281219541686
 21
108.2256335946713
 31
0.0
  0
LINE
  5
12E3
330
1A24
100
AcDbEntity
  8
DIM
100
AcDbLine
 10
1289.171878045831
 20
148.2256335946713
 30
0.0
 11
709.0778519754103
 21
148.2256335946713
 31
0.0
  0
LINE
  5
12E4
330
1A24
100
AcDbEntity
  8
DIM
100
AcDbLine
 10
-113.8281219541686
 20
148.2256335946713
 30
0.0
 11
440.5064234039809
 21
148.2256335946713
 31
0.0
  0
SOLID
  5
12E5
330
1A24
100
AcDbEntity
  8
DIM
100
AcDbTrace
 10
1289.171878045831
 20
158.2256335946713
 30
0.0
 11
1289.171878045831
 21
138.2256335946712
 31
0.0
 12
1353.171878045831
 22
148.2256335946713
 32
0.0
 13
1353.171878045831
 23
148.2256335946713
 33
0.0
  0
SOLID
  5
12E6
330
1A24
100
AcDbEntity
  8
DIM
100
AcDbTrace
 10
-113.8281219541686
 20
158.2256335946713
 30
0.0
 11
-113.8281219541686
 21
138.2256335946712
 31
0.0
 12
-177.8281219541686
 22
148.2256335946713
 32
0.0
 13
-177.8281219541686
 23
148.2256335946713
 33
0.0
  0
TEXT
  5
12E7
330
1A24
100
AcDbEntity
  8
DIM
100
AcDbText
 10
480.5064234039808
 20
118.2256335946712
 30
0.0
 40
60.0
  1
1531
  7
TITLE3
100
AcDbText
  0
TEXT
  5
12E8
330
1A24
100
AcDbEntity
  8
OVERLAY-A3
100
AcDbText
 10
-534.9034722558017
 20
6233.608194522906
 30
0.0
 40
48.0
  1
Date
  7
SIMPLEX
100
AcDbText
  0
TEXT
  5
12E9
330
1A24
100
AcDbEntity
  8
OVERLAY-A3
100
AcDbText
 10
1259.450937700558
 20
6270.952370849528
 30
0.0
 40
48.0
  1
Revision
 41
0.7812095035934758
  7
SIMPLEX
 72
     5
 11
1470.154300955484
 21
6270.952370849528
 31
0.0
100
AcDbText
  0
LINE
  5
12EA
330
1A24
100
AcDbEntity
  8
OVERLAY-A3
100
AcDbLine
 10
1236.211252933675
 20
6053.630752499337
 30
0.0
 11
1236.211252933674
 21
6348.483078219796
 31
0.0
  0
LINE
  5
12EB
330
1A24
100
AcDbEntity
  8
OVERLAY-A3
100
AcDbLine
 10
-594.0683881323511
 20
6669.446026186998
 30
0.0
 11
-594.0683881323511
 21
6053.630752499337
 31
0.0
  0
LINE
  5
12EC
330
1A24
100
AcDbEntity
  8
OVERLAY-A3
100
AcDbLine
 10
601.0559089795424
 20
6053.630752499337
 30
0.0
 11
601.0559089795424
 21
6348.483078219796
 31
0.0
  0
LINE
  5
12ED
330
1A24
100
AcDbEntity
  8
OVERLAY-A3
100
AcDbLine
 10
601.0559089795415
 20
6198.57096534163
 30
0.0
 11
-594.0683881323511
 21
6198.57096534163
 31
0.0
  0
LINE
  5
12EE
330
1A24
100
AcDbEntity
  8
OVERLAY-A3
100
AcDbLine
 10
1490.379483429038
 20
6348.483078219796
 30
0.0
 11
-594.0683881323511
 21
6348.483078219796
 31
0.0
  0
LINE
  5
12EF
330
1A24
100
AcDbEntity
  8
OVERLAY-A3
100
AcDbLine
 10
-594.0683881323511
 20
6053.630752499337
 30
0.0
 11
1489.784469072337
 21
6053.630752499337
 31
0.0
  0
LINE
  5
12F0
330
1A24
100
AcDbEntity
  8
OVERLAY-A3
100
AcDbLine
 10
1489.784469072337
 20
6053.630752499337
 30
0.0
 11
1489.784469072337
 21
6669.446026186998
 31
0.0
  0
LINE
  5
12F1
330
1A24
100
AcDbEntity
  8
OVERLAY-A3
100
AcDbLine
 10
1489.784469072337
 20
6669.446026186998
 30
0.0
 11
-594.0683881323511
 21
6669.446026186998
 31
0.0
  0
TEXT
  5
12F2
330
1A24
100
AcDbEntity
  8
OVERLAY-A3
100
AcDbText
 10
-543.805008840426
 20
6107.790742933421
 30
0.0
 40
40.0
  1
Scale
 41
1.370174796565972
  7
SIMPLEX
 72
     5
 11
-342.8460386774168
 21
6107.790742933421
 31
0.0
100
AcDbText
  0
TEXT
  5
12F3
330
1A24
100
AcDbEntity
  8
OVERLAY-A3
100
AcDbText
 10
716.946800154948
 20
6269.732629816124
 30
0.0
 40
40.0
  1
Drawing No.
  7
SIMPLEX
 72
     2
 11
1065.518228726377
 21
6269.732629816124
 31
0.0
100
AcDbText
  0
LINE
  5
12F4
330
1A24
100
AcDbEntity
  8
OVERLAY-A3
100
AcDbLine
 10
-741.2755417456219
 20
-0.3558578775973729
 30
0.0
 11
6064.422023467595
 21
-0.3558578775973729
 31
0.0
  0
LINE
  5
12F5
330
1A24
100
AcDbEntity
  8
OVERLAY-A3
100
AcDbLine
 10
6064.422023467595
 20
-0.3558578775973729
 30
0.0
 11
6064.422023467595
 21
6733.982577544416
 31
0.0
  0
LINE
  5
12F6
330
1A24
100
AcDbEntity
  8
OVERLAY-A3
100
AcDbLine
 10
6064.422023467595
 20
6733.982577544416
 30
0.0
 11
-741.2755417456219
 21
6733.982577544416
 31
0.0
  0
LINE
  5
12F7
330
1A24
100
AcDbEntity
  8
OVERLAY-A3
100
AcDbLine
 10
-741.2755417456219
 20
6733.982577544416
 30
0.0
 11
-741.2755417456219
 21
-0.3558578775973729
 31
0.0
  0
LINE
  5
12F8
330
1A24
100
AcDbEntity
  8
OUTLINE
100
AcDbLine
 10
3438.321284363821
 20
1610.396537257391
 30
0.0
 11
3277.339693402702
 21
1602.566364182267
 31
0.0
  0
LINE
  5
12FE
330
1A24
100
AcDbEntity
  8
OUTLINE
100
AcDbLine
 10
3510.162608256155
 20
1594.594028995523
 30
0.0
 11
3485.77620137017
 21
1594.594028995523
 31
0.0
  0
LINE
  5
1302
330
1A24
100
AcDbEntity
  8
OUTLINE
100
AcDbLine
 10
3510.162608256155
 20
1594.594028995523
 30
0.0
 11
3510.162608256154
 21
1589.394028995523
 31
0.0
  0
ARC
  5
1303
330
1A24
100
AcDbEntity
  8
OUTLINE
100
AcDbCircle
 10
3438.321284363821
 20
1595.996537257391
 30
0.0
 40
14.4
100
AcDbArc
 50
70.65041591328377
 51
90.0
  0
LINE
  5
1304
330
1A24
100
AcDbEntity
  8
OUTLINE
100
AcDbLine
 10
3443.092451331833
 20
1609.583147053928
 30
0.0
 11
3485.77620137017
 21
1594.594028995523
 31
0.0
  0
LINE
  5
1305
330
1A24
100
AcDbEntity
  8
OUTLINE
100
AcDbLine
 10
3234.394371422496
 20
1509.396537257392
 30
0.0
 11
3259.166325721348
 21
1590.375144182116
 31
0.0
  0
LINE
  5
1307
330
1A24
100
AcDbEntity
  8
OUTLINE
100
AcDbLine
 10
-177.8281219541686
 20
402.3965372573949
 30
0.0
 11
1353.171878045831
 21
402.3965372573948
 31
0.0
  0
LINE
  5
1308
330
1A24
100
AcDbEntity
  8
OUTLINE
100
AcDbLine
 10
1353.171878045831
 20
410.3965372573949
 30
0.0
 11
1307.171878045833
 21
452.3965372573939
 31
0.0
  0
LINE
  5
1309
330
1A24
100
AcDbEntity
  8
OUTLINE
100
AcDbLine
 10
1353.171878045831
 20
402.3965372573948
 30
0.0
 11
1353.171878045831
 21
410.3965372573949
 31
0.0
  0
LINE
  5
130A
330
1A24
100
AcDbEntity
  8
OUTLINE
100
AcDbLine
 10
-177.8281219541686
 20
410.3965372573957
 30
0.0
 11
-131.8281219541685
 21
452.3965372573948
 31
0.0
  0
LINE
  5
130B
330
1A24
100
AcDbEntity
  8
OUTLINE
100
AcDbLine
 10
-177.8281219541686
 20
402.3965372573949
 30
0.0
 11
-177.8281219541686
 21
410.3965372573957
 31
0.0
  0
LINE
  5
130C
330
1A24
100
AcDbEntity
  8
DIM
100
AcDbLine
 10
-163.3281219541686
 20
362.3965372573948
 30
0.0
 11
-163.3281219541686
 21
233.3754856029481
 31
0.0
  0
LINE
  5
130D
330
1A24
100
AcDbEntity
  8
DIM
100
AcDbLine
 10
1338.671878045831
 20
362.3965372573948
 30
0.0
 11
1338.671878045831
 21
233.3754856029481
 31
0.0
  0
LINE
  5
130E
330
1A24
100
AcDbEntity
  8
DIM
100
AcDbLine
 10
-103.3281219541686
 20
273.3754856029481
 30
0.0
 11
294.5802806006668
 21
273.3754856029481
 31
0.0
  0
LINE
  5
130F
330
1A24
100
AcDbEntity
  8
DIM
100
AcDbLine
 10
1278.671878045831
 20
273.3754856029481
 30
0.0
 11
857.4374234578099
 21
273.3754856029481
 31
0.0
  0
SOLID
  5
1310
330
1A24
100
AcDbEntity
  8
DIM
100
AcDbTrace
 10
-103.3281219541686
 20
283.375485602948
 30
0.0
 11
-103.3281219541686
 21
263.3754856029481
 31
0.0
 12
-163.3281219541686
 22
273.3754856029481
 32
0.0
 13
-163.3281219541686
 23
273.3754856029481
 33
0.0
  0
SOLID
  5
1311
330
1A24
100
AcDbEntity
  8
DIM
100
AcDbTrace
 10
1278.671878045831
 20
283.375485602948
 30
0.0
 11
1278.671878045831
 21
263.3754856029481
 31
0.0
 12
1338.671878045831
 22
273.3754856029481
 32
0.0
 13
1338.671878045831
 23
273.3754856029481
 33
0.0
  0
TEXT
  5
1312
330
1A24
100
AcDbEntity
  8
DIM
100
AcDbText
 10
334.5802806006641
 20
243.3754856029481
 30
0.0
 40
60.0
  1
1502 CTRS
  7
TITLE3
100
AcDbText
  0
LINE
  5
1315
330
1A24
100
AcDbEntity
  8
CLEAR
100
AcDbLine
 10
2646.594371422496
 20
6593.860025481591
 30
0.0
 11
4945.539919069113
 21
6593.860025481589
 31
0.0
  0
LINE
  5
1316
330
1A24
100
AcDbEntity
  8
CLEAR
100
AcDbLine
 10
5445.594371422498
 20
6093.860025481588
 30
0.0
 11
5445.594371422498
 21
4415.860025481588
 31
0.0
  0
LINE
  5
1317
330
1A24
100
AcDbEntity
  8
CLEAR
100
AcDbLine
 10
1646.194371422499
 20
4415.860025481588
 30
0.0
 11
1646.194371422497
 21
6093.860025481591
 31
0.0
  0
LINE
  5
1318
330
1A24
100
AcDbEntity
  8
CLEAR
100
AcDbLine
 10
4947.994371422497
 20
3915.860025481589
 30
0.0
 11
2646.594371422497
 21
3915.860025481589
 31
0.0
  0
TEXT
  5
1319
330
1A24
100
AcDbEntity
  8
TEXT
100
AcDbText
 10
-262.1565364005164
 20
6107.47567593787
 30
0.0
 40
60.0
  1
1:20
  7
TITLE3
100
AcDbText
  0
LINE
  5
1338
330
1A24
100
AcDbEntity
  8
DIM
100
AcDbLine
 10
3365.175533170186
 20
1610.396537257396
 30
0.0
 11
2319.219464580642
 21
1610.396537257396
 31
0.0
  0
LINE
  5
1339
330
1A24
100
AcDbEntity
  8
CLEAR
100
AcDbLine
 10
1646.194371422499
 20
4415.860025481588
 30
0.0
 11
2364.226494410574
 21
4415.860025481588
 31
0.0
  0
LINE
  5
133A
330
1A24
100
AcDbEntity
  8
CLEAR
100
AcDbLine
 10
2646.594371422497
 20
3426.860025481589
 30
0.0
 11
2646.594371422497
 21
3509.396537257394
 31
0.0
  0
LINE
  5
133B
330
1A24
100
AcDbEntity
  8
CLEAR
100
AcDbLine
 10
4945.594371422497
 20
3426.860025481589
 30
0.0
 11
4945.594371422496
 21
3509.396537257394
 31
0.0
  0
LINE
  5
133C
330
1A24
100
AcDbEntity
  8
CLEAR
100
AcDbLine
 10
5445.594371422498
 20
4415.860025481588
 30
0.0
 11
4973.260984599125
 21
4415.860025481588
 31
0.0
  0
LINE
  5
133D
330
1A24
100
AcDbEntity
  8
DIM
100
AcDbLine
 10
2648.594371422497
 20
432.4441196628031
 30
0.0
 11
2648.594371422497
 21
126.1365390300889
 31
0.0
  0
LINE
  5
133E
330
1A24
100
AcDbEntity
  8
DIM
100
AcDbLine
 10
2588.594371422499
 20
166.1365390300888
 30
0.0
 11
2528.594371422496
 21
166.1365390300888
 31
0.0
  0
SOLID
  5
133F
330
1A24
100
AcDbEntity
  8
DIM
100
AcDbTrace
 10
2588.594371422499
 20
176.1365390300889
 30
0.0
 11
2588.594371422499
 21
156.1365390300889
 31
0.0
 12
2648.594371422497
 22
166.1365390300888
 32
0.0
 13
2648.594371422497
 23
166.1365390300888
 33
0.0
  0
TEXT
  5
1340
330
1A24
100
AcDbEntity
  8
DIM
100
AcDbText
 10
2697.386800055962
 20
136.1365390300888
 30
0.0
 40
60.0
  1
262
  7
TITLE3
100
AcDbText
  0
LINE
  5
1341
330
1A24
100
AcDbEntity
  8
DIM
100
AcDbLine
 10
2910.094182342588
 20
362.3965372573948
 30
0.0
 11
2910.094182342588
 21
126.1365390300889
 31
0.0
  0
LINE
  5
1342
330
1A24
100
AcDbEntity
  8
DIM
100
AcDbLine
 10
4681.094371422497
 20
362.3965372573948
 30
0.0
 11
4681.094371422497
 21
126.1365390300889
 31
0.0
  0
LINE
  5
1343
330
1A24
100
AcDbEntity
  8
DIM
100
AcDbLine
 10
2970.094182342588
 20
166.1365390300888
 30
0.0
 11
3722.669710979376
 21
166.1365390300888
 31
0.0
  0
LINE
  5
1344
330
1A24
100
AcDbEntity
  8
DIM
100
AcDbLine
 10
4621.094371422496
 20
166.1365390300888
 30
0.0
 11
3979.64341093394
 21
166.1365390300888
 31
0.0
  0
SOLID
  5
1345
330
1A24
100
AcDbEntity
  8
DIM
100
AcDbTrace
 10
2970.094182342588
 20
176.1365390300889
 30
0.0
 11
2970.094182342588
 21
156.1365390300889
 31
0.0
 12
2910.094182342588
 22
166.1365390300888
 32
0.0
 13
2910.094182342588
 23
166.1365390300888
 33
0.0
  0
SOLID
  5
1346
330
1A24
100
AcDbEntity
  8
DIM
100
AcDbTrace
 10
4621.094371422496
 20
176.1365390300889
 30
0.0
 11
4621.094371422496
 21
156.1365390300889
 31
0.0
 12
4681.094371422497
 22
166.1365390300888
 32
0.0
 13
4681.094371422497
 23
166.1365390300888
 33
0.0
  0
TEXT
  5
1347
330
1A24
100
AcDbEntity
  8
DIM
100
AcDbText
 10
3762.669710979379
 20
136.1365390300888
 30
0.0
 40
60.0
  1
1771
  7
TITLE3
100
AcDbText
  0
LINE
  5
1348
330
1A24
100
AcDbEntity
  8
DIM
100
AcDbLine
 10
4943.594371422498
 20
412.3965372573943
 30
0.0
 11
4943.594371422498
 21
126.1365390300889
 31
0.0
  0
LINE
  5
1349
330
1A24
100
AcDbEntity
  8
DIM
100
AcDbLine
 10
5003.594371422497
 20
166.1365390300888
 30
0.0
 11
5063.594371422496
 21
166.1365390300888
 31
0.0
  0
SOLID
  5
134A
330
1A24
100
AcDbEntity
  8
DIM
100
AcDbTrace
 10
5003.594371422497
 20
176.1365390300889
 30
0.0
 11
5003.594371422497
 21
156.1365390300889
 31
0.0
 12
4943.594371422498
 22
166.1365390300888
 32
0.0
 13
4943.594371422498
 23
166.1365390300888
 33
0.0
  0
TEXT
  5
134B
330
1A24
100
AcDbEntity
  8
DIM
100
AcDbText
 10
4728.329351713511
 20
136.1365390300888
 30
0.0
 40
60.0
  1
262
  7
TITLE3
100
AcDbText
  0
LINE
  5
134C
330
1A24
100
AcDbEntity
  8
CLEAR
100
AcDbLine
 10
4947.994371422497
 20
3509.396537257394
 30
0.0
 11
2646.594371422497
 21
3509.396537257394
 31
0.0
  0
LINE
  5
134D
330
1A24
100
AcDbEntity
  8
CLEAR
100
AcDbLine
 10
2646.594371422497
 20
3509.396537257394
 30
0.0
 11
2646.594371422497
 21
1526.566510856619
 31
0.0
  0
LINE
  5
134E
330
1A24
100
AcDbEntity
  8
CLEAR
100
AcDbLine
 10
4945.594371422497
 20
3509.396537257393
 30
0.0
 11
4945.594371422497
 21
1556.722270650709
 31
0.0
  0
LINE
  5
134F
330
1A24
100
AcDbEntity
  8
DIM
100
AcDbLine
 10
4096.903154014102
 20
6185.228525839058
 30
0.0
 11
4058.911174518336
 21
6185.228525839058
 31
0.0
  0
LINE
  5
1350
330
1A24
100
AcDbEntity
  8
DIM
100
AcDbLine
 10
4077.907164266219
 20
6113.029435969703
 30
0.0
 11
4137.74453197205
 21
6162.179774735498
 31
0.0
  0
LINE
  5
1351
330
1A24
100
AcDbEntity
  8
DIM
100
AcDbLine
 10
4058.911174518336
 20
6162.179774735498
 30
0.0
 11
4058.911174518336
 21
6185.228525839058
 31
0.0
  0
LINE
  5
1352
330
1A24
100
AcDbEntity
  8
DIM
100
AcDbLine
 10
4018.069796560388
 20
6162.179774735498
 30
0.0
 11
4058.911174518336
 21
6162.179774735498
 31
0.0
  0
LINE
  5
1353
330
1A24
100
AcDbEntity
  8
DIM
100
AcDbLine
 10
4077.907164266219
 20
6113.029435969703
 30
0.0
 11
4018.069796560388
 21
6162.179774735498
 31
0.0
  0
LINE
  5
1354
330
1A24
100
AcDbEntity
  8
DIM
100
AcDbLine
 10
4096.903154014102
 20
6162.179774735498
 30
0.0
 11
4096.903154014102
 21
6185.228525839058
 31
0.0
  0
LINE
  5
1355
330
1A24
100
AcDbEntity
  8
DIM
100
AcDbLine
 10
4137.74453197205
 20
6162.179774735498
 30
0.0
 11
4096.903154014102
 21
6162.179774735498
 31
0.0
  0
LINE
  5
1356
330
1A24
100
AcDbEntity
  8
DIM
100
AcDbLine
 10
4096.903154014102
 20
4335.402664404692
 30
0.0
 11
4058.911174518336
 21
4335.402664404692
 31
0.0
  0
LINE
  5
1357
330
1A24
100
AcDbEntity
  8
DIM
100
AcDbLine
 10
4077.907164266219
 20
4407.601754274044
 30
0.0
 11
4137.74453197205
 21
4358.451415508249
 31
0.0
  0
LINE
  5
1358
330
1A24
100
AcDbEntity
  8
DIM
100
AcDbLine
 10
4058.911174518336
 20
4358.451415508249
 30
0.0
 11
4058.911174518336
 21
4335.402664404692
 31
0.0
  0
LINE
  5
1359
330
1A24
100
AcDbEntity
  8
DIM
100
AcDbLine
 10
4018.069796560388
 20
4358.451415508249
 30
0.0
 11
4058.911174518336
 21
4358.451415508249
 31
0.0
  0
LINE
  5
135A
330
1A24
100
AcDbEntity
  8
DIM
100
AcDbLine
 10
4077.907164266219
 20
4407.601754274044
 30
0.0
 11
4018.069796560388
 21
4358.451415508249
 31
0.0
  0
LINE
  5
135B
330
1A24
100
AcDbEntity
  8
DIM
100
AcDbLine
 10
4096.903154014102
 20
4358.451415508249
 30
0.0
 11
4096.903154014102
 21
4335.402664404692
 31
0.0
  0
LINE
  5
135C
330
1A24
100
AcDbEntity
  8
DIM
100
AcDbLine
 10
4137.74453197205
 20
4358.451415508249
 30
0.0
 11
4096.903154014102
 21
4358.451415508249
 31
0.0
  0
TEXT
  5
135D
330
1A24
100
AcDbEntity
  8
TEXT
100
AcDbText
 10
3638.785234845614
 20
886.7263160318193
 30
0.0
 40
140.0
  1
OSA840
  7
TITLE5
 72
     1
 11
4032.118568178947
 21
886.7263160318193
 31
0.0
100
AcDbText
  0
TEXT
  5
135E
330
1A24
100
AcDbEntity
  8
TEXT
100
AcDbText
 10
3664.682323385589
 20
5209.726882064328
 30
0.0
 40
140.0
  1
OSA 840
  7
TITLE5
 72
     1
 11
4121.348990052255
 21
5209.726882064328
 31
0.0
100
AcDbText
  0
TEXT
  5
135F
330
1A24
100
AcDbEntity
  8
TEXT
100
AcDbText
 10
256.3783459041472
 20
868.6451522858513
 30
0.0
 40
112.0
  1
OSA840
  7
TITLE5
 72
     1
 11
571.0450125708139
 21
868.6451522858513
 31
0.0
100
AcDbText
  0
TEXT
  5
1360
330
1A24
100
AcDbEntity
  8
TEXT
100
AcDbText
 10
3298.231437605347
 20
6507.820322166591
 30
0.0
 40
60.0
  1
500 min CLEARANCE
  7
TITLE3
100
AcDbText
  0
TEXT
  5
1361
330
1A24
100
AcDbEntity
  8
TEXT
100
AcDbText
 10
3331.232888663147
 20
3394.945862417544
 30
0.0
 40
60.0
  1
2000 min CLEARANCE
  7
TITLE3
100
AcDbText
  0
TEXT
  5
1362
330
1A24
100
AcDbEntity
  8
TEXT
100
AcDbText
 10
3331.232888663147
 20
3971.216671609714
 30
0.0
 40
60.0
  1
500 min CLEARANCE
  7
TITLE3
100
AcDbText
  0
TEXT
  5
1363
330
1A24
100
AcDbEntity
  8
TEXT
100
AcDbText
 10
1741.632794587079
 20
4797.796762902069
 30
0.0
 40
60.0
  1
1000 min CLEARANCE
 50
90.0
  7
TITLE3
100
AcDbText
  0
TEXT
  5
1364
330
1A24
100
AcDbEntity
  8
TEXT
100
AcDbText
 10
5395.404266799865
 20
4860.962218869763
 30
0.0
 40
60.0
  1
500 min CLEARANCE
 50
90.0
  7
TITLE3
100
AcDbText
  0
INSERT
  5
1365
330
1A24
100
AcDbEntity
  8
TEXT
100
AcDbBlockReference
  2
NEW_BLOCK
 10
560.9318989551491
 20
5474.468828812423
 30
0.0
  0
ARC
  5
1629
330
1A24
100
AcDbEntity
  8
OUTLINE
100
AcDbCircle
 10
3276.352721250085
 20
1584.396569759446
 30
0.0
 40
18.19658054134336
100
AcDbArc
 50
86.89078380870205
 51
160.8189170002086
  0
LINE
  5
162C
330
1A24
100
AcDbEntity
  8
OUTLINE
100
AcDbLine
 10
3738.467458481173
 20
1610.396537257391
 30
0.0
 11
3899.449049442291
 21
1602.566364182267
 31
0.0
  0
ARC
  5
162D
330
1A24
100
AcDbEntity
  8
OUTLINE
100
AcDbCircle
 10
3900.436021594911
 20
1584.396569759446
 30
0.0
 40
18.19658054134215
100
AcDbArc
 50
19.18108299979654
 51
93.10921619124577
  0
LINE
  5
162E
330
1A24
100
AcDbEntity
  8
OUTLINE
100
AcDbLine
 10
3666.626134588839
 20
1594.594028995523
 30
0.0
 11
3691.012541474823
 21
1594.594028995523
 31
0.0
  0
LINE
  5
162F
330
1A24
100
AcDbEntity
  8
OUTLINE
100
AcDbLine
 10
3666.62613458884
 20
1589.394028995523
 30
0.0
 11
3510.162608256154
 21
1589.394028995522
 31
0.0
  0
LINE
  5
1630
330
1A24
100
AcDbEntity
  8
OUTLINE
100
AcDbLine
 10
3666.626134588839
 20
1594.594028995523
 30
0.0
 11
3666.62613458884
 21
1589.394028995523
 31
0.0
  0
ARC
  5
1631
330
1A24
100
AcDbEntity
  8
OUTLINE
100
AcDbCircle
 10
3738.467458481173
 20
1595.996537257391
 30
0.0
 40
14.4
100
AcDbArc
 50
90.0
 51
109.3495840867162
  0
LINE
  5
1632
330
1A24
100
AcDbEntity
  8
OUTLINE
100
AcDbLine
 10
3733.69629151316
 20
1609.583147053928
 30
0.0
 11
3691.012541474823
 21
1594.594028995523
 31
0.0
  0
LINE
  5
1633
330
1A24
100
AcDbEntity
  8
OUTLINE
100
AcDbLine
 10
3942.394371422497
 20
1509.396537257392
 30
0.0
 11
3917.622417123645
 21
1590.375144182116
 31
0.0
  0
LINE
  5
1634
330
1A24
100
AcDbEntity
  8
OUTLINE
100
AcDbLine
 10
4338.321284363821
 20
1610.396537257392
 30
0.0
 11
4177.339693402703
 21
1602.566364182268
 31
0.0
  0
ARC
  5
1635
330
1A24
100
AcDbEntity
  8
OUTLINE
100
AcDbCircle
 10
4176.352721250085
 20
1584.396569759447
 30
0.0
 40
18.19658054134387
100
AcDbArc
 50
86.89078380870205
 51
160.818917000208
  0
LINE
  5
1636
330
1A24
100
AcDbEntity
  8
OUTLINE
100
AcDbLine
 10
4410.162608256154
 20
1594.594028995524
 30
0.0
 11
4385.776201370169
 21
1594.594028995524
 31
0.0
  0
LINE
  5
1637
330
1A24
100
AcDbEntity
  8
OUTLINE
100
AcDbLine
 10
4410.162608256154
 20
1589.394028995524
 30
0.0
 11
4566.626134588839
 21
1589.394028995522
 31
0.0
  0
LINE
  5
1638
330
1A24
100
AcDbEntity
  8
OUTLINE
100
AcDbLine
 10
4410.162608256154
 20
1594.594028995524
 30
0.0
 11
4410.162608256154
 21
1589.394028995524
 31
0.0
  0
ARC
  5
1639
330
1A24
100
AcDbEntity
  8
OUTLINE
100
AcDbCircle
 10
4338.321284363821
 20
1595.996537257392
 30
0.0
 40
14.4
100
AcDbArc
 50
70.65041591328385
 51
90.0
  0
LINE
  5
163A
330
1A24
100
AcDbEntity
  8
OUTLINE
100
AcDbLine
 10
4343.092451331833
 20
1609.583147053929
 30
0.0
 11
4385.776201370169
 21
1594.594028995524
 31
0.0
  0
LINE
  5
163B
330
1A24
100
AcDbEntity
  8
OUTLINE
100
AcDbLine
 10
4134.394371422497
 20
1509.396537257393
 30
0.0
 11
4159.166325721347
 21
1590.375144182117
 31
0.0
  0
LINE
  5
163C
330
1A24
100
AcDbEntity
  8
OUTLINE
100
AcDbLine
 10
4638.467458481172
 20
1610.396537257392
 30
0.0
 11
4799.449049442292
 21
1602.566364182268
 31
0.0
  0
ARC
  5
163D
330
1A24
100
AcDbEntity
  8
OUTLINE
100
AcDbCircle
 10
4800.436021594912
 20
1584.396569759447
 30
0.0
 40
18.19658054134229
100
AcDbArc
 50
19.18108299979761
 51
93.10921619124577
  0
LINE
  5
163E
330
1A24
100
AcDbEntity
  8
OUTLINE
100
AcDbLine
 10
4566.626134588838
 20
1594.594028995524
 30
0.0
 11
4591.012541474823
 21
1594.594028995524
 31
0.0
  0
LINE
  5
1640
330
1A24
100
AcDbEntity
  8
OUTLINE
100
AcDbLine
 10
4566.626134588838
 20
1594.594028995524
 30
0.0
 11
4566.626134588839
 21
1589.394028995524
 31
0.0
  0
ARC
  5
1641
330
1A24
100
AcDbEntity
  8
OUTLINE
100
AcDbCircle
 10
4638.467458481172
 20
1595.996537257392
 30
0.0
 40
14.4
100
AcDbArc
 50
90.0
 51
109.3495840867162
  0
LINE
  5
1642
330
1A24
100
AcDbEntity
  8
OUTLINE
100
AcDbLine
 10
4633.69629151316
 20
1609.583147053929
 30
0.0
 11
4591.012541474823
 21
1594.594028995524
 31
0.0
  0
LINE
  5
1643
330
1A24
100
AcDbEntity
  8
OUTLINE
100
AcDbLine
 10
4842.394371422496
 20
1509.396537257393
 30
0.0
 11
4817.622417123645
 21
1590.375144182117
 31
0.0
  0
LINE
  5
168F
330
1A24
100
AcDbEntity
  8
OUTLINE
100
AcDbLine
 10
4945.539919069116
 20
4415.860025481588
 30
0.0
 11
4945.539919069113
 21
6093.86002548159
 31
0.0
  0
CIRCLE
  5
1693
330
1A24
100
AcDbEntity
  8
OUTLINE
100
AcDbCircle
 10
59.67187804583137
 20
519.3965372573948
 30
0.0
 40
19.0
  0
CIRCLE
  5
1695
330
1A24
100
AcDbEntity
  8
OUTLINE
100
AcDbCircle
 10
124.2718780458317
 20
519.3965372573948
 30
0.0
 40
25.0
  0
CIRCLE
  5
16A1
330
1A24
100
AcDbEntity
  8
OUTLINE
100
AcDbCircle
 10
250.9718780458316
 20
519.3965372573948
 30
0.0
 40
12.7
  0
CIRCLE
  5
16A2
330
1A24
100
AcDbEntity
  8
OUTLINE
100
AcDbCircle
 10
285.9718780458315
 20
519.3965372573948
 30
0.0
 40
12.7
  0
CIRCLE
  5
16A3
330
1A24
100
AcDbEntity
  8
OUTLINE
100
AcDbCircle
 10
320.9718780458315
 20
519.3965372573948
 30
0.0
 40
12.7
  0
CIRCLE
  5
16A4
330
1A24
100
AcDbEntity
  8
OUTLINE
100
AcDbCircle
 10
1115.171878045829
 20
519.3965372573948
 30
0.0
 40
19.0
  0
CIRCLE
  5
16A5
330
1A24
100
AcDbEntity
  8
OUTLINE
100
AcDbCircle
 10
1050.571878045829
 20
519.3965372573948
 30
0.0
 40
25.0
  0
LINE
  5
16AE
330
1A24
100
AcDbEntity
  8
OUTLINE
100
AcDbLine
 10
-61.07812195416864
 20
1418.196537257392
 30
0.0
 11
-61.07812195416864
 21
452.3965372573948
 31
0.0
  0
LINE
  5
16AF
330
1A24
100
AcDbEntity
  8
OUTLINE
100
AcDbLine
 10
1235.92187804583
 20
1418.196537257392
 30
0.0
 11
1235.921878045829
 21
452.3965372573928
 31
0.0
  0
LINE
  5
16B1
330
1A24
100
AcDbEntity
  8
OUTLINE
100
AcDbLine
 10
-61.07812195416864
 20
586.3965372573948
 30
0.0
 11
1235.921878045829
 21
586.3965372573948
 31
0.0
  0
LINE
  5
16B9
330
1A24
100
AcDbEntity
  8
DIM
100
AcDbLine
 10
-196.9780274142113
 20
402.3965372573957
 30
0.0
 11
-343.0242403528646
 21
402.3965372573957
 31
0.0
  0
LINE
  5
16BA
330
1A24
100
AcDbEntity
  8
DIM
100
AcDbLine
 10
22.1214521156171
 20
519.3965372573948
 30
0.0
 11
-342.1714426341268
 21
519.3965372573948
 31
0.0
  0
LINE
  5
16BB
330
1A24
100
AcDbEntity
  8
DIM
100
AcDbLine
 10
-303.0242403528646
 20
567.3965372573945
 30
0.0
 11
-303.0242403528646
 21
695.2822515431088
 31
0.0
  0
LINE
  5
16BC
330
1A24
100
AcDbEntity
  8
DIM
100
AcDbLine
 10
-303.0242403528646
 20
402.3965372573957
 30
0.0
 11
-303.0242403528646
 21
212.097566130904
 31
0.0
  0
SOLID
  5
16BD
330
1A24
100
AcDbEntity
  8
DIM
100
AcDbTrace
 10
-313.0242403528637
 20
579.3965372573946
 30
0.0
 11
-293.0242403528646
 21
579.3965372573946
 31
0.0
 12
-303.0242403528646
 22
519.3965372573948
 32
0.0
 13
-303.0242403528646
 23
519.3965372573948
 33
0.0
  0
SOLID
  5
16BE
330
1A24
100
AcDbEntity
  8
DIM
100
AcDbTrace
 10
-313.0242403528637
 20
342.3965372573949
 30
0.0
 11
-293.0242403528646
 21
342.3965372573949
 31
0.0
 12
-303.0242403528646
 22
402.3965372573957
 32
0.0
 13
-303.0242403528646
 23
402.3965372573957
 33
0.0
  0
TEXT
  5
16BF
330
1A24
100
AcDbEntity
  8
DIM
100
AcDbText
 10
-384.1455817242821
 20
386.6138143850206
 30
0.0
 40
60.0
  1
117
 50
90.0
  7
TITLE3
 72
     4
 11
-414.145581724282
 21
452.3281000993063
 31
0.0
100
AcDbText
  0
LINE
  5
16C0
330
1A24
100
AcDbEntity
  8
DIM
100
AcDbLine
 10
-196.9780274142113
 20
402.3965372573957
 30
0.0
 11
-343.0242403528646
 21
402.3965372573957
 31
0.0
  0
LINE
  5
177A
330
1A24
100
AcDbEntity
  8
OUTLINE
100
AcDbLine
 10
2646.594371422497
 20
6129.221558813313
 30
0.0
 11
2646.594371422497
 21
6349.782055606987
 31
0.0
  0
LINE
  5
177B
330
1A24
100
AcDbEntity
  8
OUTLINE
100
AcDbLine
 10
4945.539919069112
 20
6129.221558813313
 30
0.0
 11
4945.539919069112
 21
6349.782055606986
 31
0.0
  0
LINE
  5
17A1
330
1A24
100
AcDbEntity
  8
DIM
100
AcDbLine
 10
223.874141125209
 20
1760.551940761035
 30
0.0
 11
185.8821616294449
 21
1760.551940761035
 31
0.0
  0
LINE
  5
17A2
330
1A24
100
AcDbEntity
  8
DIM
100
AcDbLine
 10
204.8781513773269
 20
1832.75103063039
 30
0.0
 11
145.0407836714968
 21
1783.600691864594
 31
0.0
  0
LINE
  5
17A3
330
1A24
100
AcDbEntity
  8
DIM
100
AcDbLine
 10
145.0407836714968
 20
1783.600691864594
 30
0.0
 11
185.8821616294449
 21
1783.600691864594
 31
0.0
  0
LINE
  5
17A4
330
1A24
100
AcDbEntity
  8
DIM
100
AcDbLine
 10
185.8821616294449
 20
1783.600691864594
 30
0.0
 11
185.8821616294449
 21
1760.551940761035
 31
0.0
  0
LINE
  5
17A5
330
1A24
100
AcDbEntity
  8
DIM
100
AcDbLine
 10
204.8781513773269
 20
1832.75103063039
 30
0.0
 11
264.7155190831559
 21
1783.600691864594
 31
0.0
  0
LINE
  5
17A6
330
1A24
100
AcDbEntity
  8
DIM
100
AcDbLine
 10
264.7155190831559
 20
1783.600691864594
 30
0.0
 11
223.874141125209
 21
1783.600691864594
 31
0.0
  0
LINE
  5
17A7
330
1A24
100
AcDbEntity
  8
DIM
100
AcDbLine
 10
223.874141125209
 20
1783.600691864594
 30
0.0
 11
223.874141125209
 21
1760.551940761035
 31
0.0
  0
LINE
  5
17A8
330
1A24
100
AcDbEntity
  8
DIM
100
AcDbLine
 10
995.8810188480638
 20
1760.551940761035
 30
0.0
 11
957.8890393522994
 21
1760.551940761035
 31
0.0
  0
LINE
  5
17A9
330
1A24
100
AcDbEntity
  8
DIM
100
AcDbLine
 10
976.8850291001824
 20
1832.75103063039
 30
0.0
 11
917.0476613943518
 21
1783.600691864594
 31
0.0
  0
LINE
  5
17AA
330
1A24
100
AcDbEntity
  8
DIM
100
AcDbLine
 10
957.8890393522994
 20
1783.600691864594
 30
0.0
 11
957.8890393522994
 21
1760.551940761035
 31
0.0
  0
LINE
  5
17AB
330
1A24
100
AcDbEntity
  8
DIM
100
AcDbLine
 10
917.0476613943518
 20
1783.600691864594
 30
0.0
 11
957.8890393522994
 21
1783.600691864594
 31
0.0
  0
LINE
  5
17AC
330
1A24
100
AcDbEntity
  8
DIM
100
AcDbLine
 10
976.8850291001824
 20
1832.75103063039
 30
0.0
 11
1036.722396806011
 21
1783.600691864594
 31
0.0
  0
LINE
  5
17AD
330
1A24
100
AcDbEntity
  8
DIM
100
AcDbLine
 10
995.8810188480638
 20
1783.600691864594
 30
0.0
 11
995.8810188480638
 21
1760.551940761035
 31
0.0
  0
LINE
  5
17AE
330
1A24
100
AcDbEntity
  8
DIM
100
AcDbLine
 10
1036.722396806011
 20
1783.600691864594
 30
0.0
 11
995.8810188480638
 21
1783.600691864594
 31
0.0
  0
LINE
  5
1B1F
330
1A24
100
AcDbEntity
  8
OUTLINE
100
AcDbLine
 10
1426.421878045831
 20
1509.396537257392
 30
0.0
 11
605.7218780458308
 21
1509.396537257392
 31
0.0
  0
LINE
  5
1B20
330
1A24
100
AcDbEntity
  8
OUTLINE
100
AcDbLine
 10
-251.5781219541689
 20
1509.396537257392
 30
0.0
 11
-131.8281219541685
 21
452.3965372573948
 31
0.0
  0
LINE
  5
1B21
330
1A24
100
AcDbEntity
  8
OUTLINE
100
AcDbLine
 10
1426.421878045831
 20
1509.396537257392
 30
0.0
 11
1307.171878045833
 21
452.3965372573939
 31
0.0
  0
LINE
  5
1B22
330
1A24
100
AcDbEntity
  8
OUTLINE
100
AcDbLine
 10
1416.132757894459
 20
1418.196537257393
 30
0.0
 11
-241.2458608378017
 21
1418.196537257392
 31
0.0
  0
LINE
  5
1B4F
330
1A24
100
AcDbEntity
  8
OUTLINE
100
AcDbLine
 10
47.34879098715509
 20
1610.396537257392
 30
0.0
 11
-113.6327999739637
 21
1602.566364182268
 31
0.0
  0
LINE
  5
1B50
330
1A24
100
AcDbEntity
  8
OUTLINE
100
AcDbLine
 10
119.1901148794891
 20
1594.594028995524
 30
0.0
 11
94.8037079935043
 21
1594.594028995524
 31
0.0
  0
LINE
  5
1B51
330
1A24
100
AcDbEntity
  8
OUTLINE
100
AcDbLine
 10
119.1901148794891
 20
1594.594028995524
 30
0.0
 11
119.1901148794882
 21
1589.394028995524
 31
0.0
  0
ARC
  5
1B52
330
1A24
100
AcDbEntity
  8
OUTLINE
100
AcDbCircle
 10
47.34879098715509
 20
1595.996537257392
 30
0.0
 40
14.4
100
AcDbArc
 50
70.65041591328377
 51
90.0
  0
LINE
  5
1B53
330
1A24
100
AcDbEntity
  8
OUTLINE
100
AcDbLine
 10
52.11995795516713
 20
1609.583147053929
 30
0.0
 11
94.8037079935043
 21
1594.594028995524
 31
0.0
  0
LINE
  5
1B54
330
1A24
100
AcDbEntity
  8
OUTLINE
100
AcDbLine
 10
-156.5781219541691
 20
1509.396537257393
 30
0.0
 11
-131.8061676553184
 21
1590.375144182117
 31
0.0
  0
ARC
  5
1B55
330
1A24
100
AcDbEntity
  8
OUTLINE
100
AcDbCircle
 10
-114.6197721265812
 20
1584.396569759447
 30
0.0
 40
18.19658054134336
100
AcDbArc
 50
86.89078380870205
 51
160.8189170002106
  0
LINE
  5
1B56
330
1A24
100
AcDbEntity
  8
OUTLINE
100
AcDbLine
 10
347.4949651045067
 20
1610.396537257392
 30
0.0
 11
508.4765560656255
 21
1602.566364182268
 31
0.0
  0
ARC
  5
1B57
330
1A24
100
AcDbEntity
  8
OUTLINE
100
AcDbCircle
 10
509.4635282182448
 20
1584.396569759447
 30
0.0
 40
18.19658054134215
100
AcDbArc
 50
19.18108299979414
 51
93.10921619124577
  0
LINE
  5
1B58
330
1A24
100
AcDbEntity
  8
OUTLINE
100
AcDbLine
 10
275.6536412121727
 20
1594.594028995524
 30
0.0
 11
300.0400480981575
 21
1594.594028995524
 31
0.0
  0
LINE
  5
1B59
330
1A24
100
AcDbEntity
  8
OUTLINE
100
AcDbLine
 10
275.6536412121736
 20
1589.394028995524
 30
0.0
 11
119.1901148794882
 21
1589.394028995523
 31
0.0
  0
LINE
  5
1B5A
330
1A24
100
AcDbEntity
  8
OUTLINE
100
AcDbLine
 10
275.6536412121727
 20
1594.594028995524
 30
0.0
 11
275.6536412121736
 21
1589.394028995524
 31
0.0
  0
ARC
  5
1B5B
330
1A24
100
AcDbEntity
  8
OUTLINE
100
AcDbCircle
 10
347.4949651045067
 20
1595.996537257392
 30
0.0
 40
14.4
100
AcDbArc
 50
90.0
 51
109.3495840867162
  0
LINE
  5
1B5C
330
1A24
100
AcDbEntity
  8
OUTLINE
100
AcDbLine
 10
342.7237981364947
 20
1609.583147053929
 30
0.0
 11
300.0400480981575
 21
1594.594028995524
 31
0.0
  0
LINE
  5
1B5D
330
1A24
100
AcDbEntity
  8
OUTLINE
100
AcDbLine
 10
551.4218780458309
 20
1509.396537257393
 30
0.0
 11
526.6499237469798
 21
1590.375144182117
 31
0.0
  0
LINE
  5
1B5E
330
1A24
100
AcDbEntity
  8
OUTLINE
100
AcDbLine
 10
827.3487909871546
 20
1610.396537257392
 30
0.0
 11
666.3672000260366
 21
1602.566364182268
 31
0.0
  0
ARC
  5
1B5F
330
1A24
100
AcDbEntity
  8
OUTLINE
100
AcDbCircle
 10
665.3802278734188
 20
1584.396569759447
 30
0.0
 40
18.19658054134387
100
AcDbArc
 50
86.89078380870205
 51
160.8189170002099
  0
LINE
  5
1B60
330
1A24
100
AcDbEntity
  8
OUTLINE
100
AcDbLine
 10
899.1901148794886
 20
1594.594028995524
 30
0.0
 11
874.8037079935038
 21
1594.594028995524
 31
0.0
  0
LINE
  5
1B61
330
1A24
100
AcDbEntity
  8
OUTLINE
100
AcDbLine
 10
899.1901148794882
 20
1589.394028995524
 30
0.0
 11
1055.653641212173
 21
1589.394028995522
 31
0.0
  0
LINE
  5
1B62
330
1A24
100
AcDbEntity
  8
OUTLINE
100
AcDbLine
 10
899.1901148794886
 20
1594.594028995524
 30
0.0
 11
899.1901148794882
 21
1589.394028995524
 31
0.0
  0
ARC
  5
1B63
330
1A24
100
AcDbEntity
  8
OUTLINE
100
AcDbCircle
 10
827.3487909871546
 20
1595.996537257392
 30
0.0
 40
14.4
100
AcDbArc
 50
70.65041591328377
 51
90.0
  0
LINE
  5
1B64
330
1A24
100
AcDbEntity
  8
OUTLINE
100
AcDbLine
 10
832.119957955167
 20
1609.583147053929
 30
0.0
 11
874.8037079935038
 21
1594.594028995524
 31
0.0
  0
LINE
  5
1B65
330
1A24
100
AcDbEntity
  8
OUTLINE
100
AcDbLine
 10
623.4218780458308
 20
1509.396537257393
 30
0.0
 11
648.1938323446816
 21
1590.375144182117
 31
0.0
  0
LINE
  5
1B66
330
1A24
100
AcDbEntity
  8
OUTLINE
100
AcDbLine
 10
1127.494965104507
 20
1610.396537257392
 30
0.0
 11
1288.476556065626
 21
1602.566364182268
 31
0.0
  0
ARC
  5
1B67
330
1A24
100
AcDbEntity
  8
OUTLINE
100
AcDbCircle
 10
1289.463528218245
 20
1584.396569759447
 30
0.0
 40
18.19658054134229
100
AcDbArc
 50
19.18108299979511
 51
93.10921619124577
  0
LINE
  5
1B68
330
1A24
100
AcDbEntity
  8
OUTLINE
100
AcDbLine
 10
1055.653641212173
 20
1594.594028995524
 30
0.0
 11
1080.040048098157
 21
1594.594028995524
 31
0.0
  0
LINE
  5
1B69
330
1A24
100
AcDbEntity
  8
OUTLINE
100
AcDbLine
 10
1055.653641212173
 20
1594.594028995524
 30
0.0
 11
1055.653641212173
 21
1589.394028995524
 31
0.0
  0
ARC
  5
1B6A
330
1A24
100
AcDbEntity
  8
OUTLINE
100
AcDbCircle
 10
1127.494965104507
 20
1595.996537257392
 30
0.0
 40
14.4
100
AcDbArc
 50
90.0
 51
109.3495840867162
  0
LINE
  5
1B6B
330
1A24
100
AcDbEntity
  8
OUTLINE
100
AcDbLine
 10
1122.723798136495
 20
1609.583147053929
 30
0.0
 11
1080.040048098157
 21
1594.594028995524
 31
0.0
  0
LINE
  5
1B6C
330
1A24
100
AcDbEntity
  8
OUTLINE
100
AcDbLine
 10
1331.421878045831
 20
1509.396537257393
 30
0.0
 11
1306.64992374698
 21
1590.375144182117
 31
0.0
  0
LINE
  5
1B8A
330
1A24
100
AcDbEntity
  8
OUTLINE
100
AcDbLine
 10
4945.594371422497
 20
1458.396537257393
 30
0.0
 11
2646.594371422497
 21
1458.396537257393
 31
0.0
  0
LINE
  5
1BA5
330
1A24
100
AcDbEntity
  8
OUTLINE
100
AcDbLine
 10
2648.594371422497
 20
1458.396537257393
 30
0.0
 11
2648.594371422497
 21
455.3965372573948
 31
0.0
  0
LINE
  5
1BA6
330
1A24
100
AcDbEntity
  8
OUTLINE
100
AcDbLine
 10
4943.594371422497
 20
1458.396537257393
 30
0.0
 11
4943.594371422497
 21
455.3965372573943
 31
0.0
  0
CIRCLE
  5
1BD1
330
1A24
100
AcDbEntity
  8
OUTLINE
100
AcDbCircle
 10
3588.394371422496
 20
4864.86002548159
 30
0.0
 40
354.0
  0
CIRCLE
  5
1BD2
330
1A24
100
AcDbEntity
  8
OUTLINE
100
AcDbCircle
 10
4488.394371422499
 20
4864.860025481588
 30
0.0
 40
354.0
  0
CIRCLE
  5
1BD3
330
1A24
100
AcDbEntity
  8
OUTLINE
100
AcDbCircle
 10
3588.394371422497
 20
5644.86002548159
 30
0.0
 40
354.0
  0
CIRCLE
  5
1BD4
330
1A24
100
AcDbEntity
  8
OUTLINE
100
AcDbCircle
 10
4488.394371422499
 20
5644.860025481591
 30
0.0
 40
354.0
  0
LINE
  5
1BE7
330
1A24
100
AcDbEntity
  8
DIM
100
AcDbLine
 10
1426.92187804583
 20
2062.659572360015
 30
0.0
 11
1426.92187804583
 21
1560.421796668464
 31
0.0
  0
LINE
  5
1BE8
330
1A24
100
AcDbEntity
  8
DIM
100
AcDbLine
 10
-251.5781219541686
 20
2062.659572360015
 30
0.0
 11
-251.5781219541686
 21
1578.168935223864
 31
0.0
  0
LINE
  5
1BE9
330
1A24
100
AcDbEntity
  8
DIM
100
AcDbLine
 10
1362.92187804583
 20
1950.890376989382
 30
0.0
 11
709.0778519754103
 21
1950.890376989382
 31
0.0
  0
LINE
  5
1BEA
330
1A24
100
AcDbEntity
  8
DIM
100
AcDbLine
 10
-187.5781219541686
 20
1950.890376989382
 30
0.0
 11
440.5064234039809
 21
1950.890376989382
 31
0.0
  0
SOLID
  5
1BEB
330
1A24
100
AcDbEntity
  8
DIM
100
AcDbTrace
 10
1362.92187804583
 20
1960.890376989382
 30
0.0
 11
1362.92187804583
 21
1940.890376989382
 31
0.0
 12
1426.92187804583
 22
1950.890376989382
 32
0.0
 13
1426.92187804583
 23
1950.890376989382
 33
0.0
  0
SOLID
  5
1BEC
330
1A24
100
AcDbEntity
  8
DIM
100
AcDbTrace
 10
-187.5781219541686
 20
1960.890376989382
 30
0.0
 11
-187.5781219541686
 21
1940.890376989382
 31
0.0
 12
-251.5781219541686
 22
1950.890376989382
 32
0.0
 13
-251.5781219541686
 23
1950.890376989382
 33
0.0
  0
TEXT
  5
1BED
330
1A24
100
AcDbEntity
  8
DIM
100
AcDbText
 10
480.5064234039808
 20
1920.890376989382
 30
0.0
 40
60.0
  1
1678
  7
TITLE3
100
AcDbText
  0
MTEXT
  5
1C11
330
1A24
100
AcDbEntity
  8
OUTLINE
 62
     2
100
AcDbMText
 10
2136.014520264696
 20
2503.896537257394
 30
0.0
 40
0.12
 41
0.0
 71
     5
 72
     1
  1
\A1;1989.0000
 73
     1
 44
1.0
1001
ACAD
1000
MTEXTBEGIN
1070
    73
1070
     1
1070
    44
1040
1.0
1070
    74
1070
     0
1000
MTEXTEND
  0
LINE
  5
1C2C
330
1A24
100
AcDbEntity
  8
CLEAR
100
AcDbLine
 10
2646.594371422497
 20
3915.860025481588
 30
0.0
 11
2646.594371422497
 21
4399.14833233325
 31
0.0
  0
LINE
  5
1C2D
330
1A24
100
AcDbEntity
  8
CLEAR
100
AcDbLine
 10
4945.594371422496
 20
3915.860025481588
 30
0.0
 11
4945.594371422497
 21
4399.14833233325
 31
0.0
  0
LINE
  5
1C2E
330
1A24
100
AcDbEntity
  8
OUTLINE
100
AcDbLine
 10
2841.594371422497
 20
1458.396537257393
 30
0.0
 11
2841.594371422497
 21
455.3965372573948
 31
0.0
  0
LINE
  5
1C2F
330
1A24
100
AcDbEntity
  8
OUTLINE
100
AcDbLine
 10
4702.594371422497
 20
1458.396537257393
 30
0.0
 11
4702.594371422497
 21
455.3965372573943
 31
0.0
  0
LINE
  5
1C30
330
1A24
100
AcDbEntity
  8
OUTLINE
100
AcDbLine
 10
4702.594371422497
 20
491.3965372573944
 30
0.0
 11
2841.594371422497
 21
491.3965372573948
 31
0.0
  0
LINE
  5
1C31
330
1A24
100
AcDbEntity
  8
OUTLINE
100
AcDbLine
 10
4702.594371422497
 20
537.3965372573943
 30
0.0
 11
2841.594371422497
 21
537.3965372573947
 31
0.0
  0
LINE
  5
1C4C
330
1A24
100
AcDbEntity
  8
CLEAR
100
AcDbLine
 10
4945.539919069113
 20
6093.86002548159
 30
0.0
 11
5445.594371422498
 21
6093.86002548159
 31
0.0
  0
LINE
  5
1C4D
330
1A24
100
AcDbEntity
  8
CLEAR
100
AcDbLine
 10
4945.539919069113
 20
6093.86002548159
 30
0.0
 11
4945.539919069113
 21
6593.860025481589
 31
0.0
  0
LINE
  5
1C4E
330
1A24
100
AcDbEntity
  8
CLEAR
100
AcDbLine
 10
2646.594371422497
 20
6093.860025481593
 30
0.0
 11
2646.594371422497
 21
6593.860025481589
 31
0.0
  0
LINE
  5
1C4F
330
1A24
100
AcDbEntity
  8
CLEAR
100
AcDbLine
 10
2646.594371422497
 20
6093.860025481593
 30
0.0
 11
1646.194371422497
 21
6093.860025481593
 31
0.0
  0
LINE
  5
1C6A
330
1A24
100
AcDbEntity
  8
OUTLINE
100
AcDbLine
 10
605.721878045831
 20
1471.596537257392
 30
0.0
 11
569.1218780458309
 21
1471.596537257392
 31
0.0
  0
LINE
  5
1C6C
330
1A24
100
AcDbEntity
  8
OUTLINE
100
AcDbLine
 10
605.7218780458308
 20
1509.396537257392
 30
0.0
 11
605.7218780458308
 21
1418.196537257393
 31
0.0
  0
LINE
  5
1C6D
330
1A24
100
AcDbEntity
  8
OUTLINE
100
AcDbLine
 10
569.1218780458309
 20
1509.396537257392
 30
0.0
 11
569.1218780458309
 21
1418.196537257393
 31
0.0
  0
LINE
  5
1C6E
330
1A24
100
AcDbEntity
  8
OUTLINE
100
AcDbLine
 10
569.1218780458309
 20
1509.396537257392
 30
0.0
 11
-251.5781219541689
 21
1509.396537257392
 31
0.0
  0
ENDSEC
  0
SECTION
  2
OBJECTS
  0
DICTIONARY
  5
19BC
330
0
100
AcDbDictionary
281
     1
  3
ACAD_2007HEADERVARS_RT
350
1D23
  3
ACAD_COLOR
350
1A1A
  3
ACAD_GROUP
350
19BD
  3
ACAD_LAYOUT
350
1A19
  3
ACAD_MATERIAL
350
19C0
  3
ACAD_MLEADERSTYLE
350
1A1D
  3
ACAD_MLINESTYLE
350
1A16
  3
ACAD_PLOTSETTINGS
350
1A18
  3
ACAD_PLOTSTYLENAME
350
19BE
  3
ACAD_SCALELIST
350
19EA
  3
ACAD_TABLESTYLE
350
1A1B
  3
ACAD_VISUALSTYLE
350
19D9
  3
ACDB_RECOMPOSE_DATA
350
1CA5
  3
AcDbVariableDictionary
350
1CB7
  3
AcmDictionary
350
1AB2
  3
AMG
350
1A5F
  3
AMGSNAPSETTINGS
350
1B05
  3
DWGPROPS
350
1D22
  0
DICTIONARY
  5
1CAB
330
19B8
100
AcDbDictionary
280
     1
281
     1
  0
DICTIONARY
  5
1AD7
330
1A0C
100
AcDbDictionary
280
     1
281
     1
  3
ADSK_XREC_LAYER_RECONCILED
360
1AD8
  0
DICTIONARY
  5
1AD9
330
1A28
100
AcDbDictionary
280
     1
281
     1
  3
ADSK_XREC_LAYER_RECONCILED
360
1ADA
  0
DICTIONARY
  5
1ADB
330
1A3B
100
AcDbDictionary
280
     1
281
     1
  3
ADSK_XREC_LAYER_RECONCILED
360
1ADC
  0
DICTIONARY
  5
1ADD
330
1A3C
100
AcDbDictionary
280
     1
281
     1
  3
ADSK_XREC_LAYER_RECONCILED
360
1ADE
  0
DICTIONARY
  5
1ADF
330
1A3D
100
AcDbDictionary
280
     1
281
     1
  3
ADSK_XREC_LAYER_RECONCILED
360
1AE0
  0
DICTIONARY
  5
1AE1
330
1A3E
100
AcDbDictionary
280
     1
281
     1
  3
ADSK_XREC_LAYER_RECONCILED
360
1AE2
  0
DICTIONARY
  5
1B23
330
1A24
100
AcDbDictionary
280
     1
281
     1
  3
ACAD_SORTENTS
360
1B24
  0
DICTIONARY
  5
1D23
102
{ACAD_REACTORS
330
19BC
102
}
330
19BC
100
AcDbDictionary
281
     1
  3
DIMARCSYM
350
1D24
  3
DIMLTEX1
350
1D26
  3
DIMLTEX2
350
1D27
  3
DIMLTYPE
350
1D25
  0
DICTIONARY
  5
1A1A
102
{ACAD_REACTORS
330
19BC
102
}
330
19BC
100
AcDbDictionary
281
     1
  0
DICTIONARY
  5
19BD
102
{ACAD_REACTORS
330
19BC
102
}
330
19BC
100
AcDbDictionary
281
     1
  0
DICTIONARY
  5
1A19
102
{ACAD_REACTORS
330
19BC
102
}
330
19BC
100
AcDbDictionary
281
     1
  3
Layout1
350
1A23
  3
Model
350
1A27
  0
DICTIONARY
  5
19C0
102
{ACAD_REACTORS
330
19BC
102
}
330
19BC
100
AcDbDictionary
281
     1
  3
ByBlock
350
19C9
  3
ByLayer
350
19C1
  3
Global
350
19D1
  0
DICTIONARY
  5
1A1D
102
{ACAD_REACTORS
330
19BC
102
}
330
19BC
100
AcDbDictionary
281
     1
  3
Standard
350
1A1E
  0
DICTIONARY
  5
1A16
102
{ACAD_REACTORS
330
19BC
102
}
330
19BC
100
AcDbDictionary
281
     1
  3
Standard
350
1A17
  0
DICTIONARY
  5
1A18
102
{ACAD_REACTORS
330
19BC
102
}
330
19BC
100
AcDbDictionary
281
     1
  0
ACDBDICTIONARYWDFLT
  5
19BE
102
{ACAD_REACTORS
330
19BC
102
}
330
19BC
100
AcDbDictionary
281
     1
  3
Normal
350
19BF
100
AcDbDictionaryWithDefault
340
19BF
  0
DICTIONARY
  5
19EA
102
{ACAD_REACTORS
330
19BC
102
}
330
19BC
100
AcDbDictionary
281
     1
  3
A0
350
19EB
  3
A1
350
19EC
  3
A2
350
19ED
  3
A3
350
19EE
  3
A4
350
19EF
  3
A5
350
19F0
  3
A6
350
19F1
  3
A7
350
19F2
  3
A8
350
19F3
  3
A9
350
19F4
  3
B0
350
19F5
  3
B1
350
19F6
  3
B2
350
19F7
  3
B3
350
19F8
  3
B4
350
19F9
  3
B5
350
19FA
  3
B6
350
19FB
  3
B7
350
19FC
  3
B8
350
19FD
  3
B9
350
19FE
  3
C0
350
19FF
  3
C1
350
1A00
  3
C2
350
1A01
  3
C3
350
1A02
  3
C4
350
1A03
  3
C5
350
1A04
  3
C6
350
1A05
  3
C7
350
1A06
  3
C8
350
1A07
  3
C9
350
1A08
  3
D0
350
1A09
  3
D1
350
1A0A
  3
D2
350
1A0B
  0
DICTIONARY
  5
1A1B
102
{ACAD_REACTORS
330
19BC
102
}
330
19BC
100
AcDbDictionary
281
     1
  3
Standard
350
1A1C
  0
DICTIONARY
  5
19D9
102
{ACAD_REACTORS
330
19BC
102
}
330
19BC
100
AcDbDictionary
281
     1
  3
2dWireframe
350
19DF
  3
3D Hidden
350
19E1
  3
3dWireframe
350
19E0
  3
Basic
350
19DE
  3
Brighten
350
19E5
  3
ColorChange
350
19E9
  3
Conceptual
350
19E2
  3
Dim
350
19E4
  3
Facepattern
350
19E8
  3
Flat
350
19DA
  3
FlatWithEdges
350
19DB
  3
Gouraud
350
19DC
  3
GouraudWithEdges
350
19DD
  3
Linepattern
350
19E7
  3
Realistic
350
19E3
  3
Thicken
350
19E6
  0
XRECORD
  5
1CA5
102
{ACAD_REACTORS
330
19BC
102
}
330
19BC
100
AcDbXrecord
280
     1
 90
        1
330
1A1C
  0
DICTIONARY
  5
1CB7
102
{ACAD_REACTORS
330
19BC
102
}
330
19BC
100
AcDbDictionary
281
     1
  3
CANNOSCALE
350
1CBA
  3
CMLEADERSTYLE
350
1CB9
  3
CTABLESTYLE
350
1CB8
  3
DIMASSOC
350
1D20
  3
INDEXCTL
350
1D1F
  3
SORTENTS
350
1D1E
  0
DICTIONARY
  5
1AB2
102
{ACAD_REACTORS
330
19BC
102
}
330
19BC
100
AcDbDictionary
281
     1
  3
AcmStdDictionary
350
1ABD
  0
DICTIONARY
  5
1A5F
102
{ACAD_REACTORS
330
19BC
102
}
330
19BC
100
AcDbDictionary
281
     1
  0
DICTIONARY
  5
1B05
102
{ACAD_REACTORS
330
19BC
102
}
330
19BC
100
AcDbDictionary
281
     1
  0
XRECORD
  5
1D22
102
{ACAD_REACTORS
330
19BC
102
}
330
19BC
100
AcDbXrecord
280
     1
  1
DWGPROPS COOKIE
  2

  3

  4

  6

  7

  8
shollard
  9

300
=
301
=
302
=
303
=
304
=
305
=
306
=
307
=
308
=
309
=
 40
0.4895057638888889
 41
2450982.501133218
 42
2454872.599238993
  1

 90
        0
  0
XRECORD
  5
1AD8
102
{ACAD_REACTORS
330
1AD7
102
}
330
1AD7
100
AcDbXrecord
280
     1
290
     1
  0
XRECORD
  5
1ADA
102
{ACAD_REACTORS
330
1AD9
102
}
330
1AD9
100
AcDbXrecord
280
     1
290
     1
  0
XRECORD
  5
1ADC
102
{ACAD_REACTORS
330
1ADB
102
}
330
1ADB
100
AcDbXrecord
280
     1
290
     1
  0
XRECORD
  5
1ADE
102
{ACAD_REACTORS
330
1ADD
102
}
330
1ADD
100
AcDbXrecord
280
     1
290
     1
  0
XRECORD
  5
1AE0
102
{ACAD_REACTORS
330
1ADF
102
}
330
1ADF
100
AcDbXrecord
280
     1
290
     1
  0
XRECORD
  5
1AE2
102
{ACAD_REACTORS
330
1AE1
102
}
330
1AE1
100
AcDbXrecord
280
     1
290
     1
  0
SORTENTSTABLE
  5
1B24
102
{ACAD_REACTORS
330
1B23
102
}
330
1B23
100
AcDbSortentsTable
330
1A24
331
129A
  5
129A
331
12D9
  5
12E2
331
12A2
  5
12A2
331
12E1
  5
12EA
331
12E9
  5
12F2
331
12AA
  5
12AA
331
12B2
  5
12B2
331
1C4D
  5
1C4F
331
1BA6
  5
12D6
331
1316
  5
133D
331
16A4
  5
16BF
331
162D
  5
1638
331
1B4F
  5
1B5C
331
133E
  5
1349
331
1635
  5
1641
331
1B57
  5
1B64
331
1346
  5
1351
331
16BC
  5
17A5
331
12BA
  5
12BA
331
12C2
  5
12C2
331
128B
  5
128B
331
12CA
  5
12CC
331
1293
  5
1293
331
12D2
  5
12DB
331
1B5F
  5
1B6C
331
134E
  5
1359
331
163D
  5
16A3
331
12F7
  5
1309
331
1B67
  5
1BE7
331
1C2E
  5
12D1
331
1356
  5
1361
331
1307
  5
1310
331
135E
  5
162E
331
17A4
  5
1B20
331
17AC
  5
1B53
331
130F
  5
1338
331
1695
  5
16BB
331
12DA
  5
12E3
331
129B
  5
129B
331
12E2
  5
12EB
331
12A3
  5
12A3
331
12AB
  5
12AB
331
12EA
  5
12F3
331
12B3
  5
12B3
331
1C4E
  5
1C6A
331
1B20
  5
1B5A
331
1C6E
  5
1B57
331
1317
  5
133E
331
16A5
  5
16C0
331
162E
  5
1639
331
133F
  5
134A
331
1636
  5
1642
331
1BE7
  5
1C2C
331
1B50
  5
1B5D
331
1347
  5
1352
331
16BD
  5
17A6
331
12BB
  5
12BB
331
1284
  5
1284
331
12C3
  5
12C3
331
12CB
  5
12CF
331
128C
  5
128C
331
1294
  5
1294
331
12D3
  5
12DC
331
1B58
  5
1B65
331
1B60
  5
1B8A
331
12F0
  5
12FE
331
163E
  5
16A4
331
12F8
  5
130A
331
1B68
  5
1BE8
331
134F
  5
135A
331
1C2F
  5
12D7
331
1357
  5
1362
331
135F
  5
162F
331
17A5
  5
1B21
331
1308
  5
1311
331
17AD
  5
1B54
331
129C
  5
129C
331
12DB
  5
12E4
331
12A4
  5
12A4
331
12E3
  5
12EC
331
12EB
  5
12F4
331
12AC
  5
12AC
331
12B4
  5
12B4
331
1C4F
  5
1C6B
331
1310
  5
1339
331
1318
  5
133F
331
1B21
  5
1B5B
331
16AE
  5
177A
331
1338
  5
1341
331
162F
  5
163A
331
1B51
  5
1B5E
331
1340
  5
134B
331
1637
  5
1643
331
16BE
  5
17A7
331
12BC
  5
12BC
331
12C4
  5
12C4
331
1285
  5
1285
331
128D
  5
128D
331
12CC
  5
12D2
331
1295
  5
1295
331
12D4
  5
12DD
331
1B59
  5
1B66
331
1BE8
  5
1C2D
331
12F1
  5
1302
331
1B61
  5
1BA5
331
1348
  5
1353
331
1B69
  5
1BE9
331
1350
  5
135B
331
1C30
  5
12CD
331
1358
  5
1363
331
168F
  5
16B9
331
1309
  5
1312
331
1360
  5
1630
331
17A6
  5
1B22
331
17AE
  5
1B55
331
12DC
  5
12E5
331
129D
  5
129D
331
12A5
  5
12A5
331
12E4
  5
12ED
331
12AD
  5
12AD
331
12EC
  5
12F5
331
12B5
  5
12B5
331
1311
  5
133A
331
1B22
  5
1B59
331
1BD1
  5
1BED
331
1319
  5
1340
331
1630
  5
163B
331
1339
  5
1342
331
16AF
  5
177B
331
1341
  5
134C
331
1B52
  5
1B5F
331
16BF
  5
17A8
331
12BD
  5
12BD
331
12C5
  5
12C5
331
12CD
  5
12D3
331
128E
  5
128E
331
1296
  5
1296
331
12D5
  5
12DE
331
1B5A
  5
1B67
331
1BE9
  5
1C2E
331
12F2
  5
1303
331
1349
  5
1354
331
1B62
  5
1BA6
331
1C11
  5
1C4D
331
1638
  5
1681
331
1640
  5
16A5
331
1B6A
  5
1BEA
331
1351
  5
135C
331
1302
  5
130C
331
1C31
  5
12CE
331
1359
  5
1364
331
1B8A
  5
12CB
331
1361
  5
1631
331
17A7
  5
1B25
331
130A
  5
1314
331
129E
  5
129E
331
12DD
  5
12E6
331
12A6
  5
12A6
331
12E5
  5
12EE
331
12ED
  5
12F6
331
12AE
  5
12AE
331
12B6
  5
12B6
331
1312
  5
133B
331
1BD2
  5
1BEE
331
1629
  5
1636
331
133A
  5
1343
331
1631
  5
163C
331
1B53
  5
1B60
331
1342
  5
134D
331
12BE
  5
12BE
331
12C6
  5
12C6
331
1287
  5
1287
331
128F
  5
128F
331
12CE
  5
12D4
331
1297
  5
1297
331
12D6
  5
12DF
331
1B5B
  5
1B68
331
1BEA
  5
1C2F
331
1639
  5
1682
331
12F3
  5
1304
331
1B63
  5
1BD1
331
134A
  5
1355
331
16C0
  5
17A9
331
1B6B
  5
1BEB
331
1352
  5
135D
331
1641
  5
16AE
331
1303
  5
130D
331
135A
  5
1365
331
130B
  5
1315
331
1362
  5
1632
331
17A8
  5
1B4F
331
12DE
  5
12E7
331
129F
  5
129F
331
12A7
  5
12A7
331
12E6
  5
12EF
331
12AF
  5
12AF
331
12EE
  5
12F7
331
12B7
  5
12B7
331
16A1
  5
16BC
331
1C6A
  5
1B58
331
1BD3
  5
1BEF
331
16B1
  5
17A1
331
1632
  5
163D
331
133B
  5
1345
331
1343
  5
134E
331
16B9
  5
17A2
331
1B54
  5
1B61
331
12BF
  5
12BF
331
12CF
  5
12D5
331
1290
  5
1290
331
12D7
  5
12E0
331
1B5C
  5
1B69
331
1BEB
  5
1C30
331
12F4
  5
1305
331
1B64
  5
1BD2
331
134B
  5
1356
331
163A
  5
1683
331
1642
  5
16AF
331
1B6C
  5
1BEC
331
1353
  5
135E
331
17A1
  5
17AC
331
1304
  5
130E
331
135B
  5
1629
331
1363
  5
1633
331
17A9
  5
1B50
331
130C
  5
1316
331
1298
  5
1298
331
12A0
  5
12A0
331
12DF
  5
12E8
331
12A8
  5
12A8
331
12E7
  5
12F0
331
12EF
  5
12F8
331
12B0
  5
12B0
331
16A2
  5
16BD
331
1BD4
  5
1C11
331
133C
  5
1347
331
1633
  5
163E
331
1B55
  5
1B62
331
1344
  5
134F
331
16BA
  5
17A3
331
12B8
  5
12B8
331
12C0
  5
12C0
331
12C8
  5
12C8
331
1291
  5
1291
331
12D0
  5
12D9
331
1B5D
  5
1B6A
331
1BEC
  5
1C31
331
163B
  5
16A1
331
12F5
  5
1307
331
1B65
  5
1BD3
331
134C
  5
1357
331
177A
  5
17AA
331
1354
  5
135F
331
1643
  5
16B1
331
1C2C
  5
1344
331
1305
  5
130F
331
135C
  5
162C
331
17A2
  5
17AD
331
1693
  5
16BA
331
130D
  5
1318
331
1364
  5
1634
331
17AA
  5
1B51
331
12D8
  5
12E1
331
1299
  5
1299
331
12E0
  5
12E9
331
12A1
  5
12A1
331
12A9
  5
12A9
331
12E8
  5
12F1
331
12B1
  5
12B1
331
1BA5
  5
12D0
331
1C4C
  5
1C4E
331
1C6C
  5
1C6E
331
1315
  5
133C
331
16A3
  5
16BE
331
162C
  5
1637
331
133D
  5
1348
331
1634
  5
1640
331
1345
  5
1350
331
16BB
  5
17A4
331
1B56
  5
1B63
331
12B9
  5
12B9
331
12C1
  5
12C1
331
12C9
  5
12CA
331
12D1
  5
12DA
331
1292
  5
1292
331
1B5E
  5
1B6B
331
1BED
  5
1C4C
331
163C
  5
16A2
331
12F6
  5
1308
331
1B66
  5
1BD4
331
134D
  5
1358
331
12FE
  5
130B
331
1C2D
  5
1346
331
1355
  5
1360
331
177B
  5
17AB
331
17A3
  5
17AE
331
135D
  5
162D
331
1365
  5
1635
331
17AB
  5
1B52
331
130E
  5
1319
331
1B1F
  5
1B56
  0
XRECORD
  5
1D24
102
{ACAD_REACTORS
330
1D23
102
}
330
1D23
100
AcDbXrecord
280
     1
 70
     1
  0
XRECORD
  5
1D26
102
{ACAD_REACTORS
330
1D23
102
}
330
1D23
100
AcDbXrecord
280
     1
340
1A12
  0
XRECORD
  5
1D27
102
{ACAD_REACTORS
330
1D23
102
}
330
1D23
100
AcDbXrecord
280
     1
340
1A12
  0
XRECORD
  5
1D25
102
{ACAD_REACTORS
330
1D23
102
}
330
1D23
100
AcDbXrecord
280
     1
340
1A12
  0
LAYOUT
  5
1A23
102
{ACAD_XDICTIONARY
360
1D2C
102
}
102
{ACAD_REACTORS
330
1A19
102
}
330
1A19
100
AcDbPlotSettings
  1

  2
\\FILESERVER\ptr-peg02
  4

  6

 40
0.0
 41
0.0
 42
0.0
 43
0.0
 44
0.0
 45
0.0
 46
0.0
 47
0.0
 48
0.0
 49
0.0
140
0.0
141
0.0
142
1.0
143
1.0
 70
   688
 72
     0
 73
     0
 74
     5
  7

 75
    16
147
1.0
148
0.0
149
0.0
100
AcDbLayout
  1
Layout1
 70
     0
 71
     1
 10
0.0
 20
0.0
 11
12.0
 21
9.0
 12
0.0
 22
0.0
 32
0.0
 14
1.000000000000000E+20
 24
1.000000000000000E+20
 34
1.000000000000000E+20
 15
-1.000000000000000E+20
 25
-1.000000000000000E+20
 35
-1.000000000000000E+20
146
0.0
 13
0.0
 23
0.0
 33
0.0
 16
1.0
 26
0.0
 36
0.0
 17
0.0
 27
1.0
 37
0.0
 76
     0
330
1A20
  0
LAYOUT
  5
1A27
102
{ACAD_XDICTIONARY
360
1D2E
102
}
102
{ACAD_REACTORS
330
1A19
102
}
330
1A19
100
AcDbPlotSettings
  1

  2
\\FILESERVER\ptr-peg02
  4

  6

 40
0.0
 41
0.0
 42
0.0
 43
0.0
 44
0.0
 45
0.0
 46
0.0
 47
0.0
 48
0.0
 49
0.0
140
0.0
141
0.0
142
1.0
143
1.0
 70
  1712
 72
     0
 73
     0
 74
     0
  7

 75
     0
147
1.0
148
0.0
149
0.0
100
AcDbLayout
  1
Model
 70
     1
 71
     0
 10
0.0
 20
0.0
 11
12.0
 21
9.0
 12
0.0
 22
0.0
 32
0.0
 14
0.0
 24
0.0
 34
0.0
 15
0.0
 25
0.0
 35
0.0
146
0.0
 13
0.0
 23
0.0
 33
0.0
 16
1.0
 26
0.0
 36
0.0
 17
0.0
 27
1.0
 37
0.0
 76
     0
330
1A24
331
1A2A
  0
MATERIAL
  5
19C9
102
{ACAD_XDICTIONARY
360
19CA
102
}
102
{ACAD_REACTORS
330
19C0
102
}
330
19C0
100
AcDbMaterial
  1
ByBlock
 72
     0
 43
0.0208333333333333
 43
0.0
 43
0.0
 43
0.0
 43
0.0
 43
0.0208333333333333
 43
0.0
 43
0.0
 43
0.0
 43
0.0
 43
1.0
 43
0.0
 43
0.0
 43
0.0
 43
0.0
 43
1.0
 77
     0
 47
0.0208333333333333
 47
0.0
 47
0.0
 47
0.0
 47
0.0
 47
0.0208333333333333
 47
0.0
 47
0.0
 47
0.0
 47
0.0
 47
1.0
 47
0.0
 47
0.0
 47
0.0
 47
0.0
 47
1.0
171
     0
 49
0.0208333333333333
 49
0.0
 49
0.0
 49
0.0
 49
0.0
 49
0.0208333333333333
 49
0.0
 49
0.0
 49
0.0
 49
0.0
 49
1.0
 49
0.0
 49
0.0
 49
0.0
 49
0.0
 49
1.0
175
     0
142
0.0208333333333333
142
0.0
142
0.0
142
0.0
142
0.0
142
0.0208333333333333
142
0.0
142
0.0
142
0.0
142
0.0
142
1.0
142
0.0
142
0.0
142
0.0
142
0.0
142
1.0
179
     0
144
0.0208333333333333
144
0.0
144
0.0
144
0.0
144
0.0
144
0.0208333333333333
144
0.0
144
0.0
144
0.0
144
0.0
144
1.0
144
0.0
144
0.0
144
0.0
144
0.0
144
1.0
147
0.0208333333333333
147
0.0
147
0.0
147
0.0
147
0.0
147
0.0208333333333333
147
0.0
147
0.0
147
0.0
147
0.0
147
1.0
147
0.0
147
0.0
147
0.0
147
0.0
147
1.0
  0
MATERIAL
  5
19C1
102
{ACAD_XDICTIONARY
360
19C2
102
}
102
{ACAD_REACTORS
330
19C0
102
}
330
19C0
100
AcDbMaterial
  1
ByLayer
 72
     0
 43
0.0208333333333333
 43
0.0
 43
0.0
 43
0.0
 43
0.0
 43
0.0208333333333333
 43
0.0
 43
0.0
 43
0.0
 43
0.0
 43
1.0
 43
0.0
 43
0.0
 43
0.0
 43
0.0
 43
1.0
 77
     0
 47
0.0208333333333333
 47
0.0
 47
0.0
 47
0.0
 47
0.0
 47
0.0208333333333333
 47
0.0
 47
0.0
 47
0.0
 47
0.0
 47
1.0
 47
0.0
 47
0.0
 47
0.0
 47
0.0
 47
1.0
171
     0
 49
0.0208333333333333
 49
0.0
 49
0.0
 49
0.0
 49
0.0
 49
0.0208333333333333
 49
0.0
 49
0.0
 49
0.0
 49
0.0
 49
1.0
 49
0.0
 49
0.0
 49
0.0
 49
0.0
 49
1.0
175
     0
142
0.0208333333333333
142
0.0
142
0.0
142
0.0
142
0.0
142
0.0208333333333333
142
0.0
142
0.0
142
0.0
142
0.0
142
1.0
142
0.0
142
0.0
142
0.0
142
0.0
142
1.0
179
     0
144
0.0208333333333333
144
0.0
144
0.0
144
0.0
144
0.0
144
0.0208333333333333
144
0.0
144
0.0
144
0.0
144
0.0
144
1.0
144
0.0
144
0.0
144
0.0
144
0.0
144
1.0
147
0.0208333333333333
147
0.0
147
0.0
147
0.0
147
0.0
147
0.0208333333333333
147
0.0
147
0.0
147
0.0
147
0.0
147
1.0
147
0.0
147
0.0
147
0.0
147
0.0
147
1.0
  0
MATERIAL
  5
19D1
102
{ACAD_XDICTIONARY
360
19D2
102
}
102
{ACAD_REACTORS
330
19C0
102
}
330
19C0
100
AcDbMaterial
  1
Global
 72
     0
 43
0.0208333333333333
 43
0.0
 43
0.0
 43
0.0
 43
0.0
 43
0.0208333333333333
 43
0.0
 43
0.0
 43
0.0
 43
0.0
 43
1.0
 43
0.0
 43
0.0
 43
0.0
 43
0.0
 43
1.0
 77
     0
 47
0.0208333333333333
 47
0.0
 47
0.0
 47
0.0
 47
0.0
 47
0.0208333333333333
 47
0.0
 47
0.0
 47
0.0
 47
0.0
 47
1.0
 47
0.0
 47
0.0
 47
0.0
 47
0.0
 47
1.0
171
     0
 49
0.0208333333333333
 49
0.0
 49
0.0
 49
0.0
 49
0.0
 49
0.0208333333333333
 49
0.0
 49
0.0
 49
0.0
 49
0.0
 49
1.0
 49
0.0
 49
0.0
 49
0.0
 49
0.0
 49
1.0
175
     0
142
0.0208333333333333
142
0.0
142
0.0
142
0.0
142
0.0
142
0.0208333333333333
142
0.0
142
0.0
142
0.0
142
0.0
142
1.0
142
0.0
142
0.0
142
0.0
142
0.0
142
1.0
179
     0
144
0.0208333333333333
144
0.0
144
0.0
144
0.0
144
0.0
144
0.0208333333333333
144
0.0
144
0.0
144
0.0
144
0.0
144
1.0
144
0.0
144
0.0
144
0.0
144
0.0
144
1.0
147
0.0208333333333333
147
0.0
147
0.0
147
0.0
147
0.0
147
0.0208333333333333
147
0.0
147
0.0
147
0.0
147
0.0
147
1.0
147
0.0
147
0.0
147
0.0
147
0.0
147
1.0
  0
MLEADERSTYLE
  5
1A1E
102
{ACAD_REACTORS
330
1A1D
102
}
330
1A1D
100
AcDbMLeaderStyle
170
     2
171
     1
172
     0
 90
        2
 40
0.0
 41
0.0
173
     1
 91
-1056964608
340
1A12
 92
       -2
290
     1
 42
0.09
291
     1
 43
0.36
  3
Standard
 44
0.18
300

342
1A0D
174
     1
178
     6
175
     1
176
     0
 93
-1056964608
 45
0.18
292
     0
297
     0
 46
0.18
 94
-1056964608
 47
1.0
 49
1.0
140
1.0
293
     1
141
0.0
294
     1
177
     0
142
1.0
295
     0
296
     0
143
0.125
1001
ACAD_MLEADERVER
1070
     2
  0
MLINESTYLE
  5
1A17
102
{ACAD_REACTORS
330
1A16
102
}
330
1A16
100
AcDbMlineStyle
  2
STANDARD
 70
     0
  3

 62
   256
 51
90.0
 52
90.0
 71
     2
 49
0.5
 62
   256
  6
BYLAYER
 49
-0.5
 62
   256
  6
BYLAYER
  0
ACDBPLACEHOLDER
  5
19BF
102
{ACAD_REACTORS
330
19BE
102
}
330
19BE
  0
SCALE
  5
19EB
102
{ACAD_REACTORS
330
19EA
102
}
330
19EA
100
AcDbScale
 70
     0
300
1:1
140
1.0
141
1.0
290
     1
  0
SCALE
  5
19EC
102
{ACAD_REACTORS
330
19EA
102
}
330
19EA
100
AcDbScale
 70
     0
300
1:2
140
1.0
141
2.0
290
     0
  0
SCALE
  5
19ED
102
{ACAD_REACTORS
330
19EA
102
}
330
19EA
100
AcDbScale
 70
     0
300
1:4
140
1.0
141
4.0
290
     0
  0
SCALE
  5
19EE
102
{ACAD_REACTORS
330
19EA
102
}
330
19EA
100
AcDbScale
 70
     0
300
1:5
140
1.0
141
5.0
290
     0
  0
SCALE
  5
19EF
102
{ACAD_REACTORS
330
19EA
102
}
330
19EA
100
AcDbScale
 70
     0
300
1:8
140
1.0
141
8.0
290
     0
  0
SCALE
  5
19F0
102
{ACAD_REACTORS
330
19EA
102
}
330
19EA
100
AcDbScale
 70
     0
300
1:10
140
1.0
141
10.0
290
     0
  0
SCALE
  5
19F1
102
{ACAD_REACTORS
330
19EA
102
}
330
19EA
100
AcDbScale
 70
     0
300
1:16
140
1.0
141
16.0
290
     0
  0
SCALE
  5
19F2
102
{ACAD_REACTORS
330
19EA
102
}
330
19EA
100
AcDbScale
 70
     0
300
1:20
140
1.0
141
20.0
290
     0
  0
SCALE
  5
19F3
102
{ACAD_REACTORS
330
19EA
102
}
330
19EA
100
AcDbScale
 70
     0
300
1:30
140
1.0
141
30.0
290
     0
  0
SCALE
  5
19F4
102
{ACAD_REACTORS
330
19EA
102
}
330
19EA
100
AcDbScale
 70
     0
300
1:40
140
1.0
141
40.0
290
     0
  0
SCALE
  5
19F5
102
{ACAD_REACTORS
330
19EA
102
}
330
19EA
100
AcDbScale
 70
     0
300
1:50
140
1.0
141
50.0
290
     0
  0
SCALE
  5
19F6
102
{ACAD_REACTORS
330
19EA
102
}
330
19EA
100
AcDbScale
 70
     0
300
1:100
140
1.0
141
100.0
290
     0
  0
SCALE
  5
19F7
102
{ACAD_REACTORS
330
19EA
102
}
330
19EA
100
AcDbScale
 70
     0
300
2:1
140
2.0
141
1.0
290
     0
  0
SCALE
  5
19F8
102
{ACAD_REACTORS
330
19EA
102
}
330
19EA
100
AcDbScale
 70
     0
300
4:1
140
4.0
141
1.0
290
     0
  0
SCALE
  5
19F9
102
{ACAD_REACTORS
330
19EA
102
}
330
19EA
100
AcDbScale
 70
     0
300
8:1
140
8.0
141
1.0
290
     0
  0
SCALE
  5
19FA
102
{ACAD_REACTORS
330
19EA
102
}
330
19EA
100
AcDbScale
 70
     0
300
10:1
140
10.0
141
1.0
290
     0
  0
SCALE
  5
19FB
102
{ACAD_REACTORS
330
19EA
102
}
330
19EA
100
AcDbScale
 70
     0
300
100:1
140
100.0
141
1.0
290
     0
  0
SCALE
  5
19FC
102
{ACAD_REACTORS
330
19EA
102
}
330
19EA
100
AcDbScale
 70
     0
300
1/128" = 1'-0"
140
0.0078125
141
12.0
290
     0
  0
SCALE
  5
19FD
102
{ACAD_REACTORS
330
19EA
102
}
330
19EA
100
AcDbScale
 70
     0
300
1/64" = 1'-0"
140
0.015625
141
12.0
290
     0
  0
SCALE
  5
19FE
102
{ACAD_REACTORS
330
19EA
102
}
330
19EA
100
AcDbScale
 70
     0
300
1/32" = 1'-0"
140
0.03125
141
12.0
290
     0
  0
SCALE
  5
19FF
102
{ACAD_REACTORS
330
19EA
102
}
330
19EA
100
AcDbScale
 70
     0
300
1/16" = 1'-0"
140
0.0625
141
12.0
290
     0
  0
SCALE
  5
1A00
102
{ACAD_REACTORS
330
19EA
102
}
330
19EA
100
AcDbScale
 70
     0
300
3/32" = 1'-0"
140
0.09375
141
12.0
290
     0
  0
SCALE
  5
1A01
102
{ACAD_REACTORS
330
19EA
102
}
330
19EA
100
AcDbScale
 70
     0
300
1/8" = 1'-0"
140
0.125
141
12.0
290
     0
  0
SCALE
  5
1A02
102
{ACAD_REACTORS
330
19EA
102
}
330
19EA
100
AcDbScale
 70
     0
300
3/16" = 1'-0"
140
0.1875
141
12.0
290
     0
  0
SCALE
  5
1A03
102
{ACAD_REACTORS
330
19EA
102
}
330
19EA
100
AcDbScale
 70
     0
300
1/4" = 1'-0"
140
0.25
141
12.0
290
     0
  0
SCALE
  5
1A04
102
{ACAD_REACTORS
330
19EA
102
}
330
19EA
100
AcDbScale
 70
     0
300
3/8" = 1'-0"
140
0.375
141
12.0
290
     0
  0
SCALE
  5
1A05
102
{ACAD_REACTORS
330
19EA
102
}
330
19EA
100
AcDbScale
 70
     0
300
1/2" = 1'-0"
140
0.5
141
12.0
290
     0
  0
SCALE
  5
1A06
102
{ACAD_REACTORS
330
19EA
102
}
330
19EA
100
AcDbScale
 70
     0
300
3/4" = 1'-0"
140
0.75
141
12.0
290
     0
  0
SCALE
  5
1A07
102
{ACAD_REACTORS
330
19EA
102
}
330
19EA
100
AcDbScale
 70
     0
300
1" = 1'-0"
140
1.0
141
12.0
290
     0
  0
SCALE
  5
1A08
102
{ACAD_REACTORS
330
19EA
102
}
330
19EA
100
AcDbScale
 70
     0
300
1-1/2" = 1'-0"
140
1.5
141
12.0
290
     0
  0
SCALE
  5
1A09
102
{ACAD_REACTORS
330
19EA
102
}
330
19EA
100
AcDbScale
 70
     0
300
3" = 1'-0"
140
3.0
141
12.0
290
     0
  0
SCALE
  5
1A0A
102
{ACAD_REACTORS
330
19EA
102
}
330
19EA
100
AcDbScale
 70
     0
300
6" = 1'-0"
140
6.0
141
12.0
290
     0
  0
SCALE
  5
1A0B
102
{ACAD_REACTORS
330
19EA
102
}
330
19EA
100
AcDbScale
 70
     0
300
1'-0" = 1'-0"
140
12.0
141
12.0
290
     0
  0
TABLESTYLE
  5
1A1C
102
{ACAD_XDICTIONARY
360
1CA3
102
}
102
{ACAD_REACTORS
330
1A1B
102
}
330
1A1B
100
AcDbTableStyle
  3
Standard
 70
     0
 71
     0
 40
0.06
 41
0.06
280
     0
281
     0
  7
STANDARD
140
0.18
170
     2
 62
     0
 63
     7
283
     0
274
    -2
284
     1
 64
     0
275
    -2
285
     1
 65
     0
276
    -2
286
     1
 66
     0
277
    -2
287
     1
 67
     0
278
    -2
288
     1
 68
     0
279
    -2
289
     1
 69
     0
  7
STANDARD
140
0.25
170
     5
 62
     0
 63
     7
283
     0
274
    -2
284
     1
 64
     0
275
    -2
285
     1
 65
     0
276
    -2
286
     1
 66
     0
277
    -2
287
     1
 67
     0
278
    -2
288
     1
 68
     0
279
    -2
289
     1
 69
     0
  7
STANDARD
140
0.18
170
     5
 62
     0
 63
     7
283
     0
274
    -2
284
     1
 64
     0
275
    -2
285
     1
 65
     0
276
    -2
286
     1
 66
     0
277
    -2
287
     1
 67
     0
278
    -2
288
     1
 68
     0
279
    -2
289
     1
 69
     0
  0
VISUALSTYLE
  5
19DF
102
{ACAD_REACTORS
330
19D9
102
}
330
19D9
100
AcDbVisualStyle
  2
2dWireframe
 70
     4
 71
     0
 72
     2
 73
     0
 90
        0
 40
-0.6
 41
-30.0
 62
     5
 63
     7
 74
     1
 91
        4
 64
     7
 65
   257
 75
     1
175
     1
 42
1.0
 92
        0
 66
   257
 43
1.0
 76
     1
 77
     6
 78
     2
 67
     7
 79
     5
170
     0
171
     0
290
     0
174
     0
 93
        1
 44
0.0
173
     0
291
     0
 45
0.0
1001
ACAD
1000
AcDbSavedByObjectVersion
1070
     0
  0
VISUALSTYLE
  5
19E1
102
{ACAD_REACTORS
330
19D9
102
}
330
19D9
100
AcDbVisualStyle
  2
3D Hidden
 70
     6
 71
     1
 72
     2
 73
     2
 90
        0
 40
-0.6
 41
-30.0
 62
     5
 63
     7
 74
     2
 91
        2
 64
     7
 65
   257
 75
     2
175
     1
 42
40.0
 92
        0
 66
   257
 43
1.0
 76
     1
 77
     6
 78
     2
 67
     7
 79
     3
170
     0
171
     0
290
     0
174
     0
 93
        1
 44
0.0
173
     0
291
     0
 45
0.0
1001
ACAD
1000
AcDbSavedByObjectVersion
1070
     0
  0
VISUALSTYLE
  5
19E0
102
{ACAD_REACTORS
330
19D9
102
}
330
19D9
100
AcDbVisualStyle
  2
3dWireframe
 70
     5
 71
     0
 72
     2
 73
     0
 90
        0
 40
-0.6
 41
-30.0
 62
     5
 63
     7
 74
     1
 91
        4
 64
     7
 65
   257
 75
     1
175
     1
 42
1.0
 92
        0
 66
   257
 43
1.0
 76
     1
 77
     6
 78
     2
 67
     7
 79
     5
170
     0
171
     0
290
     0
174
     0
 93
        1
 44
0.0
173
     0
291
     0
 45
0.0
1001
ACAD
1000
AcDbSavedByObjectVersion
1070
     0
  0
VISUALSTYLE
  5
19DE
102
{ACAD_REACTORS
330
19D9
102
}
330
19D9
100
AcDbVisualStyle
  2
Basic
 70
     7
 71
     1
 72
     0
 73
     1
 90
        0
 40
-0.6
 41
-30.0
 62
     5
 63
     7
 74
     0
 91
        4
 64
     7
 65
   257
 75
     1
175
     1
 42
1.0
 92
        8
 66
     7
 43
1.0
 76
     1
 77
     6
 78
     2
 67
     7
 79
     5
170
     0
171
     0
290
     0
174
     0
 93
        1
 44
0.0
173
     0
291
     1
 45
0.0
1001
ACAD
1000
AcDbSavedByObjectVersion
1070
     0
  0
VISUALSTYLE
  5
19E5
102
{ACAD_REACTORS
330
19D9
102
}
330
19D9
100
AcDbVisualStyle
  2
Brighten
 70
    12
 71
     2
 72
     2
 73
     0
 90
        0
 40
-0.6
 41
-30.0
 62
     5
 63
     7
 74
     1
 91
        4
 64
     7
 65
   257
 75
     1
175
     1
 42
1.0
 92
        8
 66
     7
 43
1.0
 76
     1
 77
     6
 78
     2
 67
     7
 79
     5
170
     0
171
     0
290
     0
174
     0
 93
        1
 44
50.0
173
     0
291
     1
 45
0.0
1001
ACAD
1000
AcDbSavedByObjectVersion
1070
     0
  0
VISUALSTYLE
  5
19E9
102
{ACAD_REACTORS
330
19D9
102
}
330
19D9
100
AcDbVisualStyle
  2
ColorChange
 70
    16
 71
     2
 72
     2
 73
     3
 90
        0
 40
-0.6
 41
-30.0
 62
     5
 63
     8
 74
     1
 91
        4
 64
     7
 65
   257
 75
     1
175
     1
 42
1.0
 92
        8
 66
     8
 43
1.0
 76
     1
 77
     6
 78
     2
 67
     7
 79
     5
170
     0
171
     0
290
     0
174
     0
 93
        1
 44
0.0
173
     0
291
     1
 45
0.0
1001
ACAD
1000
AcDbSavedByObjectVersion
1070
     0
  0
VISUALSTYLE
  5
19E2
102
{ACAD_REACTORS
330
19D9
102
}
330
19D9
100
AcDbVisualStyle
  2
Conceptual
 70
     9
 71
     3
 72
     2
 73
     0
 90
        0
 40
-0.6
 41
-30.0
 62
     5
 63
     7
 74
     2
 91
        2
 64
     7
 65
   257
 75
     1
175
     1
 42
40.0
 92
        8
 66
     7
 43
1.0
 76
     1
 77
     6
 78
     2
 67
     7
 79
     3
170
     0
171
     0
290
     0
174
     0
 93
        1
 44
0.0
173
     0
291
     0
 45
0.0
1001
ACAD
1000
AcDbSavedByObjectVersion
1070
     0
  0
VISUALSTYLE
  5
19E4
102
{ACAD_REACTORS
330
19D9
102
}
330
19D9
100
AcDbVisualStyle
  2
Dim
 70
    11
 71
     2
 72
     2
 73
     0
 90
        0
 40
-0.6
 41
-30.0
 62
     5
 63
     7
 74
     1
 91
        4
 64
     7
 65
   257
 75
     1
175
     1
 42
1.0
 92
        8
 66
     7
 43
1.0
 76
     1
 77
     6
 78
     2
 67
     7
 79
     5
170
     0
171
     0
290
     0
174
     0
 93
        1
 44
-50.0
173
     0
291
     1
 45
0.0
1001
ACAD
1000
AcDbSavedByObjectVersion
1070
     0
  0
VISUALSTYLE
  5
19E8
102
{ACAD_REACTORS
330
19D9
102
}
330
19D9
100
AcDbVisualStyle
  2
Facepattern
 70
    15
 71
     2
 72
     2
 73
     0
 90
        0
 40
-0.6
 41
-30.0
 62
     5
 63
     7
 74
     1
 91
        4
 64
     7
 65
   257
 75
     1
175
     1
 42
1.0
 92
        8
 66
     7
 43
1.0
 76
     1
 77
     6
 78
     2
 67
     7
 79
     5
170
     0
171
     0
290
     0
174
     0
 93
        1
 44
0.0
173
     0
291
     1
 45
0.0
1001
ACAD
1000
AcDbSavedByObjectVersion
1070
     0
  0
VISUALSTYLE
  5
19DA
102
{ACAD_REACTORS
330
19D9
102
}
330
19D9
100
AcDbVisualStyle
  2
Flat
 70
     0
 71
     2
 72
     1
 73
     1
 90
        2
 40
-0.6
 41
30.0
 62
     5
 63
     7
 74
     0
 91
        4
 64
     7
 65
   257
 75
     1
175
     1
 42
1.0
 92
        8
 66
     7
 43
1.0
 76
     1
 77
     6
 78
     2
 67
     7
 79
     5
170
     0
171
     0
290
     0
174
     0
 93
       13
 44
0.0
173
     0
291
     1
 45
0.0
1001
ACAD
1000
AcDbSavedByObjectVersion
1070
     0
  0
VISUALSTYLE
  5
19DB
102
{ACAD_REACTORS
330
19D9
102
}
330
19D9
100
AcDbVisualStyle
  2
FlatWithEdges
 70
     1
 71
     2
 72
     1
 73
     1
 90
        2
 40
-0.6
 41
30.0
 62
     5
 63
     7
 74
     1
 91
        4
 64
     7
 65
   257
 75
     1
175
     1
 42
1.0
 92
        0
 66
   257
 43
1.0
 76
     1
 77
     6
 78
     2
 67
     7
 79
     5
170
     0
171
     0
290
     0
174
     0
 93
       13
 44
0.0
173
     0
291
     1
 45
0.0
1001
ACAD
1000
AcDbSavedByObjectVersion
1070
     0
  0
VISUALSTYLE
  5
19DC
102
{ACAD_REACTORS
330
19D9
102
}
330
19D9
100
AcDbVisualStyle
  2
Gouraud
 70
     2
 71
     2
 72
     2
 73
     1
 90
        2
 40
-0.6
 41
30.0
 62
     5
 63
     7
 74
     0
 91
        4
 64
     7
 65
   257
 75
     1
175
     1
 42
1.0
 92
        0
 66
     7
 43
1.0
 76
     1
 77
     6
 78
     2
 67
     7
 79
     5
170
     0
171
     0
290
     0
174
     0
 93
       13
 44
0.0
173
     0
291
     1
 45
0.0
1001
ACAD
1000
AcDbSavedByObjectVersion
1070
     0
  0
VISUALSTYLE
  5
19DD
102
{ACAD_REACTORS
330
19D9
102
}
330
19D9
100
AcDbVisualStyle
  2
GouraudWithEdges
 70
     3
 71
     2
 72
     2
 73
     1
 90
        2
 40
-0.6
 41
30.0
 62
     5
 63
     7
 74
     1
 91
        4
 64
     7
 65
   257
 75
     1
175
     1
 42
1.0
 92
        0
 66
   257
 43
1.0
 76
     1
 77
     6
 78
     2
 67
     7
 79
     5
170
     0
171
     0
290
     0
174
     0
 93
       13
 44
0.0
173
     0
291
     1
 45
0.0
1001
ACAD
1000
AcDbSavedByObjectVersion
1070
     0
  0
VISUALSTYLE
  5
19E7
102
{ACAD_REACTORS
330
19D9
102
}
330
19D9
100
AcDbVisualStyle
  2
Linepattern
 70
    14
 71
     2
 72
     2
 73
     0
 90
        0
 40
-0.6
 41
-30.0
 62
     5
 63
     7
 74
     1
 91
        4
 64
     7
 65
   257
 75
     7
175
     7
 42
1.0
 92
        8
 66
     7
 43
1.0
 76
     1
 77
     6
 78
     2
 67
     7
 79
     5
170
     0
171
     0
290
     0
174
     0
 93
        1
 44
0.0
173
     0
291
     1
 45
0.0
1001
ACAD
1000
AcDbSavedByObjectVersion
1070
     0
  0
VISUALSTYLE
  5
19E3
102
{ACAD_REACTORS
330
19D9
102
}
330
19D9
100
AcDbVisualStyle
  2
Realistic
 70
     8
 71
     2
 72
     2
 73
     0
 90
        0
 40
-0.6
 41
-30.0
 62
     5
 63
     7
 74
     1
 91
        0
 64
     7
 65
   257
 75
     1
175
     1
 42
1.0
 92
        8
 66
     8
 43
1.0
 76
     1
 77
     6
 78
     2
 67
     7
 79
     5
170
     0
171
     0
290
     0
174
     0
 93
       13
 44
0.0
173
     0
291
     0
 45
0.0
1001
ACAD
1000
AcDbSavedByObjectVersion
1070
     0
  0
VISUALSTYLE
  5
19E6
102
{ACAD_REACTORS
330
19D9
102
}
330
19D9
100
AcDbVisualStyle
  2
Thicken
 70
    13
 71
     2
 72
     2
 73
     0
 90
        0
 40
-0.6
 41
-30.0
 62
     5
 63
     7
 74
     1
 91
        4
 64
     7
 65
   257
 75
     1
175
     1
 42
1.0
 92
       12
 66
     7
 43
1.0
 76
     1
 77
     6
 78
     2
 67
     7
 79
     5
170
     0
171
     0
290
     0
174
     0
 93
        1
 44
0.0
173
     0
291
     1
 45
0.0
1001
ACAD
1000
AcDbSavedByObjectVersion
1070
     0
  0
DICTIONARYVAR
  5
1CBA
102
{ACAD_REACTORS
330
1CB7
102
}
330
1CB7
100
DictionaryVariables
280
     0
  1
1:1
  0
DICTIONARYVAR
  5
1CB9
102
{ACAD_REACTORS
330
1CB7
102
}
330
1CB7
100
DictionaryVariables
280
     0
  1
STANDARD
  0
DICTIONARYVAR
  5
1CB8
102
{ACAD_REACTORS
330
1CB7
102
}
330
1CB7
100
DictionaryVariables
280
     0
  1
STANDARD
  0
DICTIONARYVAR
  5
1D20
102
{ACAD_REACTORS
330
1CB7
102
}
330
1CB7
100
DictionaryVariables
280
     0
  1
0
  0
DICTIONARYVAR
  5
1D1F
102
{ACAD_REACTORS
330
1CB7
102
}
330
1CB7
100
DictionaryVariables
280
     0
  1
0
  0
DICTIONARYVAR
  5
1D1E
102
{ACAD_REACTORS
330
1CB7
102
}
330
1CB7
100
DictionaryVariables
280
     0
  1
127
  0
DICTIONARY
  5
1ABD
102
{ACAD_REACTORS
330
1AB2
102
}
330
1AB2
100
AcDbDictionary
281
     1
  0
DICTIONARY
  5
1D2C
330
1A23
100
AcDbDictionary
280
     1
281
     1
  3
ACAD_XREC_ROUNDTRIP
360
1D2D
  0
DICTIONARY
  5
1D2E
330
1A27
100
AcDbDictionary
280
     1
281
     1
  3
ACAD_XREC_ROUNDTRIP
360
1D2F
  0
DICTIONARY
  5
19CA
330
19C9
100
AcDbDictionary
280
     1
281
     1
  3
ACAD_XREC_ROUNDTRIP
360
1D29
  3
BUMPTILE
360
19CC
  3
DIFFUSETILE
360
19CB
  3
OPACITYTILE
360
19CF
  3
REFLECTIONTILE
360
19CE
  3
REFRACTIONTILE
360
19D0
  3
SPECULARTILE
360
19CD
  0
DICTIONARY
  5
19C2
330
19C1
100
AcDbDictionary
280
     1
281
     1
  3
ACAD_XREC_ROUNDTRIP
360
1D28
  3
BUMPTILE
360
19C4
  3
DIFFUSETILE
360
19C3
  3
OPACITYTILE
360
19C7
  3
REFLECTIONTILE
360
19C6
  3
REFRACTIONTILE
360
19C8
  3
SPECULARTILE
360
19C5
  0
DICTIONARY
  5
19D2
330
19D1
100
AcDbDictionary
280
     1
281
     1
  3
ACAD_XREC_ROUNDTRIP
360
1D2A
  3
BUMPTILE
360
19D4
  3
DIFFUSETILE
360
19D3
  3
OPACITYTILE
360
19D7
  3
REFLECTIONTILE
360
19D6
  3
REFRACTIONTILE
360
19D8
  3
SPECULARTILE
360
19D5
  0
DICTIONARY
  5
1CA3
330
1A1C
100
AcDbDictionary
280
     1
281
     1
  3
ACAD_ROUNDTRIP_2008_TABLESTYLE_CELLSTYLEMAP
360
1D21
  3
ACAD_XREC_ROUNDTRIP
360
1D2B
  0
XRECORD
  5
1D2D
102
{ACAD_REACTORS
330
1D2C
102
}
330
1D2C
100
AcDbXrecord
280
     1
102
SHADEPLOT
 70
     0
102
SHADEPLOTRESLEVEL
 70
     2
102
SHADEPLOTCUSTOMDPI
 70
   300
  0
XRECORD
  5
1D2F
102
{ACAD_REACTORS
330
1D2E
102
}
330
1D2E
100
AcDbXrecord
280
     1
102
SHADEPLOT
 70
     0
102
SHADEPLOTRESLEVEL
 70
     2
102
SHADEPLOTCUSTOMDPI
 70
   300
  0
XRECORD
  5
1D29
102
{ACAD_REACTORS
330
19CA
102
}
330
19CA
100
AcDbXrecord
280
     1
102
MATERIAL
148
0.0
149
0.0
149
0.0
 93
        0
 94
      127
282
     0
 72
     0
 77
     0
171
     0
175
     0
179
     0
273
     0
  0
XRECORD
  5
19CC
102
{ACAD_REACTORS
330
19CA
102
}
330
19CA
100
AcDbXrecord
280
     1
270
     1
271
     1
  0
XRECORD
  5
19CB
102
{ACAD_REACTORS
330
19CA
102
}
330
19CA
100
AcDbXrecord
280
     1
270
     1
271
     1
  0
XRECORD
  5
19CF
102
{ACAD_REACTORS
330
19CA
102
}
330
19CA
100
AcDbXrecord
280
     1
270
     1
271
     1
  0
XRECORD
  5
19CE
102
{ACAD_REACTORS
330
19CA
102
}
330
19CA
100
AcDbXrecord
280
     1
270
     1
271
     1
  0
XRECORD
  5
19D0
102
{ACAD_REACTORS
330
19CA
102
}
330
19CA
100
AcDbXrecord
280
     1
270
     1
271
     1
  0
XRECORD
  5
19CD
102
{ACAD_REACTORS
330
19CA
102
}
330
19CA
100
AcDbXrecord
280
     1
270
     1
271
     1
  0
XRECORD
  5
1D28
102
{ACAD_REACTORS
330
19C2
102
}
330
19C2
100
AcDbXrecord
280
     1
102
MATERIAL
148
0.0
149
0.0
149
0.0
 93
        0
 94
      127
282
     0
 72
     0
 77
     0
171
     0
175
     0
179
     0
273
     0
  0
XRECORD
  5
19C4
102
{ACAD_REACTORS
330
19C2
102
}
330
19C2
100
AcDbXrecord
280
     1
270
     1
271
     1
  0
XRECORD
  5
19C3
102
{ACAD_REACTORS
330
19C2
102
}
330
19C2
100
AcDbXrecord
280
     1
270
     1
271
     1
  0
XRECORD
  5
19C7
102
{ACAD_REACTORS
330
19C2
102
}
330
19C2
100
AcDbXrecord
280
     1
270
     1
271
     1
  0
XRECORD
  5
19C6
102
{ACAD_REACTORS
330
19C2
102
}
330
19C2
100
AcDbXrecord
280
     1
270
     1
271
     1
  0
XRECORD
  5
19C8
102
{ACAD_REACTORS
330
19C2
102
}
330
19C2
100
AcDbXrecord
280
     1
270
     1
271
     1
  0
XRECORD
  5
19C5
102
{ACAD_REACTORS
330
19C2
102
}
330
19C2
100
AcDbXrecord
280
     1
270
     1
271
     1
  0
XRECORD
  5
1D2A
102
{ACAD_REACTORS
330
19D2
102
}
330
19D2
100
AcDbXrecord
280
     1
102
MATERIAL
148
0.0
149
0.0
149
0.0
 93
        0
 94
      127
282
     0
 72
     0
 77
     0
171
     0
175
     0
179
     0
273
     0
  0
XRECORD
  5
19D4
102
{ACAD_REACTORS
330
19D2
102
}
330
19D2
100
AcDbXrecord
280
     1
270
     1
271
     1
  0
XRECORD
  5
19D3
102
{ACAD_REACTORS
330
19D2
102
}
330
19D2
100
AcDbXrecord
280
     1
270
     1
271
     1
  0
XRECORD
  5
19D7
102
{ACAD_REACTORS
330
19D2
102
}
330
19D2
100
AcDbXrecord
280
     1
270
     1
271
     1
  0
XRECORD
  5
19D6
102
{ACAD_REACTORS
330
19D2
102
}
330
19D2
100
AcDbXrecord
280
     1
270
     1
271
     1
  0
XRECORD
  5
19D8
102
{ACAD_REACTORS
330
19D2
102
}
330
19D2
100
AcDbXrecord
280
     1
270
     1
271
     1
  0
XRECORD
  5
19D5
102
{ACAD_REACTORS
330
19D2
102
}
330
19D2
100
AcDbXrecord
280
     1
270
     1
271
     1
  0
CELLSTYLEMAP
  5
1D21
102
{ACAD_REACTORS
330
1CA3
102
}
330
1CA3
100
AcDbCellStyleMap
 90
        3
300
CELLSTYLE
  1
TABLEFORMAT_BEGIN
 90
        5
170
     1
 91
        0
 92
    32768
 62
   257
 93
        1
300
CONTENTFORMAT
  1
CONTENTFORMAT_BEGIN
 90
        0
 91
        0
 92
      512
 93
        0
300

 40
0.0
140
1.0
 94
        5
 62
     0
340
1A0D
144
0.25
309
CONTENTFORMAT_END
171
     0
 94
        0
309
TABLEFORMAT_END
  1
CELLSTYLE_BEGIN
 90
        1
 91
        1
300
_TITLE
309
CELLSTYLE_END
300
CELLSTYLE
  1
TABLEFORMAT_BEGIN
 90
        5
170
     1
 91
        0
 92
        0
 62
   257
 93
        1
300
CONTENTFORMAT
  1
CONTENTFORMAT_BEGIN
 90
        0
 91
        0
 92
      512
 93
        0
300

 40
0.0
140
1.0
 94
        5
 62
     0
340
1A0D
144
0.18
309
CONTENTFORMAT_END
171
     0
 94
        0
309
TABLEFORMAT_END
  1
CELLSTYLE_BEGIN
 90
        2
 91
        1
300
_HEADER
309
CELLSTYLE_END
300
CELLSTYLE
  1
TABLEFORMAT_BEGIN
 90
        5
170
     1
 91
        0
 92
        0
 62
   257
 93
        1
300
CONTENTFORMAT
  1
CONTENTFORMAT_BEGIN
 90
        0
 91
        0
 92
      512
 93
        0
300

 40
0.0
140
1.0
 94
        2
 62
     0
340
1A0D
144
0.18
309
CONTENTFORMAT_END
171
     0
 94
        0
309
TABLEFORMAT_END
  1
CELLSTYLE_BEGIN
 90
        3
 91
        2
300
_DATA
309
CELLSTYLE_END
  0
XRECORD
  5
1D2B
102
{ACAD_REACTORS
330
1CA3
102
}
330
1CA3
100
AcDbXrecord
280
     1
102
ACAD_ROUNDTRIP_PRE2007_TABLESTYLE
 90
      512
 91
        0
  1

 92
      512
 93
        0
  2

 94
      512
 95
        0
  3

  0
ENDSEC
  0
EOF
