  0
SECTION
  2
HEADER
  9
$ACADVER
  1
AC1009
  9
$INSBASE
 10
0.0
 20
0.0
 30
0.0
  9
$EXTMIN
 10
-537.56940290272723
 20
-0.1769454940167634
 30
-0.0015258207003583
  9
$EXTMAX
 10
4058.140628201003
 20
5336.9063344727238
 30
0.0000000349246037
  9
$LIMMIN
 10
0.0
 20
0.0
  9
$LIMMAX
 10
3890.0
 20
2660.0
  9
$ORTHOMODE
 70
     1
  9
$REGENMODE
 70
     1
  9
$FILLMODE
 70
     1
  9
$QTEXTMODE
 70
     0
  9
$MIRRTEXT
 70
     0
  9
$DRAGMODE
 70
     2
  9
$LTSCALE
 40
300.0
  9
$OSMODE
 70
     0
  9
$ATTMODE
 70
     1
  9
$TEXTSIZE
 40
30.0
  9
$TRACEWID
 40
0.05
  9
$TEXTSTYLE
  7
TITLE3
  9
$CLAYER
  8
0
  9
$CELTYPE
  6
BYLAYER
  9
$CECOLOR
 62
   256
  9
$DIMSCALE
 40
1.0
  9
$DIMASZ
 40
0.12
  9
$DIMEXO
 40
0.05
  9
$DIMDLI
 40
0.5
  9
$DIMRND
 40
0.0
  9
$DIMDLE
 40
0.0
  9
$DIMEXE
 40
0.1
  9
$DIMTP
 40
0.1
  9
$DIMTM
 40
0.1
  9
$DIMTXT
 40
0.12
  9
$DIMCEN
 40
0.0
  9
$DIMTSZ
 40
0.0
  9
$DIMTOL
 70
     0
  9
$DIMLIM
 70
     0
  9
$DIMTIH
 70
     1
  9
$DIMTOH
 70
     1
  9
$DIMSE1
 70
     0
  9
$DIMSE2
 70
     0
  9
$DIMTAD
 70
     0
  9
$DIMZIN
 70
     7
  9
$DIMBLK
  1

  9
$DIMASO
 70
     0
  9
$DIMSHO
 70
     0
  9
$DIMPOST
  1

  9
$DIMAPOST
  1
mm
  9
$DIMALT
 70
     0
  9
$DIMALTD
 70
     2
  9
$DIMALTF
 40
25.399999999999999
  9
$DIMLFAC
 40
1.0
  9
$DIMTOFL
 70
     0
  9
$DIMTVP
 40
0.0
  9
$DIMTIX
 70
     0
  9
$DIMSOXD
 70
     0
  9
$DIMSAH
 70
     0
  9
$DIMBLK1
  1

  9
$DIMBLK2
  1

  9
$DIMSTYLE
  2
AM_ANSI
  9
$DIMCLRD
 70
   256
  9
$DIMCLRE
 70
   256
  9
$DIMCLRT
 70
     2
  9
$DIMTFAC
 40
0.71
  9
$DIMGAP
 40
0.06
  9
$LUNITS
 70
     2
  9
$LUPREC
 70
     2
  9
$SKETCHINC
 40
0.1
  9
$FILLETRAD
 40
0.0
  9
$AUNITS
 70
     0
  9
$AUPREC
 70
     2
  9
$MENU
  1
\acad12\support\cnc
  9
$ELEVATION
 40
0.0
  9
$PELEVATION
 40
0.0
  9
$THICKNESS
 40
0.0
  9
$LIMCHECK
 70
     0
  9
$BLIPMODE
 70
     0
  9
$CHAMFERA
 40
20.0
  9
$CHAMFERB
 40
20.0
  9
$SKPOLY
 70
     0
  9
$TDCREATE
 40
2450610.4026309028
  9
$TDUPDATE
 40
2454746.562210185
  9
$TDINDWG
 40
0.853049375
  9
$TDUSRTIMER
 40
0.8530470718
  9
$USRTIMER
 70
     1
  9
$ANGBASE
 50
0.0
  9
$ANGDIR
 70
     0
  9
$PDMODE
 70
     2
  9
$PDSIZE
 40
10.0
  9
$PLINEWID
 40
2.0
  9
$COORDS
 70
     1
  9
$SPLFRAME
 70
     0
  9
$SPLINETYPE
 70
     6
  9
$SPLINESEGS
 70
     8
  9
$ATTDIA
 70
     1
  9
$ATTREQ
 70
     1
  9
$HANDLING
 70
     1
  9
$HANDSEED
  5
92CD
  9
$SURFTAB1
 70
     6
  9
$SURFTAB2
 70
     6
  9
$SURFTYPE
 70
     6
  9
$SURFU
 70
     6
  9
$SURFV
 70
     6
  9
$UCSNAME
  2

  9
$UCSORG
 10
0.0
 20
0.0
 30
0.0
  9
$UCSXDIR
 10
1.0
 20
0.0
 30
0.0
  9
$UCSYDIR
 10
0.0
 20
1.0
 30
0.0
  9
$PUCSNAME
  2

  9
$PUCSORG
 10
0.0
 20
0.0
 30
0.0
  9
$PUCSXDIR
 10
1.0
 20
0.0
 30
0.0
  9
$PUCSYDIR
 10
0.0
 20
1.0
 30
0.0
  9
$USERI1
 70
     0
  9
$USERI2
 70
     0
  9
$USERI3
 70
     0
  9
$USERI4
 70
     0
  9
$USERI5
 70
     0
  9
$USERR1
 40
0.0
  9
$USERR2
 40
0.0
  9
$USERR3
 40
0.0
  9
$USERR4
 40
0.0
  9
$USERR5
 40
0.0
  9
$WORLDVIEW
 70
     1
  9
$SHADEDGE
 70
     3
  9
$SHADEDIF
 70
    70
  9
$TILEMODE
 70
     1
  9
$MAXACTVP
 70
    16
  9
$PLIMCHECK
 70
     0
  9
$PEXTMIN
 10
1.0000000000000000E+020
 20
1.0000000000000000E+020
 30
1.0000000000000000E+020
  9
$PEXTMAX
 10
-1.0000000000000000E+020
 20
-1.0000000000000000E+020
 30
-1.0000000000000000E+020
  9
$PLIMMIN
 10
0.0
 20
0.0
  9
$PLIMMAX
 10
12.0
 20
9.0
  9
$UNITMODE
 70
     0
  9
$VISRETAIN
 70
     0
  9
$PLINEGEN
 70
     0
  9
$PSLTSCALE
 70
     0
  0
ENDSEC
  0
SECTION
  2
TABLES
  0
TABLE
  2
VPORT
 70
     1
  0
VPORT
  2
*ACTIVE
 70
     0
 10
0.0
 20
0.0
 11
1.0
 21
1.0
 12
-297.19532305259099
 22
335.84234438506559
 13
0.0
 23
0.0
 14
25.0
 24
25.0
 15
100.0
 25
100.0
 16
0.0
 26
0.0
 36
1.0
 17
2057.4809357017289
 27
2332.5223501042879
 37
0.0
 40
5369.9943793293296
 41
1.8899176954732511
 42
50.0
 43
0.0
 44
0.0
 50
0.0
 51
0.0
 71
     0
 72
   100
 73
     1
 74
     0
 75
     0
 76
     0
 77
     0
 78
     0
  0
ENDTAB
  0
TABLE
  2
LTYPE
 70
    16
  0
LTYPE
  2
CONTINUOUS
 70
     0
  3
Solid line
 72
    65
 73
     0
 40
0.0
  0
LTYPE
  2
HIDDEN
 70
     0
  3
_ _ _ _ _ _ _ _ _ _ _ _ _ _ _ _ _ _ _ _ _ _ _
 72
    65
 73
     2
 40
0.375
 49
0.25
 49
-0.125
  0
LTYPE
  2
PHANTOM2
 70
     0
  3
Phantom (.5x) ___ _ _ ___ _ _ ___ _ _ ___ _ _
 72
    65
 73
     6
 40
1.25
 49
0.625
 49
-0.125
 49
0.125
 49
-0.125
 49
0.125
 49
-0.125
  0
LTYPE
  2
HIDDEN2
 70
     0
  3
Hidden (.5x) _ _ _ _ _ _ _ _ _ _ _ _ _ _ _ _ _
 72
    65
 73
     2
 40
0.1875
 49
0.125
 49
-0.0625
  0
LTYPE
  2
CENTER
 70
     0
  3
Center ____ _ ____ _ ____ _ ____ _ ____ _ ____
 72
    65
 73
     4
 40
2.0
 49
1.25
 49
-0.25
 49
0.25
 49
-0.25
  0
LTYPE
  2
AM_ISO02W050
 70
     0
  3
__ __ __ __ __ __ __ __ __ __ __ __ __ __ __
 72
    65
 73
     2
 40
7.5
 49
6.0
 49
-1.5
  0
LTYPE
  2
AM_ISO08W050
 70
     0
  3
____ . ____ . ____ . ____ . ____ . ____ . ____
 72
    65
 73
     4
 40
18.0
 49
12.0
 49
-1.5
 49
3.0
 49
-1.5
  0
LTYPE
  2
AM_ISO09W050
 70
     0
  3
_____ . . _____ . . _____ . . ____ .. ____
 72
    65
 73
     6
 40
22.5
 49
12.0
 49
-1.5
 49
3.0
 49
-1.5
 49
3.0
 49
-1.5
  0
LTYPE
  2
AMCONSTR
 70
     0
  3
_______________________
 72
    65
 73
     2
 40
9999.0
 49
9999.0
 49
0.0
  0
LTYPE
  2
AM_ISO08W050X2
 70
     0
  3
__ . __ . __ . __ . __ . __
 72
    65
 73
     4
 40
9.0
 49
6.0
 49
-0.75
 49
1.5
 49
-0.75
  0
LTYPE
  2
AM_ISO02W050X2
 70
     0
  3
 _ _ _ _ _ _ _ _ _ _ _ _
 72
    65
 73
     2
 40
3.75
 49
3.0
 49
-0.75
  0
LTYPE
  2
AMZIGZAG
 70
     0
  3
/\/-/\/-/\/-/\/-/\/-/\/
 72
    65
 73
     2
 40
11.0001
 49
0.0001
 49
-11.0
  0
LTYPE
  2
CENTER2
 70
     0
  3
Center (.5x) ___ _ ___ _ ___ _ ___ _ ___ _ ___
 72
    65
 73
     4
 40
1.125
 49
0.75
 49
-0.125
 49
0.125
 49
-0.125
  0
LTYPE
  2
AMZIGZAG2
 70
     0
  3
/\/-/\/-/\/-/\/-/\/-/\/
 72
    65
 73
     2
 40
0.4401
 49
0.0001
 49
-0.4400000000000003
  0
LTYPE
  2
ACANSTGB
 70
     0
  3
__ . . __ . .
 72
    65
 73
     6
 40
0.35433070866
 49
0.15748031496
 49
-0.03937007874
 49
0.03937007874
 49
-0.03937007874
 49
0.03937007874
 49
-0.03937007874
  0
LTYPE
  2
ACANSTGL
 70
     0
  3
_ _ _ _ _
 72
    65
 73
     2
 40
0.11811023622
 49
0.07874015748
 49
-0.03937007874
  0
ENDTAB
  0
TABLE
  2
LAYER
 70
     1
  0
LAYER
  2
0
 70
     0
 62
     7
  6
CONTINUOUS
  0
ENDTAB
  0
TABLE
  2
STYLE
 70
     9
  0
STYLE
  2
STANDARD
 70
     0
 40
0.0
 41
1.0
 50
0.0
 71
     0
 42
0.2
  3
txt
  4

  0
STYLE
  2
ANNOTATIVE
 70
     0
 40
0.0
 41
1.0
 50
0.0
 71
     0
 42
0.2
  3
txt
  4

  0
STYLE
  2
TITLE3
 70
     0
 40
30.0
 41
1.0
 50
0.0
 71
     0
 42
30.0
  3
SIMPLEX
  4

  0
STYLE
  2
TITLE5
 70
     0
 40
50.0
 41
1.0
 50
0.0
 71
     0
 42
50.0
  3
SIMPLEX
  4

  0
STYLE
  2
SIMPLEX
 70
     0
 40
30.0
 41
1.0
 50
0.0
 71
     0
 42
25.0
  3
SIMPLEX.shx
  4

  0
STYLE
  2
TITLE
 70
     0
 40
60.0
 41
1.0
 50
0.0
 71
     0
 42
60.0
  3
simplex.shx
  4

  0
STYLE
  2

 70
     1
 40
0.0
 41
1.0
 50
0.0
 71
     0
 42
30.0
  3
genltshp.shx
  4

  0
STYLE
  2
ACANSTS
 70
     0
 40
1.0
 41
1.0
 50
0.0
 71
     0
 42
30.0
  3
romans.shx
  4

  0
STYLE
  2
ACANSGDT
 70
     0
 40
0.0
 41
1.0
 50
0.0
 71
     0
 42
30.0
  3
amgdt.shx
  4

  0
ENDTAB
  0
TABLE
  2
VIEW
 70
     0
  0
ENDTAB
  0
TABLE
  2
UCS
 70
     0
  0
ENDTAB
  0
TABLE
  2
APPID
 70
    20
  0
APPID
  2
ACAD
 70
     0
  0
APPID
  2
ACADANNOTATIVE
 70
     0
  0
APPID
  2
ACAD_MLEADERVER
 70
     0
  0
APPID
  2
GENIUS_GENDIM_13
 70
     0
  0
APPID
  2
GENIUS_GENDTOL_13
 70
     0
  0
APPID
  2
GENIUS_GE3DTOL_13
 70
     0
  0
APPID
  2
MCAD_NO_VIS
 70
     0
  0
APPID
  2
ACAD_TEMP_GRAPHIC
 70
     0
  0
APPID
  2
AD_DRAW
 70
     0
  0
APPID
  2
ACATTRIBSERVICES
 70
     0
  0
APPID
  2
ASURF_PCURVE_APPNAME
 70
     0
  0
APPID
  2
AMG_3D2D_5_0
 70
     0
  0
APPID
  2
DESIGNERASSEMBLIES
 70
     0
  0
APPID
  2
ACADM_DIM_EDIT
 70
     0
  0
APPID
  2
AMDT_DM_ADJ
 70
     0
  0
APPID
  2
ACAD_PSEXT
 70
     0
  0
APPID
  2
AMG_3D2D_5_00
 70
     0
  0
APPID
  2
ACAD_EXEMPT_FROM_CAD_STANDARDS
 70
     0
  0
APPID
  2
AMG_3D2D_5_01
 70
     0
  0
APPID
  2
ACAD_DSTYLE_DIMRADIAL_EXTENSION
 70
     0
  0
ENDTAB
  0
TABLE
  2
DIMSTYLE
 70
     8
  0
DIMSTYLE
  2
STANDARD
 70
     0
  3

  4

  5

  6

  7

 40
1.0
 41
0.18
 42
0.0625
 43
0.38
 44
0.18
 45
0.0
 46
0.0
 47
0.0
 48
0.0
140
0.18
141
0.09
142
0.0
143
25.399999999999999
144
1.0
145
0.0
146
1.0
147
0.09
 71
     0
 72
     0
 73
     1
 74
     1
 75
     0
 76
     0
 77
     0
 78
     0
170
     0
171
     2
172
     0
173
     0
174
     0
175
     0
176
     0
177
     0
178
     0
  0
DIMSTYLE
  2
ANNOTATIVE
 70
     0
  3

  4

  5

  6

  7

 40
1.0
 41
0.18
 42
0.0625
 43
0.38
 44
0.18
 45
0.0
 46
0.0
 47
0.0
 48
0.0
140
0.18
141
0.09
142
0.0
143
25.399999999999999
144
1.0
145
0.0
146
1.0
147
0.09
 71
     0
 72
     0
 73
     1
 74
     1
 75
     0
 76
     0
 77
     0
 78
     0
170
     0
171
     2
172
     0
173
     0
174
     0
175
     0
176
     0
177
     0
178
     0
  0
DIMSTYLE
  2
AM_ANSI
 70
     0
  3

  4
mm
  5

  6

  7

 40
1.0
 41
0.12
 42
0.05
 43
0.5
 44
0.1
 45
0.0
 46
0.0
 47
0.1
 48
0.1
140
0.12
141
0.0
142
0.0
143
25.399999999999999
144
1.0
145
0.0
146
0.71
147
0.06
 71
     0
 72
     0
 73
     1
 74
     1
 75
     0
 76
     0
 77
     0
 78
     7
170
     0
171
     2
172
     0
173
     0
174
     0
175
     0
176
   256
177
   256
178
     2
  0
DIMSTYLE
  2
AM_ANSI$3
 70
     0
  3

  4
mm
  5

  6

  7

 40
1.0
 41
0.12
 42
0.05
 43
0.5
 44
0.1
 45
0.0
 46
0.0
 47
0.1
 48
0.1
140
0.12
141
0.0
142
0.0
143
25.399999999999999
144
1.0
145
0.0
146
0.71
147
0.06
 71
     0
 72
     0
 73
     1
 74
     1
 75
     0
 76
     0
 77
     0
 78
     7
170
     0
171
     2
172
     0
173
     0
174
     0
175
     0
176
   256
177
   256
178
     2
  0
DIMSTYLE
  2
AM_ANSI$4
 70
     0
  3

  4
mm
  5

  6

  7

 40
1.0
 41
0.12
 42
0.05
 43
0.5
 44
0.1
 45
0.0
 46
0.0
 47
0.1
 48
0.1
140
0.12
141
0.0
142
0.0
143
25.399999999999999
144
1.0
145
0.0
146
0.71
147
0.06
 71
     0
 72
     0
 73
     1
 74
     1
 75
     0
 76
     0
 77
     0
 78
     7
170
     0
171
     2
172
     0
173
     0
174
     0
175
     0
176
   256
177
   256
178
     2
  0
DIMSTYLE
  2
AM_ANSI$7
 70
     0
  3

  4
mm
  5

  6

  7

 40
1.0
 41
0.12
 42
0.05
 43
0.5
 44
0.1
 45
0.0
 46
0.0
 47
0.1
 48
0.1
140
0.12
141
0.0
142
0.0
143
25.399999999999999
144
1.0
145
0.0
146
0.71
147
0.06
 71
     0
 72
     0
 73
     1
 74
     1
 75
     0
 76
     0
 77
     0
 78
     7
170
     0
171
     2
172
     0
173
     0
174
     0
175
     0
176
   256
177
   256
178
     2
  0
DIMSTYLE
  2
AM_ANSI$SF
 70
     0
  3

  4
mm
  5

  6

  7

 40
1.0
 41
0.12
 42
0.05
 43
0.5
 44
0.1
 45
0.0
 46
0.0
 47
0.1
 48
0.1
140
0.12
141
0.0
142
0.0
143
25.399999999999999
144
1.0
145
0.0
146
0.71
147
0.06
 71
     0
 72
     0
 73
     1
 74
     1
 75
     1
 76
     1
 77
     0
 78
     7
170
     0
171
     2
172
     0
173
     0
174
     0
175
     0
176
   256
177
   256
178
     2
  0
DIMSTYLE
  2
AM_ANSI$SH
 70
     0
  3

  4
mm
  5

  6

  7

 40
1.0
 41
0.12
 42
0.05
 43
0.5
 44
0.1
 45
0.0
 46
0.0
 47
0.1
 48
0.1
140
0.12
141
0.0
142
0.0
143
25.399999999999999
144
1.0
145
0.0
146
0.71
147
0.06
 71
     0
 72
     0
 73
     1
 74
     1
 75
     1
 76
     1
 77
     0
 78
     7
170
     0
171
     2
172
     0
173
     1
174
     0
175
     0
176
   256
177
   256
178
     2
  0
ENDTAB
  0
ENDSEC
  0
SECTION
  2
BLOCKS
  0
BLOCK
  8
0
  2
$MODEL_SPACE
 70
     0
 10
0.0
 20
0.0
 30
0.0
  3
$MODEL_SPACE
  1

  0
ENDBLK
  5
913F
  8
0
  0
BLOCK
 67
     1
  8
0
  2
$PAPER_SPACE
 70
     0
 10
0.0
 20
0.0
 30
0.0
  3
$PAPER_SPACE
  1

  0
ENDBLK
  5
913B
 67
     1
  8
0
  0
BLOCK
  8
0
  2
*U2
 70
     1
 10
0.0
 20
0.0
 30
0.0
  3
*U2
  1

  0
TEXT
  5
8C2A
  8
0
 62
     7
 10
1966.251134363293
 20
3816.3416874558488
 30
0.0
 40
30.0
  1
780
 50
90.0
  0
ENDBLK
  5
8C2C
  8
0
  0
BLOCK
  8
0
  2
*U3
 70
     1
 10
0.0
 20
0.0
 30
0.0
  3
*U3
  1

  0
TEXT
  5
8C31
  8
0
 62
     7
 10
-40.405342074508809
 20
3813.5416874558482
 30
0.0
 40
30.0
  1
825
 50
90.0
  0
ENDBLK
  5
8C33
  8
0
  0
BLOCK
  8
0
  2
GENAXEH
 70
     0
 10
0.0
 20
0.0
 30
0.0
  3
GENAXEH
  1

  0
LINE
  5
8D59
  8
0
 10
-1.0
 20
0.0
 30
0.0
 11
1.0
 21
0.0
 31
0.0
  0
ENDBLK
  5
8D5B
  8
0
  0
BLOCK
  8
0
  2
*U5
 70
     1
 10
0.0
 20
0.0
 30
0.0
  3
*U5
  1

  0
TEXT
  5
8DF9
  8
0
 62
     7
 10
2523.480777594049
 20
290.56696219673228
 30
0.0
 40
30.0
  1
750
  0
ENDBLK
  5
8DFB
  8
0
  0
BLOCK
  8
0
  2
*U6
 70
     1
 10
0.0
 20
0.0
 30
0.0
  3
*U6
  1

  0
TEXT
  5
8DFD
  8
0
 62
     7
 10
3273.4807775940471
 20
290.56696219673228
 30
0.0
 40
30.0
  1
750
  0
ENDBLK
  5
8DFF
  8
0
  0
BLOCK
  8
0
  2
*U7
 70
     1
 10
0.0
 20
0.0
 30
0.0
  3
*U7
  1

  0
TEXT
  5
8E01
  8
0
 62
     7
 10
1952.0129593400659
 20
4216.341687455847
 30
0.0
 40
30.0
  1
720
 50
90.0
  0
ENDBLK
  5
8E03
  8
0
  0
BLOCK
  8
0
  2
*U8
 70
     1
 10
0.0
 20
0.0
 30
0.0
  3
*U8
  1

  0
TEXT
  5
8E08
  8
0
 62
     7
 10
580.38229287936986
 20
3803.8842996582098
 30
0.0
 40
30.0
  1
1230
  0
ENDBLK
  5
8E0A
  8
0
  0
ENDSEC
  0
SECTION
  2
ENTITIES
  0
LINE
  5
8200
  8
0
 62
     7
 10
-537.2907304541053
 20
0.0
 30
0.0
 11
4058.0
 21
0.0
 31
0.0
  0
LINE
  5
8201
  8
0
 62
     7
 10
4058.0
 20
0.0
 30
0.0
 11
4058.0
 21
5336.8530609502404
 31
0.0
  0
LINE
  5
8203
  8
0
 62
     7
 10
-537.2907304541053
 20
5336.8530609502404
 30
0.0
 11
-537.2907304541053
 21
0.0
 31
0.0
  0
TEXT
  5
8205
  8
0
 62
     7
 10
2595.6612673587392
 20
3650.4393010972608
 30
0.0
 40
30.0
  1
2000 min CLEARANCE
  7
TITLE3
  0
LINE
  5
8212
  8
0
 62
     7
 10
1956.780777594048
 20
374.98709778756159
 30
0.0
 11
2040.7807775940471
 21
374.98709778756159
 31
0.0
  0
SOLID
  5
8232
  8
0
 62
     7
 10
2867.6762370650399
 20
4942.4381963476753
 30
0.0
 11
2842.6762370650399
 21
4792.4381963476708
 31
0.0
 12
2817.676237065039
 22
4942.4381963476753
 32
0.0
 13
2817.676237065039
 23
4942.4381963476753
 33
0.0
1001
ACAD
1000
DSTYLE
1002
{
1070
    41
1040
60.0
1070
    42
1040
40.0
1070
    44
1040
40.0
1070
    73
1070
     0
1070
    74
1070
     0
1070
   140
1040
60.0
1070
   147
1040
40.0
1070
   176
1070
    52
1070
   177
1070
    52
1070
   178
1070
    50
1070
   179
1070
     2
1070
   271
1070
     2
1070
   272
1070
     2
1070
   279
1070
     2
1070
   340
1005
FC6
1002
}
  0
LINE
  5
8233
  8
0
 62
     7
 10
2038.7307775940469
 20
3961.7236643105798
 30
0.0
 11
2038.7307775940469
 21
3975.723664310583
 31
0.0
  0
LINE
  5
8234
  8
0
 62
     7
 10
1958.830777594047
 20
3961.7236643105798
 30
0.0
 11
1958.830777594047
 21
3975.7236643105812
 31
0.0
  0
LINE
  5
8235
  8
0
 62
     7
 10
1958.830777594047
 20
3961.7236643105798
 30
0.0
 11
2038.7307775940469
 21
3961.7236643105798
 31
0.0
  0
LINE
  5
8237
  8
0
 62
     7
 10
-195.30854943240999
 20
3952.9236643105828
 30
0.0
 11
-195.30854943240999
 21
4717.9236643105814
 31
0.0
  0
LINE
  5
823D
  8
0
 62
     7
 10
-195.30854943240999
 20
4717.9236643105814
 30
0.0
 11
-175.35854943240881
 21
4717.9236643105814
 31
0.0
  0
LINE
  5
824E
  8
0
 62
     7
 10
1840.480777594048
 20
1592.987097787561
 30
0.0
 11
1840.480777594048
 21
407.98709778756159
 31
0.0
  0
LINE
  5
824F
  8
0
 62
     7
 10
3847.4807775940449
 20
407.98709778756159
 30
0.0
 11
1840.480777594048
 21
407.98709778756159
 31
0.0
  0
LINE
  5
8250
  8
0
 62
     7
 10
3847.4807775940499
 20
1592.987097787561
 30
0.0
 11
3847.4807775940449
 21
407.98709778756159
 31
0.0
  0
LINE
  5
8255
  8
0
 62
     7
 10
1022.69145056759
 20
4695.7236643105798
 30
0.0
 11
-162.30854943240769
 21
4695.7236643105834
 31
0.0
  0
LINE
  5
8256
  8
0
 62
     7
 10
1022.69145056759
 20
3975.723664310583
 30
0.0
 11
-162.30854943240769
 21
3975.723664310583
 31
0.0
  0
LINE
  5
8257
  8
0
 62
     7
 10
-162.30854943240769
 20
4695.7236643105834
 30
0.0
 11
-162.30854943240769
 21
3975.723664310583
 31
0.0
  0
LINE
  5
8258
  8
0
 62
     7
 10
3847.4807775940449
 20
4695.7236643105807
 30
0.0
 11
3847.4807775940449
 21
3975.7236643105812
 31
0.0
  0
LINE
  5
8259
  8
0
 62
     7
 10
1840.4807775940469
 20
4695.7236643105807
 30
0.0
 11
1840.4807775940469
 21
3975.7236643105812
 31
0.0
  0
LINE
  5
825A
  8
0
 62
     7
 10
1840.4807775940469
 20
3975.7236643105812
 30
0.0
 11
3847.4807775940449
 21
3975.7236643105812
 31
0.0
  0
LINE
  5
825B
  8
0
 62
     7
 10
3847.4807775940449
 20
4695.7236643105807
 30
0.0
 11
1840.4807775940469
 21
4695.7236643105807
 31
0.0
  0
LINE
  5
825E
  8
0
 62
     7
 10
1840.480777594048
 20
1592.987097787561
 30
0.0
 11
3847.4807775940499
 21
1592.987097787561
 31
0.0
  0
LINE
  5
8267
  8
0
  6
PHANTOM2
 62
     7
 10
3847.4807775940449
 20
4705.7236643105844
 30
0.0
 11
3847.4807775940449
 21
5195.7236643105798
 31
0.0
  0
LINE
  5
8268
  8
0
  6
PHANTOM2
 62
     7
 10
1840.480777594048
 20
4705.7236643105844
 30
0.0
 11
1840.480777594048
 21
5195.7236643105798
 31
0.0
  0
LINE
  5
8269
  8
0
  6
PHANTOM2
 62
     7
 10
1840.480777594048
 20
5195.7236643105798
 30
0.0
 11
3847.4807775940449
 21
5195.7236643105798
 31
0.0
  0
LINE
  5
826D
  8
0
  6
PHANTOM2
 62
     7
 10
3997.4807775940449
 20
4695.7236643105807
 30
0.0
 11
3997.4807775940449
 21
3975.7236643105812
 31
0.0
  0
LINE
  5
826E
  8
0
  6
PHANTOM2
 62
     7
 10
3847.4807775940449
 20
3950.723664310583
 30
0.0
 11
1840.480777594048
 21
3950.723664310583
 31
0.0
  0
LINE
  5
826F
  8
0
  6
PHANTOM2
 62
     7
 10
1840.480777594048
 20
3965.723664310583
 30
0.0
 11
1840.480777594048
 21
3950.723664310583
 31
0.0
  0
LINE
  5
8270
  8
0
  6
PHANTOM2
 62
     7
 10
3847.4807775940449
 20
3965.723664310583
 30
0.0
 11
3847.4807775940449
 21
3950.723664310583
 31
0.0
  0
LINE
  5
8271
  8
0
  6
PHANTOM2
 62
     7
 10
3997.4807775940449
 20
3975.7236643105812
 30
0.0
 11
3857.4807775940449
 21
3975.7236643105812
 31
0.0
  0
LINE
  5
8272
  8
0
  6
PHANTOM2
 62
     7
 10
3857.4807775940449
 20
4695.7236643105789
 30
0.0
 11
3997.4807775940449
 21
4695.7236643105807
 31
0.0
  0
LINE
  5
8273
  8
0
  6
PHANTOM2
 62
     7
 10
1840.480777594046
 20
3695.9870977875598
 30
0.0
 11
3847.4807775940499
 21
3695.9870977875598
 31
0.0
  0
LINE
  5
8274
  8
0
  6
PHANTOM2
 62
     7
 10
1840.4807775940469
 20
1617.7465916724741
 30
0.0
 11
1840.480777594046
 21
3695.9870977875598
 31
0.0
  0
LINE
  5
8275
  8
0
  6
PHANTOM2
 62
     7
 10
3847.4807775940499
 20
1617.7465916724741
 30
0.0
 11
3847.4807775940499
 21
3695.9870977875598
 31
0.0
  0
TEXT
  5
8276
  8
0
 62
     7
 10
2494.7940475329201
 20
1104.5121604648471
 30
0.0
 40
56.25
  1
OSA405RKTV
  7
TITLE5
 72
     1
 11
2762.6511903900619
 21
1104.5121604648471
 31
0.0
  0
SOLID
  5
827E
  8
0
 62
     7
 10
3049.5654691322889
 20
1939.324909519001
 30
0.0
 11
3024.5654691322889
 21
2089.3249095189999
 31
0.0
 12
2999.5654691322889
 22
1939.324909519001
 32
0.0
 13
2999.5654691322889
 23
1939.324909519001
 33
0.0
1001
ACAD
1000
DSTYLE
1002
{
1070
    41
1040
60.0
1070
    42
1040
40.0
1070
    44
1040
40.0
1070
    73
1070
     0
1070
    74
1070
     0
1070
   140
1040
60.0
1070
   147
1040
40.0
1070
   176
1070
    52
1070
   177
1070
    52
1070
   178
1070
    50
1070
   179
1070
     2
1070
   271
1070
     2
1070
   272
1070
     2
1070
   279
1070
     2
1070
   340
1005
FC6
1002
}
  0
TEXT
  5
8285
  8
0
 62
     7
 10
2677.8593094364628
 20
5150.1758676202808
 30
0.0
 40
30.0
  1
500 min CLEARANCE
  7
TITLE3
  0
TEXT
  5
8286
  8
0
 62
     7
 10
3938.788061647992
 20
4212.145473679424
 30
0.0
 40
30.0
  1
CLEARANCE
 50
90.0
  7
TITLE3
  0
TEXT
  5
8287
  8
0
 62
     7
 10
75.097679294389138
 20
4199.8089515071042
 30
0.0
 40
56.25
  1
OSA405RKTV
  7
TITLE5
 72
     1
 11
342.95482215153203
 21
4199.8089515071042
 31
0.0
  0
TEXT
  5
8288
  8
0
 62
     7
 10
2765.984859500395
 20
4313.9227186238886
 30
0.0
 40
56.25
  1
OSA
  7
TITLE5
 72
     1
 11
2843.6634309289661
 21
4313.9227186238886
 31
0.0
  0
TEXT
  5
828A
  8
0
 62
     7
 10
3063.0739473592589
 20
3905.2934844817441
 30
0.0
 40
30.0
  1
25 min CLEARANCE
  7
TITLE3
  0
LINE
  5
828B
  8
0
  6
HIDDEN2
 62
     7
 10
3695.6359360057181
 20
4658.1590208249354
 30
0.0
 11
1978.8861606854159
 21
4658.1590208249354
 31
0.0
  0
LINE
  5
828C
  8
0
  6
HIDDEN2
 62
     7
 10
3695.6359360057181
 20
4603.1590208249381
 30
0.0
 11
1978.88616068541
 21
4603.1590208249381
 31
0.0
  0
LINE
  5
8294
  8
0
  6
HIDDEN2
 62
     7
 10
1978.8861606854121
 20
4658.1590208249354
 30
0.0
 11
1978.88616068541
 21
4603.1590208249381
 31
0.0
  0
TEXT
  5
8295
  8
0
 62
     7
 10
3990.216633076564
 20
4253.2192827030549
 30
0.0
 40
30.0
  1
150 min
 50
90.0
  7
TITLE3
  0
TEXT
  5
8430
  8
0
 62
     7
 10
-468.96200552363058
 20
350.99638005652997
 30
0.0
 40
62.5
  1
temperzone OSA 405RKTV
  7
TITLE5
 72
     1
 11
160.5022801906548
 21
350.99638005652997
 31
0.0
  0
TEXT
  5
8431
  8
0
 62
     7
 10
-314.49771980934611
 20
87.5
 30
0.0
 40
37.5
  1
OSA405RKTV
 41
1.0149999999999999
  7
TITLE3
 72
     5
 11
48.002280190654119
 21
87.5
 31
0.0
  0
TEXT
  5
8432
  8
0
 62
     7
 10
414.04427283822622
 20
137.5
 30
0.0
 40
37.5
  1
07-04-08
 41
0.6746987951807233
  7
TITLE3
 72
     5
 11
614.04427283822633
 21
137.5
 31
0.0
  0
TEXT
  5
8433
  8
0
 62
     7
 10
684.77533694374824
 20
138.53901732512611
 30
0.0
 40
30.0
  1
Date
  7
SIMPLEX
  0
TEXT
  5
8434
  8
0
 62
     7
 10
-478.82631231067671
 20
161.879127529264
 30
0.0
 40
30.0
  1
Revision
 41
0.7812095035934838
  7
SIMPLEX
 72
     5
 11
-347.13671027634661
 21
161.879127529264
 31
0.0
  0
LINE
  5
8435
  8
0
 62
     7
 10
-332.61190729704288
 20
26.053116060396409
 30
0.0
 11
-332.61190729704288
 21
210.3358196356829
 31
0.0
  0
LINE
  5
8436
  8
0
 62
     7
 10
811.31286836921925
 20
433.29949611692632
 30
0.0
 11
811.31286836921925
 21
26.053116060396409
 31
0.0
  0
LINE
  5
8437
  8
0
 62
     7
 10
64.360182674287444
 20
26.053116060396409
 30
0.0
 11
64.360182674287444
 21
210.3358196356829
 31
0.0
  0
LINE
  5
8438
  8
0
 62
     7
 10
64.360182674287444
 20
116.6407490868297
 30
0.0
 11
811.31286836921925
 21
116.6407490868297
 31
0.0
  0
LINE
  5
8439
  8
0
 62
     7
 10
-491.46705135664649
 20
210.3358196356829
 30
0.0
 11
811.31286836921925
 21
210.3358196356829
 31
0.0
  0
LINE
  5
843A
  8
0
 62
     7
 10
811.31286836921925
 20
26.053116060396409
 30
0.0
 11
-491.09516738370979
 21
26.053116060396409
 31
0.0
  0
LINE
  5
843B
  8
0
 62
     7
 10
-491.09516738370979
 20
26.053116060396409
 30
0.0
 11
-491.09516738370979
 21
433.29949611692632
 31
0.0
  0
LINE
  5
843C
  8
0
 62
     7
 10
-491.09516738370979
 20
433.29949611692632
 30
0.0
 11
811.31286836921925
 21
433.29949611692632
 31
0.0
  0
TEXT
  5
843D
  8
0
 62
     7
 10
654.29889995988685
 20
59.903110081697093
 30
0.0
 40
25.0
  1
Scale
 41
1.3701747965659541
  7
SIMPLEX
 72
     5
 11
779.89825631176609
 21
59.903110081697093
 31
0.0
  0
TEXT
  5
843E
  8
0
 62
     7
 10
-225.92876716748501
 20
161.1167893833869
 30
0.0
 40
25.0
  1
Drawing No.
  7
SIMPLEX
 72
     2
 11
-8.0716243103421448
 21
161.1167893833869
 31
0.0
  0
TEXT
  5
843F
  8
0
 62
     7
 10
487.11372852025221
 20
58.608558680249381
 30
0.0
 40
37.5
  1
1:10
  7
TITLE3
  0
LINE
  5
85ED
  8
0
 62
     7
 10
3024.5654691322889
 20
1938.541040242199
 30
0.0
 11
3024.5654691322889
 21
1817.0917459877519
 31
0.0
1001
ACAD
1000
DSTYLE
1002
{
1070
    41
1040
60.0
1070
    42
1040
40.0
1070
    44
1040
40.0
1070
    73
1070
     0
1070
    74
1070
     0
1070
   140
1040
60.0
1070
   147
1040
40.0
1070
   176
1070
    52
1070
   177
1070
    52
1070
   178
1070
    50
1070
   179
1070
     2
1070
   271
1070
     2
1070
   272
1070
     2
1070
   279
1070
     2
1070
   340
1005
FC6
1002
}
  0
TEXT
  5
85EF
  8
0
 62
     7
 10
2660.8021997773631
 20
1954.4181391949201
 30
0.0
 40
60.0
  1
AIR
  7
TITLE
  0
TEXT
  5
85F0
  8
0
 62
     7
 10
2611.6593426345062
 20
1854.418139194921
 30
0.0
 40
60.0
  1
FLOW
  7
TITLE
  0
LINE
  5
85F1
  8
0
 62
     7
 10
2842.6762370650399
 20
4943.2220656244781
 30
0.0
 11
2842.6762370650399
 21
5064.6713598789238
 31
0.0
1001
ACAD
1000
DSTYLE
1002
{
1070
    41
1040
60.0
1070
    42
1040
40.0
1070
    44
1040
40.0
1070
    73
1070
     0
1070
    74
1070
     0
1070
   140
1040
60.0
1070
   147
1040
40.0
1070
   176
1070
    52
1070
   177
1070
    52
1070
   178
1070
    50
1070
   179
1070
     2
1070
   271
1070
     2
1070
   272
1070
     2
1070
   279
1070
     2
1070
   340
1005
FC6
1002
}
  0
TEXT
  5
85F2
  8
0
 62
     7
 10
2591.512967710114
 20
4820.9684159696581
 30
0.0
 40
60.0
  1
AIR
  7
TITLE
  0
TEXT
  5
85F3
  8
0
 62
     7
 10
2542.3701105672571
 20
4920.9684159696544
 30
0.0
 40
60.0
  1
FLOW
  7
TITLE
  0
TEXT
  5
85F4
  8
0
 62
     7
 10
-422.47714794473552
 20
525.9479428556499
 30
0.0
 40
31.25
  1
available on request
  7
TITLE3
  0
TEXT
  5
85F5
  8
0
 62
     7
 10
-422.47714794473552
 20
579.51937142707845
 30
0.0
 40
31.25
  1
Certified dimensions
  7
TITLE3
  0
TEXT
  5
85F6
  8
0
 62
     7
 10
-422.47714794473552
 20
633.09079999850701
 30
0.0
 40
31.25
  1
without notice or obligation.
  7
TITLE3
  0
TEXT
  5
85F7
  8
0
 62
     7
 10
-422.47714794473552
 20
686.66222856993556
 30
0.0
 40
31.25
  1
specifications at any time
  7
TITLE3
  0
TEXT
  5
85F8
  8
0
 62
     7
 10
-422.47714794473552
 20
740.23365714136412
 30
0.0
 40
31.25
  1
the right to change 
  7
TITLE3
  0
TEXT
  5
85F9
  8
0
 62
     7
 10
-422.47714794473552
 20
847.37651428422043
 30
0.0
 40
31.25
  1
NOTE
  7
TITLE3
  0
TEXT
  5
85FA
  8
0
 62
     7
 10
-422.47714794473552
 20
793.80508571279233
 30
0.0
 40
31.25
  1
The manufacturer reserves
  7
TITLE3
  0
TEXT
  5
862B
  8
0
 62
     7
 10
2661.5205737861088
 20
4235.8380318494928
 30
0.0
 40
56.25
  1
405RKTV
  7
TITLE5
 72
     1
 11
2843.6634309289661
 21
4235.8380318494928
 31
0.0
  0
LINE
  5
8666
  8
0
 62
     7
 10
1956.780777594048
 20
374.98709778756159
 30
0.0
 11
1931.280777594048
 21
407.98709778756159
 31
0.0
  0
LINE
  5
8667
  8
0
 62
     7
 10
2040.7807775940471
 20
374.98709778756159
 30
0.0
 11
2066.2807775940478
 21
407.98709778756159
 31
0.0
  0
LINE
  5
866B
  8
0
 62
     7
 10
3724.7807775940478
 20
374.98709778748503
 30
0.0
 11
3640.7807775940478
 21
374.98709778748503
 31
0.0
  0
LINE
  5
866F
  8
0
 62
     7
 10
3724.7807775940478
 20
374.98709778748503
 30
0.0
 11
3750.2807775940478
 21
407.98709778748503
 31
0.0
  0
LINE
  5
8670
  8
0
 62
     7
 10
3640.7807775940478
 20
374.98709778748503
 30
0.0
 11
3615.2807775940478
 21
407.98709778748503
 31
0.0
  0
LINE
  5
86A1
  8
0
 62
     7
 10
2481.980777594048
 20
1695.9870977875639
 30
0.0
 11
1865.980777594048
 21
1695.987097787566
 31
0.0
  0
LINE
  5
86BB
  8
0
 62
     7
 10
1840.480777594048
 20
387.98709778756148
 30
0.0
 11
1840.480777594048
 21
90.372615008420581
 31
0.0
  0
LINE
  5
86BC
  8
0
 62
     7
 10
3847.4807775940449
 20
387.98709778756148
 30
0.0
 11
3847.4807775940449
 21
90.372615008420581
 31
0.0
  0
LINE
  5
86BD
  8
0
 62
     7
 10
1870.480777594048
 20
110.37261500842079
 30
0.0
 11
2791.8840106167891
 21
110.37261500842079
 31
0.0
  0
LINE
  5
86BE
  8
0
 62
     7
 10
3817.4807775940449
 20
110.37261500842079
 30
0.0
 11
3035.9442177107121
 21
110.37261500842079
 31
0.0
  0
SOLID
  5
86BF
  8
0
 62
     7
 10
1870.480777594048
 20
115.3726150084205
 30
0.0
 11
1870.480777594048
 21
105.37261500842069
 31
0.0
 12
1840.480777594048
 22
110.37261500842079
 32
0.0
 13
1840.480777594048
 23
110.37261500842079
 33
0.0
  0
SOLID
  5
86C0
  8
0
 62
     7
 10
3817.4807775940449
 20
115.3726150084205
 30
0.0
 11
3817.4807775940449
 21
105.37261500842069
 31
0.0
 12
3847.4807775940449
 22
110.37261500842079
 32
0.0
 13
3847.4807775940449
 23
110.37261500842079
 33
0.0
  0
LINE
  5
86C2
  8
0
 62
     7
 10
1998.7807775940471
 20
241.4483064950455
 30
0.0
 11
1998.7807775940471
 21
198.82130456600541
 31
0.0
  0
LINE
  5
86C3
  8
0
 62
     7
 10
3682.7807775940478
 20
241.4483064949689
 30
0.0
 11
3682.7807775940478
 21
198.82130456592881
 31
0.0
  0
LINE
  5
86C4
  8
0
 62
     7
 10
2030.980777594049
 20
218.82130456600549
 30
0.0
 11
2705.1719516443868
 21
218.82130456600549
 31
0.0
  0
LINE
  5
86C5
  8
0
 62
     7
 10
3655.9807775940449
 20
218.82130456600549
 30
0.0
 11
2970.1719516443859
 21
218.82130456600549
 31
0.0
  0
SOLID
  5
86C6
  8
0
 62
     7
 10
2028.780777594048
 20
223.82130456600541
 30
0.0
 11
2028.780777594048
 21
213.82130456600541
 31
0.0
 12
1998.7807775940471
 22
218.82130456600549
 32
0.0
 13
1998.7807775940471
 23
218.82130456600549
 33
0.0
  0
SOLID
  5
86C7
  8
0
 62
     7
 10
3652.7807775940478
 20
223.82130456592881
 30
0.0
 11
3652.7807775940478
 21
213.82130456592881
 31
0.0
 12
3682.7807775940478
 22
218.82130456592881
 32
0.0
 13
3682.7807775940478
 23
218.82130456592881
 33
0.0
  0
LINE
  5
86CA
  8
0
 62
     7
 10
1936.980777594049
 20
374.98709778756159
 30
0.0
 11
1698.08849011597
 21
374.98709778756171
 31
0.0
  0
LINE
  5
86CB
  8
0
 62
     7
 10
1718.088490115972
 20
1665.987097787561
 30
0.0
 11
1718.08849011597
 21
1159.0394727357721
 31
0.0
  0
LINE
  5
86CC
  8
0
 62
     7
 10
1718.08849011597
 20
404.98709778756171
 30
0.0
 11
1718.08849011597
 21
861.01270876561432
 31
0.0
  0
SOLID
  5
86CD
  8
0
 62
     7
 10
1713.088490115972
 20
1665.987097787561
 30
0.0
 11
1723.088490115972
 21
1665.987097787561
 31
0.0
 12
1718.088490115972
 22
1695.987097787561
 32
0.0
 13
1718.088490115972
 23
1695.987097787561
 33
0.0
  0
SOLID
  5
86CE
  8
0
 62
     7
 10
1713.0884901159709
 20
404.98709778756171
 30
0.0
 11
1723.0884901159691
 21
404.98709778756171
 31
0.0
 12
1718.08849011597
 22
374.98709778756171
 32
0.0
 13
1718.08849011597
 23
374.98709778756171
 33
0.0
  0
LINE
  5
8722
  8
0
 62
     7
 10
-182.30854943240769
 20
4667.9236643105814
 30
0.0
 11
-349.57808690581311
 21
4667.9236643105814
 31
0.0
  0
LINE
  5
8723
  8
0
 62
     7
 10
-215.30854943240999
 20
4002.923664310581
 30
0.0
 11
-349.57808690581311
 21
4002.923664310581
 31
0.0
  0
LINE
  5
8724
  8
0
 62
     7
 10
-329.578086905813
 20
4637.9236643105787
 30
0.0
 11
-329.578086905813
 21
4384.313228758605
 31
0.0
  0
LINE
  5
8725
  8
0
 62
     7
 10
-329.578086905813
 20
4002.9236643105792
 30
0.0
 11
-329.578086905813
 21
4277.3574494398708
 31
0.0
  0
SOLID
  5
8726
  8
0
 62
     7
 10
-334.57808690581311
 20
4637.9236643105787
 30
0.0
 11
-324.57808690581311
 21
4637.9236643105787
 31
0.0
 12
-329.578086905813
 22
4667.9236643105814
 32
0.0
 13
-329.578086905813
 23
4667.9236643105814
 33
0.0
  0
SOLID
  5
8727
  8
0
 62
     7
 10
-334.57808690581311
 20
4032.9236643105842
 30
0.0
 11
-324.57808690581311
 21
4032.9236643105842
 31
0.0
 12
-329.578086905813
 22
4002.923664310581
 32
0.0
 13
-329.578086905813
 23
4002.923664310581
 33
0.0
  0
LINE
  5
8754
  8
0
 62
     7
 10
-205.30854943240999
 20
4002.9236643105851
 30
0.0
 11
-185.30854943240999
 21
4002.9236643105851
 31
0.0
  0
LINE
  5
875F
  8
0
 62
     7
 10
1998.7807775940471
 20
364.98709778756171
 30
0.0
 11
1998.7807775940471
 21
384.98709778756171
 31
0.0
  0
LINE
  5
8762
  8
0
 62
     7
 10
3682.7807775940478
 20
364.98709778748508
 30
0.0
 11
3682.7807775940478
 21
384.98709778748508
 31
0.0
  0
LINE
  5
8793
  8
0
 62
     7
 10
-182.30854943240769
 20
4667.9236643105814
 30
0.0
 11
-272.72249630869783
 21
4667.9236643105814
 31
0.0
  0
LINE
  5
8799
  8
0
 62
     7
 10
1998.7807775940471
 20
241.4483064950455
 30
0.0
 11
1998.7807775940471
 21
198.88737468623029
 31
0.0
  0
LINE
  5
879A
  8
0
 62
     7
 10
1840.480777594048
 20
387.98709778756148
 30
0.0
 11
1840.480777594048
 21
152.4261659787465
 31
0.0
  0
LINE
  5
879B
  8
0
 62
     7
 10
1970.980777594048
 20
218.8873746862304
 30
0.0
 11
1870.480777594048
 21
218.8873746862304
 31
0.0
  0
LINE
  5
879C
  8
0
 62
     7
 10
1840.480777594048
 20
218.8873746862304
 30
0.0
 11
1810.480777594048
 21
218.8873746862304
 31
0.0
  0
SOLID
  5
879D
  8
0
 62
     7
 10
1968.7807775940471
 20
223.8873746862304
 30
0.0
 11
1968.7807775940471
 21
213.88737468623029
 31
0.0
 12
1998.7807775940471
 22
218.8873746862304
 32
0.0
 13
1998.7807775940471
 23
218.8873746862304
 33
0.0
  0
SOLID
  5
879E
  8
0
 62
     7
 10
1870.480777594048
 20
223.8873746862304
 30
0.0
 11
1870.480777594048
 21
213.88737468623029
 31
0.0
 12
1840.480777594048
 22
218.8873746862304
 32
0.0
 13
1840.480777594048
 23
218.8873746862304
 33
0.0
  0
LINE
  5
8942
  8
0
 10
4058.0
 20
5336.8530609502404
 30
0.0
 11
-537.2907304541053
 21
5336.8530609502404
 31
0.0
  0
TEXT
  5
8947
  8
0
 62
     7
 10
-314.5780869058139
 20
4297.3574494398717
 30
0.0
 40
30.0
  1
665
 50
90.0
  0
TEXT
  5
8949
  8
0
 62
     7
 10
1730.480777594048
 20
203.8873746862304
 30
0.0
 40
30.0
  1
158
  0
TEXT
  5
894A
  8
0
 62
     7
 10
1733.08849011597
 20
881.01270876561455
 30
0.0
 40
30.0
  1
1321 O/A
 50
90.0
  0
TEXT
  5
894B
  8
0
 62
     7
 10
2712.6729403792142
 20
203.82130456600541
 30
0.0
 40
30.0
  1
1685 CTRS
  0
TEXT
  5
894C
  8
0
 62
     7
 10
2799.384999351616
 20
95.372615008420581
 30
0.0
 40
30.0
  1
2007 O/A
  0
LINE
  5
8AE3
  8
0
 10
3695.6359360057181
 20
4658.1590208249354
 30
0.0
 11
3695.6359360057181
 21
4603.1590208249381
 31
0.0
  0
TEXT
  5
8BB3
  8
0
 62
     7
 10
1546.572340400335
 20
4214.7498283800487
 30
0.0
 40
30.0
  1
CLEARANCE
 50
90.0
  7
TITLE3
  0
TEXT
  5
8BB4
  8
0
 62
     7
 10
1598.000911828907
 20
4250.1093516893907
 30
0.0
 40
30.0
  1
500 min
 50
90.0
  7
TITLE3
  0
LINE
  5
8BB5
  8
0
  6
PHANTOM2
 62
     7
 10
1625.69145056759
 20
4695.7236643105834
 30
0.0
 11
1052.422134749944
 21
4695.7236643105807
 31
0.0
  0
LINE
  5
8BB7
  8
0
  6
PHANTOM2
 62
     7
 10
1625.69145056759
 20
3975.723664310583
 30
0.0
 11
1052.422134749944
 21
3975.723664310583
 31
0.0
  0
LINE
  5
8BB8
  8
0
  6
PHANTOM2
 62
     7
 10
1625.69145056759
 20
4695.7236643105807
 30
0.0
 11
1625.69145056759
 21
3975.723664310583
 31
0.0
  0
LINE
  5
8BCA
  8
0
 10
-175.35854943240881
 20
4717.9236643105814
 30
0.0
 11
-162.30854943240769
 21
4690.9722683090968
 31
0.0
  0
LINE
  5
8BCC
  8
0
 62
     7
 10
-195.30854943240999
 20
3952.9236643105828
 30
0.0
 11
-175.35854943240881
 21
3952.9236643105828
 31
0.0
  0
LINE
  5
8BCD
  8
0
 10
-175.35854943240881
 20
3952.9236643105828
 30
0.0
 11
-162.30854943240769
 21
3979.8750603120679
 31
0.0
  0
LINE
  5
8BCF
  8
0
 62
     7
 10
-195.30854943240999
 20
4667.9236643105787
 30
0.0
 11
-175.35854943240881
 21
4667.9236643105787
 31
0.0
  0
LINE
  5
8BD7
  8
0
 62
     7
 10
-215.30854943240999
 20
3952.9236643105828
 30
0.0
 11
-450.09618438629008
 21
3952.9236643105828
 31
0.0
  0
LINE
  5
8BD8
  8
0
 62
     7
 10
-215.30854943240999
 20
4717.9236643105814
 30
0.0
 11
-450.09618438629008
 21
4717.9236643105814
 31
0.0
  0
LINE
  5
8BD9
  8
0
 62
     7
 10
-430.09618438629008
 20
3982.9236643105819
 30
0.0
 11
-430.09618438629008
 21
4278.8273289907784
 31
0.0
  0
LINE
  5
8BDA
  8
0
 62
     7
 10
-430.09618438629008
 20
4687.9236643105796
 30
0.0
 11
-430.09618438629008
 21
4400.9228542871488
 31
0.0
  0
SOLID
  5
8BDB
  8
0
 62
     7
 10
-435.09618438629008
 20
3982.9236643105819
 30
0.0
 11
-425.09618438629008
 21
3982.9236643105819
 31
0.0
 12
-430.09618438629008
 22
3952.9236643105828
 32
0.0
 13
-430.09618438629008
 23
3952.9236643105828
 33
0.0
  0
SOLID
  5
8BDC
  8
0
 62
     7
 10
-435.09618438629008
 20
4687.9236643105796
 30
0.0
 11
-425.09618438629008
 21
4687.9236643105796
 31
0.0
 12
-430.09618438629008
 22
4717.9236643105814
 32
0.0
 13
-430.09618438629008
 23
4717.9236643105814
 33
0.0
  0
LINE
  5
8D86
  8
0
 62
     7
 10
2798.7807775940478
 20
374.98709778752328
 30
0.0
 11
2882.7807775940469
 21
374.98709778752328
 31
0.0
  0
LINE
  5
8D87
  8
0
 62
     7
 10
2798.7807775940478
 20
374.98709778752328
 30
0.0
 11
2773.2807775940478
 21
407.98709778752328
 31
0.0
  0
LINE
  5
8D88
  8
0
 62
     7
 10
2882.7807775940469
 20
374.98709778752328
 30
0.0
 11
2908.2807775940478
 21
407.98709778752328
 31
0.0
  0
LINE
  5
8D8A
  8
0
 62
     7
 10
1998.7807775940471
 20
354.98709778756171
 30
0.0
 11
1998.7807775940471
 21
285.56696219673228
 31
0.0
  0
LINE
  5
8D8B
  8
0
 62
     7
 10
2840.7807775940469
 20
354.9870977875234
 30
0.0
 11
2840.7807775940469
 21
285.56696219669391
 31
0.0
  0
LINE
  5
8D8C
  8
0
 62
     7
 10
2030.980777594049
 20
305.56696219673228
 30
0.0
 11
2370.9463071053842
 21
305.56696219673228
 31
0.0
  0
LINE
  5
8D8D
  8
0
 62
     7
 10
2840.7807775940469
 20
305.56696219673228
 30
0.0
 11
2465.9463071053842
 21
305.56696219673228
 31
0.0
  0
SOLID
  5
8D8E
  8
0
 62
     7
 10
2028.780777594048
 20
310.56696219673228
 30
0.0
 11
2028.780777594048
 21
300.56696219673228
 31
0.0
 12
1998.7807775940471
 22
305.56696219673228
 32
0.0
 13
1998.7807775940471
 23
305.56696219673228
 33
0.0
  0
SOLID
  5
8D8F
  8
0
 62
     7
 10
2810.7807775940478
 20
310.56696219669391
 30
0.0
 11
2810.7807775940478
 21
300.56696219669402
 31
0.0
 12
2840.7807775940469
 22
305.56696219669402
 32
0.0
 13
2840.7807775940469
 23
305.56696219669402
 33
0.0
  0
LINE
  5
8D91
  8
0
 62
     7
 10
2840.7807775940469
 20
354.9870977875234
 30
0.0
 11
2840.7807775940469
 21
285.56696219669391
 31
0.0
  0
LINE
  5
8D92
  8
0
 62
     7
 10
3682.7807775940478
 20
354.98709778748508
 30
0.0
 11
3682.7807775940478
 21
285.56696219665571
 31
0.0
  0
LINE
  5
8D98
  8
0
 62
     7
 10
1820.4807775940469
 20
3975.7236643105812
 30
0.0
 11
1732.0129593400659
 21
3975.7236643105812
 31
0.0
  0
LINE
  5
8D99
  8
0
 62
     7
 10
1820.4807775940469
 20
4695.7236643105807
 30
0.0
 11
1732.0129593400679
 21
4695.7236643105807
 31
0.0
  0
LINE
  5
8D9A
  8
0
 62
     7
 10
1752.012959340067
 20
4005.7236643105789
 30
0.0
 11
1752.012959340067
 21
4193.2236643105807
 31
0.0
  0
LINE
  5
8D9B
  8
0
 62
     7
 10
1752.0129593400679
 20
4665.7236643105834
 30
0.0
 11
1752.012959340067
 21
4418.2236643105807
 31
0.0
  0
SOLID
  5
8D9C
  8
0
 62
     7
 10
1747.0129593400659
 20
4005.7236643105789
 30
0.0
 11
1757.0129593400679
 21
4005.7236643105789
 31
0.0
 12
1752.012959340067
 22
3975.7236643105812
 32
0.0
 13
1752.012959340067
 23
3975.7236643105812
 33
0.0
  0
SOLID
  5
8D9D
  8
0
 62
     7
 10
1747.0129593400679
 20
4665.7236643105834
 30
0.0
 11
1757.0129593400679
 21
4665.7236643105834
 31
0.0
 12
1752.0129593400679
 22
4695.7236643105807
 32
0.0
 13
1752.0129593400679
 23
4695.7236643105807
 33
0.0
  0
INSERT
  5
8D9E
  8
0
  2
*U7
 10
-184.99999999999881
 20
51.881976854731882
 30
0.0
  0
TEXT
  5
8DD0
  8
0
 62
     7
 10
-413.78115169898911
 20
4297.3574494398717
 30
0.0
 40
30.0
  1
765
 50
90.0
  0
LINE
  5
8DD6
  8
0
 62
     7
 10
2038.7307775940469
 20
4709.7236643105807
 30
0.0
 11
2038.7307775940469
 21
4695.7236643105789
 31
0.0
  0
LINE
  5
8DD7
  8
0
 62
     7
 10
1958.830777594047
 20
4709.7236643105807
 30
0.0
 11
1958.830777594047
 21
4695.7236643105807
 31
0.0
  0
LINE
  5
8DD8
  8
0
 62
     7
 10
1958.830777594047
 20
4709.7236643105807
 30
0.0
 11
2038.7307775940469
 21
4709.7236643105807
 31
0.0
  0
LINE
  5
90AB
  8
0
 62
     7
 10
3151.980777594048
 20
1695.9870977875639
 30
0.0
 11
2535.980777594049
 21
1695.987097787566
 31
0.0
  0
LINE
  5
90AE
  8
0
 62
     7
 10
3205.980777594048
 20
1695.9870977875639
 30
0.0
 11
3821.980777594048
 21
1695.987097787566
 31
0.0
  0
LINE
  5
9211
  8
0
 62
     7
 10
2840.7807775940469
 20
364.9870977875234
 30
0.0
 11
2840.7807775940478
 21
384.9870977875234
 31
0.0
  0
TEXT
  5
9213
  8
0
 62
     7
 10
2378.4472958402098
 20
290.56696219673228
 30
0.0
 40
30.0
  1
842
  0
LINE
  5
9218
  8
0
 62
     7
 10
3682.7807775940478
 20
354.98709778748508
 30
0.0
 11
3682.7807775940478
 21
285.56696219665571
 31
0.0
  0
LINE
  5
9219
  8
0
 62
     7
 10
2872.9807775940499
 20
305.56696219669402
 30
0.0
 11
3212.9463071053851
 21
305.56696219669402
 31
0.0
  0
LINE
  5
921A
  8
0
 62
     7
 10
3682.7807775940478
 20
305.56696219669402
 30
0.0
 11
3307.9463071053842
 21
305.56696219669402
 31
0.0
  0
SOLID
  5
921B
  8
0
 62
     7
 10
2870.7807775940491
 20
310.56696219669391
 30
0.0
 11
2870.7807775940491
 21
300.56696219669402
 31
0.0
 12
2840.7807775940478
 22
305.56696219669402
 32
0.0
 13
2840.7807775940478
 23
305.56696219669402
 33
0.0
  0
SOLID
  5
921C
  8
0
 62
     7
 10
3652.7807775940491
 20
310.56696219665571
 30
0.0
 11
3652.7807775940491
 21
300.56696219665571
 31
0.0
 12
3682.7807775940478
 22
305.5669621966556
 32
0.0
 13
3682.7807775940478
 23
305.5669621966556
 33
0.0
  0
TEXT
  5
921D
  8
0
 62
     7
 10
3220.4472958402112
 20
290.56696219669402
 30
0.0
 40
30.0
  1
842
  0
LINE
  5
923D
  8
0
 62
     7
 10
1865.980777594048
 20
1695.987097787566
 30
0.0
 11
1865.980777594048
 21
1592.987097787561
 31
0.0
  0
LINE
  5
923E
  8
0
 62
     7
 10
2481.980777594048
 20
1695.9870977875639
 30
0.0
 11
2481.980777594049
 21
1592.987097787561
 31
0.0
  0
LINE
  5
9240
  8
0
 62
     7
 10
2535.980777594049
 20
1695.987097787566
 30
0.0
 11
2535.980777594049
 21
1592.987097787561
 31
0.0
  0
LINE
  5
9241
  8
0
 62
     7
 10
3151.980777594048
 20
1695.9870977875639
 30
0.0
 11
3151.980777594049
 21
1592.987097787561
 31
0.0
  0
LINE
  5
9242
  8
0
 62
     7
 10
3205.980777594048
 20
1695.9870977875639
 30
0.0
 11
3205.980777594049
 21
1592.987097787561
 31
0.0
  0
LINE
  5
9243
  8
0
 62
     7
 10
3821.980777594048
 20
1695.987097787566
 30
0.0
 11
3821.980777594048
 21
1592.987097787561
 31
0.0
  0
LINE
  5
9247
  8
0
 62
     7
 10
1818.084815944017
 20
1695.987097787561
 30
0.0
 11
1698.088490115972
 21
1695.987097787561
 31
0.0
  0
CIRCLE
  5
9262
  8
0
 10
2173.980777594048
 20
4300.7236643105798
 30
0.0
 40
308.0
  0
CIRCLE
  5
9263
  8
0
 10
2843.980777594048
 20
4300.7236643105798
 30
0.0
 40
308.0
  0
CIRCLE
  5
9264
  8
0
 10
3513.980777594048
 20
4300.7236643105834
 30
0.0
 40
308.0
  0
LINE
  5
9266
  8
0
 62
     7
 10
2880.7307775940458
 20
3961.7236643105421
 30
0.0
 11
2880.7307775940458
 21
3975.7236643105448
 31
0.0
  0
LINE
  5
9267
  8
0
 62
     7
 10
2800.830777594047
 20
3961.7236643105421
 30
0.0
 11
2800.830777594047
 21
3975.723664310543
 31
0.0
  0
LINE
  5
9268
  8
0
 62
     7
 10
2800.830777594047
 20
3961.7236643105421
 30
0.0
 11
2880.7307775940458
 21
3961.7236643105421
 31
0.0
  0
LINE
  5
9269
  8
0
 62
     7
 10
2880.7307775940458
 20
4709.7236643105416
 30
0.0
 11
2880.7307775940458
 21
4695.7236643105407
 31
0.0
  0
LINE
  5
926A
  8
0
 62
     7
 10
2800.830777594047
 20
4709.7236643105416
 30
0.0
 11
2800.830777594047
 21
4695.7236643105434
 31
0.0
  0
LINE
  5
926B
  8
0
 62
     7
 10
2800.830777594047
 20
4709.7236643105416
 30
0.0
 11
2880.7307775940458
 21
4709.7236643105416
 31
0.0
  0
LINE
  5
926C
  8
0
 62
     7
 10
3722.7307775940458
 20
3961.7236643105039
 30
0.0
 11
3722.7307775940458
 21
3975.7236643105061
 31
0.0
  0
LINE
  5
926D
  8
0
 62
     7
 10
3642.830777594048
 20
3961.7236643105039
 30
0.0
 11
3642.830777594048
 21
3975.7236643105048
 31
0.0
  0
LINE
  5
926E
  8
0
 62
     7
 10
3642.830777594048
 20
3961.7236643105039
 30
0.0
 11
3722.7307775940458
 21
3961.7236643105039
 31
0.0
  0
LINE
  5
926F
  8
0
 62
     7
 10
3722.7307775940458
 20
4709.7236643105043
 30
0.0
 11
3722.7307775940458
 21
4695.7236643105034
 31
0.0
  0
LINE
  5
9270
  8
0
 62
     7
 10
3642.830777594048
 20
4709.7236643105043
 30
0.0
 11
3642.830777594048
 21
4695.7236643105052
 31
0.0
  0
LINE
  5
9271
  8
0
 62
     7
 10
3642.830777594048
 20
4709.7236643105043
 30
0.0
 11
3722.7307775940458
 21
4709.7236643105043
 31
0.0
  0
LINE
  5
9293
  8
0
 62
     7
 10
1022.69145056759
 20
3975.723664310583
 30
0.0
 11
1022.69145056759
 21
4695.7236643105798
 31
0.0
  0
LINE
  5
9294
  8
0
 62
     7
 10
1125.69145056759
 20
3992.7236643105812
 30
0.0
 11
1125.69145056759
 21
4608.7236643105807
 31
0.0
  0
LINE
  5
9295
  8
0
 10
1125.69145056759
 20
3992.7236643105812
 30
0.0
 11
1022.69145056759
 21
3992.7236643105798
 31
0.0
  0
LINE
  5
9296
  8
0
 10
1125.69145056759
 20
4608.7236643105807
 30
0.0
 11
1022.69145056759
 21
4608.7236643105807
 31
0.0
  0
ENDSEC
  0
EOF
