  0
SECTION
  2
HEADER
  9
$ACADVER
  1
AC1009
  9
$INSBASE
 10
0.0
 20
0.0
 30
0.0
  9
$EXTMIN
 10
573.44366753791189
 20
257.78296107609549
 30
0.0
  9
$EXTMAX
 10
3653.8355899580938
 20
2601.4883006412861
 30
0.0
  9
$LIMMIN
 10
0.0
 20
0.0
  9
$LIMMAX
 10
3890.0
 20
2660.0
  9
$ORTHOMODE
 70
     1
  9
$REGENMODE
 70
     1
  9
$FILLMODE
 70
     1
  9
$QTEXTMODE
 70
     0
  9
$MIRRTEXT
 70
     0
  9
$DRAGMODE
 70
     2
  9
$LTSCALE
 40
60.0
  9
$OSMODE
 70
     0
  9
$ATTMODE
 70
     1
  9
$TEXTSIZE
 40
30.0
  9
$TRACEWID
 40
0.05
  9
$TEXTSTYLE
  7
TITLE3
  9
$CLAYER
  8
DIM
  9
$CELTYPE
  6
CONTINUOUS
  9
$CECOLOR
 62
   256
  9
$DIMSCALE
 40
1.0
  9
$DIMASZ
 40
30.0
  9
$DIMEXO
 40
10.0
  9
$DIMDLI
 40
0.38
  9
$DIMRND
 40
0.0
  9
$DIMDLE
 40
0.0
  9
$DIMEXE
 40
0.18
  9
$DIMTP
 40
0.0
  9
$DIMTM
 40
0.0
  9
$DIMTXT
 40
30.0
  9
$DIMCEN
 40
0.09
  9
$DIMTSZ
 40
0.0
  9
$DIMTOL
 70
     0
  9
$DIMLIM
 70
     0
  9
$DIMTIH
 70
     0
  9
$DIMTOH
 70
     0
  9
$DIMSE1
 70
     0
  9
$DIMSE2
 70
     0
  9
$DIMTAD
 70
     0
  9
$DIMZIN
 70
     0
  9
$DIMBLK
  1

  9
$DIMASO
 70
     0
  9
$DIMSHO
 70
     0
  9
$DIMPOST
  1

  9
$DIMAPOST
  1

  9
$DIMALT
 70
     0
  9
$DIMALTD
 70
     2
  9
$DIMALTF
 40
25.399999999999999
  9
$DIMLFAC
 40
1.0
  9
$DIMTOFL
 70
     0
  9
$DIMTVP
 40
0.0
  9
$DIMTIX
 70
     0
  9
$DIMSOXD
 70
     0
  9
$DIMSAH
 70
     0
  9
$DIMBLK1
  1

  9
$DIMBLK2
  1

  9
$DIMSTYLE
  2
COPY_OF_STANDARD
  9
$DIMCLRD
 70
     0
  9
$DIMCLRE
 70
     0
  9
$DIMCLRT
 70
     0
  9
$DIMTFAC
 40
1.0
  9
$DIMGAP
 40
5.0
  9
$LUNITS
 70
     2
  9
$LUPREC
 70
     2
  9
$SKETCHINC
 40
0.1
  9
$FILLETRAD
 40
0.0
  9
$AUNITS
 70
     0
  9
$AUPREC
 70
     2
  9
$MENU
  1
CNC
  9
$ELEVATION
 40
0.0
  9
$PELEVATION
 40
0.0
  9
$THICKNESS
 40
0.0
  9
$LIMCHECK
 70
     0
  9
$BLIPMODE
 70
     0
  9
$CHAMFERA
 40
0.0
  9
$CHAMFERB
 40
0.0
  9
$SKPOLY
 70
     0
  9
$TDCREATE
 40
2450694.550174769
  9
$TDUPDATE
 40
2454596.5684999311
  9
$TDINDWG
 40
2.3523322221999998
  9
$TDUSRTIMER
 40
2.3523305787000002
  9
$USRTIMER
 70
     1
  9
$ANGBASE
 50
0.0
  9
$ANGDIR
 70
     0
  9
$PDMODE
 70
     2
  9
$PDSIZE
 40
10.0
  9
$PLINEWID
 40
0.0
  9
$COORDS
 70
     1
  9
$SPLFRAME
 70
     0
  9
$SPLINETYPE
 70
     6
  9
$SPLINESEGS
 70
     8
  9
$ATTDIA
 70
     0
  9
$ATTREQ
 70
     1
  9
$HANDLING
 70
     1
  9
$HANDSEED
  5
8A4F
  9
$SURFTAB1
 70
     6
  9
$SURFTAB2
 70
     6
  9
$SURFTYPE
 70
     6
  9
$SURFU
 70
     6
  9
$SURFV
 70
     6
  9
$UCSNAME
  2

  9
$UCSORG
 10
0.0
 20
0.0
 30
0.0
  9
$UCSXDIR
 10
1.0
 20
0.0
 30
0.0
  9
$UCSYDIR
 10
0.0
 20
1.0
 30
0.0
  9
$PUCSNAME
  2

  9
$PUCSORG
 10
0.0
 20
0.0
 30
0.0
  9
$PUCSXDIR
 10
1.0
 20
0.0
 30
0.0
  9
$PUCSYDIR
 10
0.0
 20
1.0
 30
0.0
  9
$USERI1
 70
     0
  9
$USERI2
 70
     0
  9
$USERI3
 70
     0
  9
$USERI4
 70
     0
  9
$USERI5
 70
     0
  9
$USERR1
 40
0.0
  9
$USERR2
 40
0.0
  9
$USERR3
 40
0.0
  9
$USERR4
 40
0.0
  9
$USERR5
 40
0.0
  9
$WORLDVIEW
 70
     1
  9
$SHADEDGE
 70
     3
  9
$SHADEDIF
 70
    70
  9
$TILEMODE
 70
     1
  9
$MAXACTVP
 70
    16
  9
$PLIMCHECK
 70
     0
  9
$PEXTMIN
 10
1.0000000000000000E+020
 20
1.0000000000000000E+020
 30
1.0000000000000000E+020
  9
$PEXTMAX
 10
-1.0000000000000000E+020
 20
-1.0000000000000000E+020
 30
-1.0000000000000000E+020
  9
$PLIMMIN
 10
0.0
 20
0.0
  9
$PLIMMAX
 10
12.0
 20
9.0
  9
$UNITMODE
 70
     0
  9
$VISRETAIN
 70
     0
  9
$PLINEGEN
 70
     0
  9
$PSLTSCALE
 70
     0
  0
ENDSEC
  0
SECTION
  2
TABLES
  0
TABLE
  2
VPORT
 70
     1
  0
VPORT
  2
*ACTIVE
 70
     0
 10
0.0
 20
0.0
 11
1.0
 21
1.0
 12
2113.5730073002328
 22
1429.6444765241399
 13
0.0
 23
0.0
 14
25.0
 24
25.0
 15
100.0
 25
100.0
 16
0.0
 26
0.0
 36
1.0
 17
0.0
 27
0.0
 37
0.0
 40
2365.2555430244829
 41
1.6348484848484841
 42
50.0
 43
0.0
 44
0.0
 50
0.0
 51
0.0
 71
     0
 72
   100
 73
     1
 74
     0
 75
     0
 76
     0
 77
     0
 78
     0
  0
ENDTAB
  0
TABLE
  2
LTYPE
 70
     3
  0
LTYPE
  2
CONTINUOUS
 70
     0
  3
Solid line
 72
    65
 73
     0
 40
0.0
  0
LTYPE
  2
HIDDEN
 70
     0
  3
__ __ __ __ __ __ __ __ __ __ __ __ __ __ __ __
 72
    65
 73
     2
 40
0.375
 49
0.25
 49
-0.125
  0
ENDTAB
  0
TABLE
  2
LAYER
 70
     9
  0
LAYER
  2
0
 70
     0
 62
     7
  6
CONTINUOUS
  0
LAYER
  2
DIM
 70
     0
 62
     2
  6
CONTINUOUS
  0
LAYER
  2
OUTLINE
 70
     0
 62
     7
  6
CONTINUOUS
  0
LAYER
  2
OVERLAY-A3
 70
     0
 62
     7
  6
CONTINUOUS
  0
LAYER
  2
TEXT
 70
     0
 62
     3
  6
CONTINUOUS
  0
LAYER
  2
SPRING
 70
     0
 62
     7
  6
HIDDEN
  0
ENDTAB
  0
TABLE
  2
STYLE
 70
     5
  0
STYLE
  2
STANDARD
 70
     0
 40
0.0
 41
1.0
 50
0.0
 71
     0
 42
0.2
  3
txt
  4

  0
STYLE
  2
TITLE3
 70
     0
 40
30.0
 41
1.0
 50
0.0
 71
     0
 42
30.0
  3
SIMPLEX
  4

  0
STYLE
  2
SIMPLEX
 70
     0
 40
40.0
 41
1.0
 50
0.0
 71
     0
 42
25.0
  3
SIMPLEX
  4

  0
STYLE
  2
TITLE5
 70
     0
 40
50.0
 41
1.0
 50
0.0
 71
     0
 42
50.0
  3
SIMPLEX.shx
  4

  0
ENDTAB
  0
TABLE
  2
VIEW
 70
     0
  0
ENDTAB
  0
TABLE
  2
UCS
 70
     0
  0
ENDTAB
  0
TABLE
  2
APPID
 70
    19
  0
APPID
  2
ACAD
 70
     0
  0
APPID
  2
ACADANNOTATIVE
 70
     0
  0
APPID
  2
ACAD_MLEADERVER
 70
     0
  0
APPID
  2
ACAD_PSEXT
 70
     0
  0
APPID
  2
ACAD_DSTYLE_DIMJAG
 70
     0
  0
APPID
  2
ACAD_DSTYLE_DIMBREAK
 70
     0
  0
APPID
  2
ACAD_DSTYLE_DIMTALN
 70
     0
  0
APPID
  2
ACADANNOPO
 70
     0
  0
APPID
  2
ACAD_EXEMPT_FROM_CAD_STANDARDS
 70
     0
  0
APPID
  2
ACAD_DSTYLE_DIMRADIAL_EXTENSION
 70
     0
  0
APPID
  2
ACAECLAYERSTANDARD
 70
     0
  0
APPID
  2
MCAD_NO_VIS
 70
     0
  0
APPID
  2
ACAD_TEMP_GRAPHIC
 70
     0
  0
APPID
  2
AD_DRAW
 70
     0
  0
APPID
  2
ACATTRIBSERVICES
 70
     0
  0
APPID
  2
DESIGNERASSEMBLIES
 70
     0
  0
APPID
  2
ACADM_DIM_EDIT
 70
     0
  0
APPID
  2
AMDT_DM_ADJ
 70
     0
  0
APPID
  2
CONTENTBLOCKICON
 70
     0
  0
ENDTAB
  0
TABLE
  2
DIMSTYLE
 70
     3
  0
DIMSTYLE
  2
STANDARD
 70
     0
  3

  4

  5

  6

  7

 40
1.0
 41
30.0
 42
10.0
 43
0.38
 44
0.18
 45
0.0
 46
0.0
 47
0.0
 48
0.0
140
30.0
141
0.09
142
0.0
143
25.399999999999999
144
1.0
145
0.0
146
1.0
147
5.0
 71
     0
 72
     0
 73
     0
 74
     0
 75
     0
 76
     0
 77
     0
 78
     0
170
     0
171
     2
172
     0
173
     0
174
     0
175
     0
176
     0
177
     0
178
     0
  0
DIMSTYLE
  2
COPY_OF_STANDARD
 70
     0
  3

  4

  5

  6

  7

 40
1.0
 41
30.0
 42
10.0
 43
0.38
 44
0.18
 45
0.0
 46
0.0
 47
0.0
 48
0.0
140
30.0
141
0.09
142
0.0
143
25.399999999999999
144
1.0
145
0.0
146
1.0
147
5.0
 71
     0
 72
     0
 73
     0
 74
     0
 75
     0
 76
     0
 77
     0
 78
     0
170
     0
171
     2
172
     0
173
     0
174
     0
175
     0
176
     0
177
     0
178
     0
  0
ENDTAB
  0
ENDSEC
  0
SECTION
  2
BLOCKS
  0
BLOCK
  8
0
  2
$MODEL_SPACE
 70
     0
 10
0.0
 20
0.0
 30
0.0
  3
$MODEL_SPACE
  1

  0
ENDBLK
  5
89CB
  8
0
  0
BLOCK
 67
     1
  8
0
  2
$PAPER_SPACE
 70
     0
 10
0.0
 20
0.0
 30
0.0
  3
$PAPER_SPACE
  1

  0
ENDBLK
  5
89C7
 67
     1
  8
0
  0
BLOCK
  8
0
  2
*U2
 70
     1
 10
0.0
 20
0.0
 30
0.0
  3
*U2
  1

  0
TEXT
  5
66CF
  8
DIM
  6
CONTINUOUS
 10
3770.0078620352001
 20
909.78111772631485
 30
0.0
 40
30.0
  1
365
 50
90.0
  7
TITLE3
  0
ENDBLK
  5
66D1
  8
0
  0
BLOCK
  8
0
  2
*U4
 70
     1
 10
0.0
 20
0.0
 30
0.0
  3
*U4
  1

  0
TEXT
  5
66DB
  8
DIM
  6
CONTINUOUS
 10
3079.889004996091
 20
1316.3282976824121
 30
0.0
 40
30.0
  1
107
  7
TITLE3
  0
ENDBLK
  5
66DD
  8
0
  0
BLOCK
  8
0
  2
*U5
 70
     1
 10
0.0
 20
0.0
 30
0.0
  3
*U5
  1

  0
TEXT
  5
66DF
  8
DIM
  6
CONTINUOUS
 10
3187.2709630743479
 20
1314.3841670587519
 30
0.0
 40
30.0
  1
75
  7
TITLE3
  0
ENDBLK
  5
66E1
  8
0
  0
BLOCK
  8
0
  2
*U6
 70
     1
 10
0.0
 20
0.0
 30
0.0
  3
*U6
  1

  0
TEXT
  5
6A44
  8
DIM
  6
CONTINUOUS
 62
    50
 10
1708.1369131947349
 20
2367.760254800291
 30
0.0
 40
30.0
  1
1483 MTG. CTRS
  7
TITLE3
  0
ENDBLK
  5
6A46
  8
0
  0
BLOCK
  8
0
  2
*U7
 70
     1
 10
0.0
 20
0.0
 30
0.0
  3
*U7
  1

  0
TEXT
  5
6A4C
  8
DIM
  6
CONTINUOUS
 62
    50
 10
1185.4026646105181
 20
1518.06749464276
 30
0.0
 40
30.0
  1
163
  7
TITLE3
  0
ENDBLK
  5
6A4E
  8
0
  0
BLOCK
  8
0
  2
*U8
 70
     1
 10
0.0
 20
0.0
 30
0.0
  3
*U8
  1

  0
TEXT
  5
6A50
  8
DIM
  6
CONTINUOUS
 62
    50
 10
1693.999056051875
 20
1518.06749464276
 30
0.0
 40
30.0
  1
860
  7
TITLE3
  0
ENDBLK
  5
6A52
  8
0
  0
BLOCK
  8
0
  2
*U10
 70
     1
 10
0.0
 20
0.0
 30
0.0
  3
*U10
  1

  0
TEXT
  5
6A58
  8
DIM
  6
CONTINUOUS
 62
    50
 10
1072.779065527377
 20
1083.318387013466
 30
0.0
 40
30.0
  1
185
 50
90.0
  7
TITLE3
  0
ENDBLK
  5
6A5A
  8
0
  0
BLOCK
  8
0
  2
*U13
 70
     1
 10
0.0
 20
0.0
 30
0.0
  3
*U13
  1

  0
TEXT
  5
6A64
  8
DIM
  6
CONTINUOUS
 62
    50
 10
1843.2797703375879
 20
1378.0837872816851
 30
0.0
 40
30.0
  1
1506
  7
TITLE3
  0
ENDBLK
  5
6A66
  8
0
  0
BLOCK
  8
0
  2
NEW_BLOCK
 70
     0
 10
0.0
 20
0.0
 30
0.0
  3
NEW_BLOCK
  1

  0
TEXT
  5
7FFE
  8
TEXT
 10
27.285946821803002
 20
25.27142175952417
 30
0.0
 40
40.0
  1
available on request
  7
TITLE3
  0
TEXT
  5
7FFF
  8
TEXT
 10
27.285946821803002
 20
93.842850330952714
 30
0.0
 40
40.0
  1
Certified dimensions
  7
TITLE3
  0
TEXT
  5
8000
  8
TEXT
 10
27.285946821803002
 20
162.4142789023812
 30
0.0
 40
40.0
  1
without notice or obligation.
  7
TITLE3
  0
TEXT
  5
8001
  8
TEXT
 10
27.285946821803002
 20
230.9857074738097
 30
0.0
 40
40.0
  1
specifications at any time
  7
TITLE3
  0
TEXT
  5
8002
  8
TEXT
 10
27.285946821803002
 20
299.55713604523839
 30
0.0
 40
40.0
  1
the right to change 
  7
TITLE3
  0
TEXT
  5
8003
  8
TEXT
 10
27.285946821803002
 20
436.69999318809488
 30
0.0
 40
40.0
  1
NOTE
  7
TITLE3
  0
TEXT
  5
8004
  8
TEXT
 10
27.285946821803002
 20
368.12856461666678
 30
0.0
 40
40.0
  1
The manufacturer reserves
  7
TITLE3
  0
ENDBLK
  5
8005
  8
0
  0
BLOCK
  8
0
  2
*U16
 70
     1
 10
0.0
 20
0.0
 30
0.0
  3
*U16
  1

  0
TEXT
  5
80F4
  8
DIM
  6
CONTINUOUS
 10
666.72168929733471
 20
1803.438256288021
 30
0.0
 40
30.0
  1
700 O/A
 50
90.0
  0
ENDBLK
  5
80F6
  8
0
  0
BLOCK
  8
0
  2
*U18
 70
     1
 10
0.0
 20
0.0
 30
0.0
  3
*U18
  1

  0
TEXT
  5
80FC
  8
DIM
  6
CONTINUOUS
 10
3078.3581017614379
 20
1281.6525462977429
 30
0.0
 40
30.0
  1
46
 50
90.0
  0
ENDBLK
  5
80FE
  8
0
  0
BLOCK
  8
0
  2
*U22
 70
     1
 10
0.0
 20
0.0
 30
0.0
  3
*U22
  1

  0
TEXT
  5
86DF
  8
DIM
  6
CONTINUOUS
 10
2642.2848903320919
 20
1128.821404450825
 30
0.0
 40
30.0
  1
95
 50
90.0
  7
TITLE3
  0
ENDBLK
  5
86E1
  8
0
  0
BLOCK
  8
0
  2
*U23
 70
     1
 10
0.0
 20
0.0
 30
0.0
  3
*U23
  1

  0
TEXT
  5
86E3
  8
DIM
  6
CONTINUOUS
 10
2580.6001464716519
 20
928.44932351568332
 30
0.0
 40
30.0
  1
467
 50
90.0
  7
TITLE3
  0
ENDBLK
  5
86E5
  8
0
  0
BLOCK
  8
0
  2
*U24
 70
     1
 10
0.0
 20
0.0
 30
0.0
  3
*U24
  1

  0
TEXT
  5
86E7
  8
DIM
  6
CONTINUOUS
 10
2442.5569462165331
 20
1895.866827716593
 30
0.0
 40
30.0
  1
485
 50
90.0
  7
TITLE3
  0
ENDBLK
  5
86E9
  8
0
  0
BLOCK
  8
0
  2
*U25
 70
     1
 10
0.0
 20
0.0
 30
0.0
  3
*U25
  1

  0
TEXT
  5
86EB
  8
DIM
  6
CONTINUOUS
 10
2525.0091238054129
 20
1896.5811134308781
 30
0.0
 40
30.0
  1
586
 50
90.0
  7
TITLE3
  0
ENDBLK
  5
86ED
  8
0
  0
BLOCK
  8
0
  2
*U26
 70
     1
 10
0.0
 20
0.0
 30
0.0
  3
*U26
  1

  0
TEXT
  5
86EF
  8
DIM
  6
CONTINUOUS
 10
694.70477173182906
 20
910.1636092299683
 30
0.0
 40
30.0
  1
506
 50
90.0
  7
TITLE3
  0
ENDBLK
  5
86F1
  8
0
  0
BLOCK
  8
0
  2
*U27
 70
     1
 10
0.0
 20
0.0
 30
0.0
  3
*U27
  1

  0
TEXT
  5
86F3
  8
DIM
  6
CONTINUOUS
 10
2443.5655258707902
 20
912.9493235156832
 30
0.0
 40
30.0
  1
498
 50
90.0
  7
TITLE3
  0
ENDBLK
  5
86F5
  8
0
  0
BLOCK
  8
0
  2
*U28
 70
     1
 10
0.0
 20
0.0
 30
0.0
  3
*U28
  1

  0
TEXT
  5
894B
  8
DIM
  6
CONTINUOUS
 10
736.229176306775
 20
2365.9551132244051
 30
0.0
 40
30.0
  1
38
  0
ENDBLK
  5
894D
  8
0
  0
BLOCK
  8
0
  2
*U29
 70
     1
 10
0.0
 20
0.0
 30
0.0
  3
*U29
  1

  0
TEXT
  5
894F
  8
DIM
  6
CONTINUOUS
 10
1394.265374186763
 20
2365.9551132244051
 30
0.0
 40
30.0
  1
1086
  0
ENDBLK
  5
8951
  8
0
  0
BLOCK
  8
0
  2
*U30
 70
     1
 10
0.0
 20
0.0
 30
0.0
  3
*U30
  1

  0
TEXT
  5
8953
  8
DIM
  6
CONTINUOUS
 10
2110.389912008015
 20
2365.6072225118442
 30
0.0
 40
30.0
  1
328
  0
ENDBLK
  5
8955
  8
0
  0
ENDSEC
  0
SECTION
  2
ENTITIES
  0
LINE
  5
B97
  8
DIM
 10
1651.800459515571
 20
2242.0618402735031
 30
0.0
 11
1651.800459515571
 21
2261.9060190663049
 31
0.0
  0
LINE
  5
B98
  8
DIM
 10
1668.137010698752
 20
2242.0618402735031
 30
0.0
 11
1651.800459515571
 21
2242.0618402735031
 31
0.0
  0
LINE
  5
B99
  8
DIM
 10
1644.2020636164179
 20
2205.2050485480768
 30
0.0
 11
1668.137010698752
 21
2242.0618402735031
 31
0.0
  0
LINE
  5
B9A
  8
DIM
 10
1636.6036677172631
 20
2261.9060190663049
 30
0.0
 11
1651.800459515571
 21
2261.9060190663049
 31
0.0
  0
LINE
  5
B9B
  8
DIM
 10
1636.6036677172631
 20
2242.0618402735031
 30
0.0
 11
1636.6036677172631
 21
2261.9060190663049
 31
0.0
  0
LINE
  5
B9C
  8
DIM
 10
1620.2671165340839
 20
2242.0618402735031
 30
0.0
 11
1636.6036677172631
 21
2242.0618402735031
 31
0.0
  0
LINE
  5
B9D
  8
DIM
 10
1644.2020636164179
 20
2205.2050485480768
 30
0.0
 11
1620.2671165340839
 21
2242.0618402735031
 31
0.0
  0
LINE
  5
18EF
  8
DIM
 10
1086.227901925902
 20
2242.0618402735031
 30
0.0
 11
1086.227901925902
 21
2261.9060190663049
 31
0.0
  0
LINE
  5
18F0
  8
DIM
 10
1102.5644531090829
 20
2242.0618402735031
 30
0.0
 11
1086.227901925902
 21
2242.0618402735031
 31
0.0
  0
LINE
  5
18F1
  8
DIM
 10
1078.6295060267489
 20
2205.2050485480768
 30
0.0
 11
1102.5644531090829
 21
2242.0618402735031
 31
0.0
  0
LINE
  5
18F2
  8
DIM
 10
1071.031110127594
 20
2261.9060190663049
 30
0.0
 11
1086.227901925902
 21
2261.9060190663049
 31
0.0
  0
LINE
  5
18F3
  8
DIM
 10
1071.031110127594
 20
2242.0618402735031
 30
0.0
 11
1071.031110127594
 21
2261.9060190663049
 31
0.0
  0
LINE
  5
18F4
  8
DIM
 10
1054.694558944414
 20
2242.0618402735031
 30
0.0
 11
1071.031110127594
 21
2242.0618402735031
 31
0.0
  0
LINE
  5
18F5
  8
DIM
 10
1078.6295060267489
 20
2205.2050485480768
 30
0.0
 11
1054.694558944414
 21
2242.0618402735031
 31
0.0
  0
LINE
  5
1F8D
  8
DIM
 10
3606.0061362466672
 20
949.9308273573555
 30
0.0
 11
3625.8503150394722
 21
949.9308273573555
 31
0.0
  0
LINE
  5
1F8E
  8
DIM
 10
3606.0061362466672
 20
933.59427617417316
 30
0.0
 11
3606.0061362466672
 21
949.9308273573555
 31
0.0
  0
LINE
  5
1F8F
  8
DIM
 10
3569.1493445212418
 20
957.52922325650786
 30
0.0
 11
3606.0061362466672
 21
933.59427617417316
 31
0.0
  0
LINE
  5
1F90
  8
DIM
 10
3625.8503150394722
 20
965.12761915566273
 30
0.0
 11
3625.8503150394722
 21
949.9308273573555
 31
0.0
  0
LINE
  5
1F91
  8
DIM
 10
3606.0061362466672
 20
965.12761915566273
 30
0.0
 11
3625.8503150394722
 21
965.12761915566273
 31
0.0
  0
LINE
  5
1F92
  8
DIM
 10
3606.0061362466672
 20
981.46417033884234
 30
0.0
 11
3606.0061362466672
 21
965.12761915566273
 31
0.0
  0
LINE
  5
1F93
  8
DIM
 10
3569.1493445212418
 20
957.52922325650786
 30
0.0
 11
3606.0061362466672
 21
981.46417033884234
 31
0.0
  0
LINE
  5
1FBA
  8
DIM
 10
3447.4843302132781
 20
1114.6207520871119
 30
0.0
 11
3520.5689015380999
 21
1114.6207520871119
 31
0.0
  0
LINE
  5
1FBB
  8
DIM
 10
3447.4843302132758
 20
749.82075208711137
 30
0.0
 11
3520.5689015380981
 21
749.82075208711137
 31
0.0
  0
LINE
  5
1FBC
  8
DIM
 10
3520.3889015381001
 20
1084.620752087111
 30
0.0
 11
3520.3889015381001
 21
975.79218065854025
 31
0.0
  0
LINE
  5
1FBD
  8
DIM
 10
3520.3889015381001
 20
779.82075208711126
 30
0.0
 11
3520.3889015381001
 21
888.64932351568211
 31
0.0
  0
SOLID
  5
1FBE
  8
DIM
 10
3515.388901538101
 20
1084.620752087111
 30
0.0
 11
3525.3889015380992
 21
1084.620752087111
 31
0.0
 12
3520.3889015381001
 22
1114.6207520871119
 32
0.0
 13
3520.3889015381001
 23
1114.6207520871119
 33
0.0
  0
SOLID
  5
1FBF
  8
DIM
 10
3515.388901538101
 20
779.82075208711126
 30
0.0
 11
3525.3889015380992
 21
779.82075208711126
 31
0.0
 12
3520.3889015381001
 22
749.82075208711137
 32
0.0
 13
3520.3889015381001
 23
749.82075208711137
 33
0.0
  0
INSERT
  5
1FC0
  8
DIM
  6
CONTINUOUS
  2
*U2
 10
-234.61896049710049
 20
-16.131794210631369
 30
0.0
  0
LINE
  5
1FC1
  8
DIM
 10
3423.4843302132772
 20
1200.5207520871111
 30
0.0
 11
3520.8915078185528
 21
1200.5207520871111
 31
0.0
  0
LINE
  5
1FC2
  8
DIM
 10
3447.4843302132781
 20
1114.6207520871119
 30
0.0
 11
3520.8915078185528
 21
1114.6207520871119
 31
0.0
  0
LINE
  5
1FC3
  8
DIM
 10
3520.7115078185529
 20
1230.5207520871111
 30
0.0
 11
3520.7115078185529
 21
1260.5207520871099
 31
0.0
  0
LINE
  5
1FC4
  8
DIM
 10
3520.7115078185529
 20
1084.620752087111
 30
0.0
 11
3520.7115078185529
 21
1054.6207520871119
 31
0.0
  0
SOLID
  5
1FC5
  8
DIM
 10
3515.7115078185529
 20
1230.5207520871111
 30
0.0
 11
3525.711507818552
 21
1230.5207520871111
 31
0.0
 12
3520.7115078185529
 22
1200.5207520871111
 32
0.0
 13
3520.7115078185529
 23
1200.5207520871111
 33
0.0
  0
SOLID
  5
1FC6
  8
DIM
 10
3515.7115078185529
 20
1084.620752087111
 30
0.0
 11
3525.711507818552
 21
1084.620752087111
 31
0.0
 12
3520.7115078185529
 22
1114.6207520871119
 32
0.0
 13
3520.7115078185529
 23
1114.6207520871119
 33
0.0
  0
LINE
  5
1FCF
  8
DIM
 10
2725.4843302132772
 20
1105.425945618819
 30
0.0
 11
2667.9790446897141
 21
1105.425945618819
 31
0.0
  0
LINE
  5
1FD6
  8
DIM
 10
2725.4843302132772
 20
880.83939695381935
 30
0.0
 11
2666.8652569320561
 21
880.83939695381935
 31
0.0
  0
LINE
  5
1FD7
  8
DIM
 10
2725.4843302132772
 20
1105.425945618819
 30
0.0
 11
2666.8652569320561
 21
1105.425945618819
 31
0.0
  0
LINE
  5
1FD8
  8
DIM
 10
2667.0452569320551
 20
910.83939695381946
 30
0.0
 11
2667.0452569320551
 21
1105.425945618819
 31
0.0
  0
SOLID
  5
1FDA
  8
DIM
 10
2662.0452569320551
 20
910.83939695381946
 30
0.0
 11
2672.0452569320551
 21
910.83939695381946
 31
0.0
 12
2667.0452569320551
 22
880.83939695381935
 32
0.0
 13
2667.0452569320551
 23
880.83939695381935
 33
0.0
  0
SOLID
  5
1FDB
  8
DIM
 10
2662.0452569320551
 20
1075.425945618819
 30
0.0
 11
2672.0452569320551
 21
1075.425945618819
 31
0.0
 12
2667.0452569320551
 22
1105.425945618819
 32
0.0
 13
2667.0452569320551
 23
1105.425945618819
 33
0.0
  0
LINE
  5
2040
  8
DIM
 10
2795.0006297435611
 20
973.18201991815715
 30
0.0
 11
2814.8448085363661
 21
973.18201991815715
 31
0.0
  0
LINE
  5
2041
  8
DIM
 10
2795.0006297435611
 20
956.84546873497595
 30
0.0
 11
2795.0006297435611
 21
973.18201991815715
 31
0.0
  0
LINE
  5
2042
  8
DIM
 10
2758.1438380181371
 20
980.78041581731031
 30
0.0
 11
2795.0006297435611
 21
956.84546873497595
 31
0.0
  0
LINE
  5
2043
  8
DIM
 10
2814.8448085363661
 20
988.37881171646461
 30
0.0
 11
2814.8448085363661
 21
973.18201991815715
 31
0.0
  0
LINE
  5
2044
  8
DIM
 10
2795.0006297435611
 20
988.37881171646461
 30
0.0
 11
2814.8448085363661
 21
988.37881171646461
 31
0.0
  0
LINE
  5
2045
  8
DIM
 10
2795.0006297435611
 20
1004.715362899645
 30
0.0
 11
2795.0006297435611
 21
988.37881171646461
 31
0.0
  0
LINE
  5
2046
  8
DIM
 10
2758.1438380181371
 20
980.78041581731031
 30
0.0
 11
2795.0006297435611
 21
1004.715362899645
 31
0.0
  0
LINE
  5
211B
  8
DIM
 10
2827.4843302132772
 20
1210.5207520871099
 30
0.0
 11
2827.4843302132772
 21
1261.4323728481199
 31
0.0
  0
LINE
  5
211C
  8
DIM
 10
2934.4843302132758
 20
1154.5207520871099
 30
0.0
 11
2934.4843302132758
 21
1261.4323728481199
 31
0.0
  0
LINE
  5
211D
  8
DIM
 10
2857.4843302132758
 20
1261.2523728481201
 30
0.0
 11
2934.4843302132758
 21
1261.2523728481201
 31
0.0
  0
LINE
  5
211E
  8
DIM
 10
3039.4843302132772
 20
1261.2523728481201
 30
0.0
 11
3069.4843302132758
 21
1261.2523728481201
 31
0.0
  0
SOLID
  5
211F
  8
DIM
 10
2857.4843302132758
 20
1266.2523728481201
 30
0.0
 11
2857.4843302132758
 21
1256.252372848119
 31
0.0
 12
2827.4843302132772
 22
1261.2523728481201
 32
0.0
 13
2827.4843302132772
 23
1261.2523728481201
 33
0.0
  0
SOLID
  5
2120
  8
DIM
 10
3039.4843302132772
 20
1266.2523728481201
 30
0.0
 11
3039.4843302132772
 21
1256.252372848119
 31
0.0
 12
3009.4843302132758
 22
1261.2523728481201
 32
0.0
 13
3009.4843302132758
 23
1261.2523728481201
 33
0.0
  0
INSERT
  5
2121
  8
DIM
  6
CONTINUOUS
  2
*U4
 10
-234.61896049710049
 20
-16.131794210631369
 30
0.0
  0
LINE
  5
2122
  8
DIM
 10
2934.4843302132758
 20
1154.5207520871099
 30
0.0
 11
2934.4843302132758
 21
1261.4323728481199
 31
0.0
  0
LINE
  5
2123
  8
DIM
 10
3009.4843302132758
 20
1154.5207520871099
 30
0.0
 11
3009.4843302132758
 21
1261.4323728481199
 31
0.0
  0
LINE
  5
2124
  8
DIM
 10
3039.4843302132772
 20
1261.2523728481201
 30
0.0
 11
3054.4843302132758
 21
1261.2523728481201
 31
0.0
  0
INSERT
  5
2125
  8
DIM
  6
CONTINUOUS
  2
*U5
 10
-234.61896049710049
 20
-16.131794210631369
 30
0.0
  0
SOLID
  5
2126
  8
DIM
 10
3039.4843302132772
 20
1266.2523728481201
 30
0.0
 11
3039.4843302132772
 21
1256.252372848119
 31
0.0
 12
3009.4843302132758
 22
1261.2523728481201
 32
0.0
 13
3009.4843302132758
 23
1261.2523728481201
 33
0.0
  0
SOLID
  5
2128
  8
DIM
 10
2904.4843302132772
 20
1266.2523728481201
 30
0.0
 11
2904.4843302132772
 21
1256.252372848119
 31
0.0
 12
2934.4843302132758
 22
1261.2523728481201
 32
0.0
 13
2934.4843302132758
 23
1261.2523728481201
 33
0.0
  0
SOLID
  5
2129
  8
DIM
 10
2904.4843302132772
 20
1266.2523728481201
 30
0.0
 11
2904.4843302132772
 21
1256.252372848119
 31
0.0
 12
2934.4843302132758
 22
1261.2523728481201
 32
0.0
 13
2934.4843302132758
 23
1261.2523728481201
 33
0.0
  0
POINT
  5
46FE
  8
SPRING
  6
CONTINUOUS
 10
860.71444982926391
 20
1037.2810049471329
 30
0.0
 50
180.0
  0
LINE
  5
46FF
  8
SPRING
  6
CONTINUOUS
 10
852.7144498292638
 20
1077.2810049471329
 30
0.0
 11
852.7144498292638
 21
1017.2810049471331
 31
0.0
  0
LINE
  5
4700
  8
SPRING
  6
CONTINUOUS
 10
860.71444982926391
 20
1077.2810049471329
 30
0.0
 11
852.7144498292638
 21
1077.2810049471329
 31
0.0
  0
POINT
  5
4701
  8
SPRING
  6
CONTINUOUS
 10
860.71444982926391
 20
1067.281004947132
 30
0.0
 50
180.0
  0
ARC
  5
4702
  8
SPRING
  6
CONTINUOUS
 10
831.21444982926391
 20
1004.2810049471331
 30
0.0
 40
3.0
 50
0.0
 51
90.0
  0
LINE
  5
4703
  8
SPRING
  6
CONTINUOUS
 10
815.71444982926221
 20
1007.2810049471331
 30
0.0
 11
815.71444982926221
 21
1000.281004947132
 31
0.0
  0
ARC
  5
4704
  8
SPRING
  6
CONTINUOUS
 10
800.21444982926334
 20
1004.2810049471331
 30
0.0
 40
3.0
 50
90.0
 51
180.0
  0
ARC
  5
4705
  8
SPRING
  6
CONTINUOUS
 10
850.71444982926391
 20
1017.2810049471331
 30
0.0
 40
10.0
 50
270.0
 51
0.0
  0
LINE
  5
4706
  8
SPRING
  6
CONTINUOUS
 10
795.71444982926334
 20
1015.2810049471331
 30
0.0
 11
795.71444982926334
 21
1007.2810049471331
 31
0.0
  0
LINE
  5
4707
  8
SPRING
  6
CONTINUOUS
 10
850.71444982926391
 20
1015.2810049471331
 30
0.0
 11
795.71444982926334
 21
1015.2810049471331
 31
0.0
  0
LINE
  5
4708
  8
SPRING
  6
CONTINUOUS
 10
850.71444982926391
 20
1007.2810049471331
 30
0.0
 11
795.71444982926334
 21
1007.2810049471331
 31
0.0
  0
LINE
  5
4709
  8
SPRING
  6
CONTINUOUS
 10
800.21444982926334
 20
1007.2810049471331
 30
0.0
 11
831.21444982926391
 21
1007.2810049471331
 31
0.0
  0
ARC
  5
470A
  8
SPRING
  6
CONTINUOUS
 10
850.71444982926391
 20
1017.2810049471331
 30
0.0
 40
2.0
 50
270.0
 51
0.0
  0
LINE
  5
470B
  8
SPRING
  6
CONTINUOUS
 10
834.21444982926334
 20
1004.2810049471331
 30
0.0
 11
834.21444982926334
 21
1000.281004947132
 31
0.0
  0
LINE
  5
470C
  8
SPRING
  6
CONTINUOUS
 10
797.21444982926334
 20
1004.2810049471331
 30
0.0
 11
797.21444982926334
 21
1000.281004947132
 31
0.0
  0
LINE
  5
470D
  8
SPRING
  6
CONTINUOUS
 10
834.21444982926334
 20
1000.281004947132
 30
0.0
 11
797.21444982926334
 21
1000.281004947132
 31
0.0
  0
LINE
  5
470E
  8
SPRING
  6
CONTINUOUS
 10
860.71444982926391
 20
1017.2810049471331
 30
0.0
 11
860.71444982926391
 21
1025.0207520871099
 31
0.0
  0
POINT
  5
471A
  8
SPRING
  6
CONTINUOUS
 10
2316.7144498292628
 20
1037.2810049471329
 30
0.0
  0
LINE
  5
471B
  8
SPRING
  6
CONTINUOUS
 10
2324.7144498292628
 20
1077.2810049471329
 30
0.0
 11
2324.7144498292628
 21
1017.2810049471331
 31
0.0
  0
LINE
  5
471C
  8
SPRING
  6
CONTINUOUS
 10
2316.7144498292628
 20
1077.2810049471329
 30
0.0
 11
2316.7144498292628
 21
1017.2810049471331
 31
0.0
  0
LINE
  5
471D
  8
SPRING
  6
CONTINUOUS
 10
2316.7144498292628
 20
1077.2810049471329
 30
0.0
 11
2324.7144498292628
 21
1077.2810049471329
 31
0.0
  0
POINT
  5
471E
  8
SPRING
  6
CONTINUOUS
 10
2316.7144498292628
 20
1067.281004947132
 30
0.0
  0
ARC
  5
471F
  8
SPRING
  6
CONTINUOUS
 10
2346.2144498292628
 20
1004.2810049471331
 30
0.0
 40
3.0
 50
90.0
 51
180.0
  0
LINE
  5
4720
  8
SPRING
  6
CONTINUOUS
 10
2361.7144498292628
 20
1007.2810049471331
 30
0.0
 11
2361.7144498292628
 21
1000.281004947132
 31
0.0
  0
ARC
  5
4721
  8
SPRING
  6
CONTINUOUS
 10
2377.2144498292628
 20
1004.2810049471331
 30
0.0
 40
3.0
 50
0.0
 51
90.0
  0
ARC
  5
4722
  8
SPRING
  6
CONTINUOUS
 10
2326.7144498292641
 20
1017.2810049471331
 30
0.0
 40
10.0
 50
180.0
 51
270.0
  0
LINE
  5
4723
  8
SPRING
  6
CONTINUOUS
 10
2381.7144498292628
 20
1015.2810049471331
 30
0.0
 11
2381.7144498292628
 21
1007.2810049471331
 31
0.0
  0
LINE
  5
4724
  8
SPRING
  6
CONTINUOUS
 10
2326.7144498292641
 20
1015.2810049471331
 30
0.0
 11
2381.7144498292628
 21
1015.2810049471331
 31
0.0
  0
LINE
  5
4725
  8
SPRING
  6
CONTINUOUS
 10
2326.7144498292641
 20
1007.2810049471331
 30
0.0
 11
2381.7144498292628
 21
1007.2810049471331
 31
0.0
  0
LINE
  5
4726
  8
SPRING
  6
CONTINUOUS
 10
2377.2144498292628
 20
1007.2810049471331
 30
0.0
 11
2346.2144498292628
 21
1007.2810049471331
 31
0.0
  0
ARC
  5
4727
  8
SPRING
  6
CONTINUOUS
 10
2326.7144498292641
 20
1017.2810049471331
 30
0.0
 40
2.0
 50
180.0
 51
270.0
  0
LINE
  5
4728
  8
SPRING
  6
CONTINUOUS
 10
2343.2144498292628
 20
1004.2810049471331
 30
0.0
 11
2343.2144498292628
 21
1000.281004947132
 31
0.0
  0
LINE
  5
4729
  8
SPRING
  6
CONTINUOUS
 10
2380.2144498292641
 20
1004.2810049471331
 30
0.0
 11
2380.2144498292641
 21
1000.281004947132
 31
0.0
  0
LINE
  5
472A
  8
SPRING
  6
CONTINUOUS
 10
2343.2144498292628
 20
1000.281004947132
 30
0.0
 11
2380.2144498292641
 21
1000.281004947132
 31
0.0
  0
ARC
  5
473E
  8
OUTLINE
 10
847.21444982926573
 20
2256.5674290882139
 30
0.0
 40
4.75
 50
180.0
 51
0.0
  0
ARC
  5
473F
  8
OUTLINE
 10
847.21444982926573
 20
2267.0674290882139
 30
0.0
 40
4.75
 50
0.0
 51
180.0
  0
LINE
  5
4740
  8
OUTLINE
 10
842.46444982926641
 20
2267.0674290882139
 30
0.0
 11
842.46444982926641
 21
2256.5674290882139
 31
0.0
  0
LINE
  5
4741
  8
OUTLINE
 10
851.96444982926675
 20
2267.0674290882139
 30
0.0
 11
851.96444982926675
 21
2256.5674290882139
 31
0.0
  0
ARC
  5
4743
  8
OUTLINE
 10
847.21444982926573
 20
1782.067429088213
 30
0.0
 40
4.75
 50
0.0
 51
180.0
  0
ARC
  5
4744
  8
OUTLINE
 10
847.21444982926573
 20
1771.567429088213
 30
0.0
 40
4.75
 50
180.0
 51
0.0
  0
LINE
  5
4745
  8
OUTLINE
 10
842.46444982926641
 20
1771.567429088213
 30
0.0
 11
842.46444982926641
 21
1782.067429088213
 31
0.0
  0
LINE
  5
4746
  8
OUTLINE
 10
851.96444982926675
 20
1771.567429088213
 30
0.0
 11
851.96444982926675
 21
1782.067429088213
 31
0.0
  0
ARC
  5
4760
  8
OUTLINE
 10
2330.214449829265
 20
1782.067429088213
 30
0.0
 40
4.75
 50
0.0
 51
180.0
  0
ARC
  5
4761
  8
OUTLINE
 10
2330.214449829265
 20
1771.567429088213
 30
0.0
 40
4.75
 50
180.0
 51
0.0
  0
LINE
  5
4762
  8
OUTLINE
 10
2334.964449829265
 20
1771.567429088213
 30
0.0
 11
2334.964449829265
 21
1782.067429088213
 31
0.0
  0
LINE
  5
4763
  8
OUTLINE
 10
2325.464449829266
 20
1771.567429088213
 30
0.0
 11
2325.464449829266
 21
1782.067429088213
 31
0.0
  0
ARC
  5
4765
  8
OUTLINE
 10
2330.214449829265
 20
2256.5674290882139
 30
0.0
 40
4.75
 50
180.0
 51
0.0
  0
ARC
  5
4766
  8
OUTLINE
 10
2330.214449829265
 20
2267.0674290882139
 30
0.0
 40
4.75
 50
0.0
 51
180.0
  0
LINE
  5
4767
  8
OUTLINE
 10
2334.964449829265
 20
2267.0674290882139
 30
0.0
 11
2334.964449829265
 21
2256.5674290882139
 31
0.0
  0
LINE
  5
4768
  8
OUTLINE
 10
2325.464449829266
 20
2267.0674290882139
 30
0.0
 11
2325.464449829266
 21
2256.5674290882139
 31
0.0
  0
LINE
  5
4799
  8
SPRING
  6
CONTINUOUS
 10
794.71444982926334
 20
1752.817429088215
 30
0.0
 11
794.71444982926334
 21
1802.817429088215
 31
0.0
  0
LINE
  5
479A
  8
SPRING
  6
CONTINUOUS
 10
794.71444982926334
 20
1755.317429088215
 30
0.0
 11
859.71444982926414
 21
1755.317429088215
 31
0.0
  0
LINE
  5
479B
  8
SPRING
  6
CONTINUOUS
 10
794.71444982926334
 20
1752.817429088215
 30
0.0
 11
859.71444982926414
 21
1752.817429088215
 31
0.0
  0
LINE
  5
479C
  8
SPRING
  6
CONTINUOUS
 10
794.71444982926334
 20
1802.817429088215
 30
0.0
 11
833.71444982926414
 21
1802.817429088215
 31
0.0
  0
LINE
  5
479D
  8
SPRING
  6
CONTINUOUS
 10
794.71444982926334
 20
1800.317429088215
 30
0.0
 11
833.71444982926414
 21
1800.317429088215
 31
0.0
  0
CIRCLE
  5
479E
  8
SPRING
  6
CONTINUOUS
 10
814.71444982926391
 20
1777.817429088215
 30
0.0
 40
9.5
  0
LINE
  5
47A8
  8
SPRING
  6
CONTINUOUS
 10
794.71444982926334
 20
2237.8174290882148
 30
0.0
 11
794.71444982926334
 21
2287.8174290882162
 31
0.0
  0
CIRCLE
  5
47A9
  8
SPRING
  6
CONTINUOUS
 10
814.71444982926391
 20
2262.8174290882148
 30
0.0
 40
9.5
  0
LINE
  5
47AA
  8
SPRING
  6
CONTINUOUS
 10
794.71444982926334
 20
2240.3174290882148
 30
0.0
 11
833.71444982926414
 21
2240.3174290882148
 31
0.0
  0
LINE
  5
47AB
  8
SPRING
  6
CONTINUOUS
 10
794.71444982926334
 20
2237.8174290882148
 30
0.0
 11
833.71444982926414
 21
2237.8174290882148
 31
0.0
  0
LINE
  5
47AC
  8
SPRING
  6
CONTINUOUS
 10
794.71444982926334
 20
2287.8174290882162
 30
0.0
 11
859.71444982926414
 21
2287.8174290882162
 31
0.0
  0
LINE
  5
47AD
  8
SPRING
  6
CONTINUOUS
 10
794.71444982926334
 20
2285.3174290882148
 30
0.0
 11
859.71444982926414
 21
2285.3174290882148
 31
0.0
  0
LINE
  5
47B6
  8
SPRING
  6
CONTINUOUS
 10
2382.714449829265
 20
1752.817429088215
 30
0.0
 11
2382.714449829265
 21
1802.817429088215
 31
0.0
  0
LINE
  5
47B7
  8
SPRING
  6
CONTINUOUS
 10
2382.714449829265
 20
1755.317429088215
 30
0.0
 11
2343.714449829266
 21
1755.317429088215
 31
0.0
  0
LINE
  5
47B8
  8
SPRING
  6
CONTINUOUS
 10
2382.714449829265
 20
1752.817429088215
 30
0.0
 11
2314.714449829266
 21
1752.817429088215
 31
0.0
  0
LINE
  5
47B9
  8
SPRING
  6
CONTINUOUS
 10
2382.714449829265
 20
1802.817429088215
 30
0.0
 11
2343.714449829266
 21
1802.817429088215
 31
0.0
  0
LINE
  5
47BA
  8
SPRING
  6
CONTINUOUS
 10
2382.714449829265
 20
1800.317429088215
 30
0.0
 11
2343.714449829266
 21
1800.317429088215
 31
0.0
  0
CIRCLE
  5
47BB
  8
SPRING
  6
CONTINUOUS
 10
2362.7144498292641
 20
1777.817429088215
 30
0.0
 40
9.5
  0
LINE
  5
47C4
  8
SPRING
  6
CONTINUOUS
 10
2382.714449829265
 20
2237.8174290882148
 30
0.0
 11
2382.714449829265
 21
2287.8174290882162
 31
0.0
  0
CIRCLE
  5
47C5
  8
SPRING
  6
CONTINUOUS
 10
2362.7144498292641
 20
2262.8174290882148
 30
0.0
 40
9.5
  0
LINE
  5
47C6
  8
SPRING
  6
CONTINUOUS
 10
2382.714449829265
 20
2240.3174290882148
 30
0.0
 11
2343.714449829266
 21
2240.3174290882148
 31
0.0
  0
LINE
  5
47C7
  8
SPRING
  6
CONTINUOUS
 10
2382.714449829265
 20
2237.8174290882148
 30
0.0
 11
2343.714449829266
 21
2237.8174290882148
 31
0.0
  0
LINE
  5
47C8
  8
SPRING
  6
CONTINUOUS
 10
2382.714449829265
 20
2287.8174290882162
 30
0.0
 11
2314.714449829266
 21
2287.8174290882162
 31
0.0
  0
LINE
  5
47C9
  8
SPRING
  6
CONTINUOUS
 10
2382.714449829265
 20
2285.3174290882148
 30
0.0
 11
2343.714449829266
 21
2285.3174290882162
 31
0.0
  0
LINE
  5
4826
  8
DIM
 62
    52
 10
849.21444982926562
 20
1200.5207520871111
 30
0.0
 11
849.21444982926562
 21
1284.51241240735
 31
0.0
  0
LINE
  5
4827
  8
DIM
 62
    52
 10
2332.2144498292669
 20
1200.5207520871111
 30
0.0
 11
2332.2144498292669
 21
1284.51241240735
 31
0.0
  0
LINE
  5
4828
  8
DIM
 62
    52
 10
879.21444982926641
 20
1264.51241240735
 30
0.0
 11
1384.2858784006969
 21
1264.51241240735
 31
0.0
  0
LINE
  5
4829
  8
DIM
 62
    52
 10
2302.214449829266
 20
1264.51241240735
 30
0.0
 11
1797.1430212578359
 21
1264.51241240735
 31
0.0
  0
SOLID
  5
482A
  8
DIM
 62
    52
 10
879.21444982926641
 20
1269.51241240735
 30
0.0
 11
879.21444982926641
 21
1259.51241240735
 31
0.0
 12
849.21444982926562
 22
1264.51241240735
 32
0.0
 13
849.21444982926562
 23
1264.51241240735
 33
0.0
  0
SOLID
  5
482B
  8
DIM
 62
    52
 10
2302.214449829266
 20
1269.51241240735
 30
0.0
 11
2302.214449829266
 21
1259.51241240735
 31
0.0
 12
2332.2144498292669
 22
1264.51241240735
 32
0.0
 13
2332.2144498292669
 23
1264.51241240735
 33
0.0
  0
INSERT
  5
482C
  8
DIM
  6
CONTINUOUS
  2
*U6
 10
-303.85103479403961
 20
-1118.247842392941
 30
0.0
  0
LINE
  5
482D
  8
DIM
 62
    52
 10
816.71444982926391
 20
1032.4533043883789
 30
0.0
 11
816.71444982926391
 21
1373.3406297735451
 31
0.0
  0
LINE
  5
482E
  8
DIM
 62
    52
 10
2364.714449829266
 20
1032.4533043883789
 30
0.0
 11
2364.714449829266
 21
1373.3406297735451
 31
0.0
  0
LINE
  5
482F
  8
DIM
 62
    52
 10
846.71444982926334
 20
1353.3406297735421
 30
0.0
 11
1178.8948907475931
 21
1353.3406297735421
 31
0.0
  0
LINE
  5
4830
  8
DIM
 62
    52
 10
2334.7144498292678
 20
1353.3406297735421
 30
0.0
 11
2024.08854415575
 21
1353.3406297735421
 31
0.0
  0
SOLID
  5
4831
  8
DIM
 62
    52
 10
846.71444982926334
 20
1358.3406297735421
 30
0.0
 11
846.71444982926334
 21
1348.3406297735421
 31
0.0
 12
816.71444982926391
 22
1353.3406297735421
 32
0.0
 13
816.71444982926391
 23
1353.3406297735421
 33
0.0
  0
SOLID
  5
4832
  8
DIM
 62
    52
 10
2334.7144498292678
 20
1358.3406297735421
 30
0.0
 11
2334.7144498292678
 21
1348.3406297735421
 31
0.0
 12
2364.714449829266
 22
1353.3406297735421
 32
0.0
 13
2364.714449829266
 23
1353.3406297735421
 33
0.0
  0
LINE
  5
483B
  8
DIM
 62
    52
 10
835.71444982926619
 20
1733.317429088215
 30
0.0
 11
835.71444982926562
 21
1504.78875203593
 31
0.0
  0
LINE
  5
483C
  8
DIM
 62
    52
 10
998.81738123226546
 20
1610.1448467138921
 30
0.0
 11
998.81738123226546
 21
1570.631745517825
 31
0.0
  0
LINE
  5
483D
  8
DIM
 62
    52
 10
805.71444982926641
 20
1590.631745517825
 30
0.0
 11
775.71444982926641
 21
1590.631745517825
 31
0.0
  0
LINE
  5
483E
  8
DIM
 62
    52
 10
1028.8173812322659
 20
1590.631745517825
 30
0.0
 11
1058.817381232265
 21
1590.631745517825
 31
0.0
  0
SOLID
  5
483F
  8
DIM
 62
    52
 10
805.71444982926641
 20
1595.631745517825
 30
0.0
 11
805.71444982926641
 21
1585.631745517825
 31
0.0
 12
835.71444982926619
 22
1590.631745517825
 32
0.0
 13
835.71444982926619
 23
1590.631745517825
 33
0.0
  0
SOLID
  5
4840
  8
DIM
 62
    52
 10
1028.8173812322659
 20
1595.631745517825
 30
0.0
 11
1028.8173812322659
 21
1585.631745517825
 31
0.0
 12
998.81738123226546
 22
1590.631745517825
 32
0.0
 13
998.81738123226546
 23
1590.631745517825
 33
0.0
  0
INSERT
  5
4841
  8
DIM
  6
CONTINUOUS
  2
*U7
 10
-303.85103479403961
 20
57.564250875064751
 30
0.0
  0
LINE
  5
4842
  8
DIM
 62
    52
 10
998.81738123226546
 20
1610.144846713893
 30
0.0
 11
998.81738123226546
 21
1570.631745517825
 31
0.0
  0
LINE
  5
4843
  8
DIM
 62
    52
 10
1858.621518426263
 20
1611.236530071297
 30
0.0
 11
1858.621518426263
 21
1570.631745517825
 31
0.0
  0
LINE
  5
4844
  8
DIM
 62
    52
 10
1028.8173812322659
 20
1590.631745517825
 30
0.0
 11
1370.1480212578319
 21
1590.631745517825
 31
0.0
  0
LINE
  5
4845
  8
DIM
 62
    52
 10
1828.621518426263
 20
1590.631745517825
 30
0.0
 11
1487.290878400695
 21
1590.631745517825
 31
0.0
  0
SOLID
  5
4846
  8
DIM
 62
    52
 10
1028.8173812322659
 20
1595.631745517825
 30
0.0
 11
1028.8173812322659
 21
1585.631745517825
 31
0.0
 12
998.81738123226546
 22
1590.631745517825
 32
0.0
 13
998.81738123226546
 23
1590.631745517825
 33
0.0
  0
SOLID
  5
4847
  8
DIM
 62
    52
 10
1828.621518426263
 20
1595.631745517825
 30
0.0
 11
1828.621518426263
 21
1585.631745517825
 31
0.0
 12
1858.621518426263
 22
1590.631745517825
 32
0.0
 13
1858.621518426263
 23
1590.631745517825
 33
0.0
  0
INSERT
  5
4848
  8
DIM
  6
CONTINUOUS
  2
*U8
 10
-303.85103479403961
 20
57.564250875064751
 30
0.0
  0
LINE
  5
4849
  8
DIM
 62
    52
 10
1858.621518426263
 20
1611.236530071297
 30
0.0
 11
1858.621518426263
 21
1570.631745517825
 31
0.0
  0
LINE
  5
484A
  8
DIM
 62
    52
 10
2345.7144498292678
 20
1733.317429088215
 30
0.0
 11
2345.7144498292678
 21
1504.78875203593
 31
0.0
  0
LINE
  5
484B
  8
DIM
 62
    52
 10
1888.621518426263
 20
1590.631745517825
 30
0.0
 11
2043.59655555634
 21
1590.631745517825
 31
0.0
  0
LINE
  5
484C
  8
DIM
 62
    52
 10
2315.714449829266
 20
1590.631745517825
 30
0.0
 11
2160.7394126991949
 21
1590.631745517825
 31
0.0
  0
SOLID
  5
484D
  8
DIM
 62
    52
 10
1888.621518426263
 20
1595.631745517825
 30
0.0
 11
1888.621518426263
 21
1585.631745517825
 31
0.0
 12
1858.621518426263
 22
1590.631745517825
 32
0.0
 13
1858.621518426263
 23
1590.631745517825
 33
0.0
  0
SOLID
  5
484E
  8
DIM
 62
    52
 10
2315.714449829266
 20
1595.631745517825
 30
0.0
 11
2315.714449829266
 21
1585.631745517825
 31
0.0
 12
2345.7144498292678
 22
1590.631745517825
 32
0.0
 13
2345.7144498292678
 23
1590.631745517825
 33
0.0
  0
LINE
  5
4854
  8
DIM
 62
    52
 10
815.71444982926641
 20
1200.5207520871111
 30
0.0
 11
733.92803073334005
 21
1200.5207520871111
 31
0.0
  0
LINE
  5
4855
  8
DIM
 62
    52
 10
775.71444982926334
 20
1015.2810049471331
 30
0.0
 11
733.92803073334005
 21
1015.2810049471331
 31
0.0
  0
LINE
  5
4856
  8
DIM
 62
    52
 10
753.92803073334017
 20
1230.5207520871111
 30
0.0
 11
753.92803073334017
 21
1260.5207520871099
 31
0.0
  0
LINE
  5
4857
  8
DIM
 62
    52
 10
753.92803073334017
 20
985.28100494713283
 30
0.0
 11
753.92803073334017
 21
955.28100494713249
 31
0.0
  0
SOLID
  5
4858
  8
DIM
 62
    52
 10
748.92803073334017
 20
1230.5207520871111
 30
0.0
 11
758.92803073334005
 21
1230.5207520871111
 31
0.0
 12
753.92803073334017
 22
1200.5207520871111
 32
0.0
 13
753.92803073334017
 23
1200.5207520871111
 33
0.0
  0
SOLID
  5
4859
  8
DIM
 62
    52
 10
748.92803073334017
 20
985.28100494713283
 30
0.0
 11
758.92803073334005
 21
985.28100494713283
 31
0.0
 12
753.92803073334017
 22
1015.2810049471331
 32
0.0
 13
753.92803073334017
 23
1015.2810049471331
 33
0.0
  0
INSERT
  5
485A
  8
DIM
  6
CONTINUOUS
  2
*U10
 10
-303.85103479403961
 20
-16.131794210632052
 30
0.0
  0
LINE
  5
486B
  8
DIM
 62
    52
 10
865.71444982926641
 20
1527.240549601672
 30
0.0
 11
1519.428735543552
 21
1527.240549601672
 31
0.0
  0
LINE
  5
486C
  8
DIM
 62
    52
 10
2311.7144498292628
 20
1527.240549601672
 30
0.0
 11
1658.00016411498
 21
1527.240549601672
 31
0.0
  0
SOLID
  5
486D
  8
DIM
 62
    52
 10
865.71444982926641
 20
1532.2405496016729
 30
0.0
 11
865.71444982926641
 21
1522.240549601672
 31
0.0
 12
835.71444982926619
 22
1527.240549601672
 32
0.0
 13
835.71444982926619
 23
1527.240549601672
 33
0.0
  0
SOLID
  5
486E
  8
DIM
 62
    52
 10
2311.7144498292628
 20
1532.2405496016729
 30
0.0
 11
2311.7144498292628
 21
1522.240549601672
 31
0.0
 12
2341.7144498292628
 22
1527.240549601672
 32
0.0
 13
2341.7144498292628
 23
1527.240549601672
 33
0.0
  0
INSERT
  5
486F
  8
DIM
  6
CONTINUOUS
  2
*U13
 10
-303.85103479403961
 20
134.1567623199885
 30
0.0
  0
LINE
  5
4B62
  8
DIM
  6
CONTINUOUS
 62
    52
 10
2384.7144498292669
 20
1777.817429088215
 30
0.0
 11
2470.1897659876508
 21
1777.817429088215
 31
0.0
  0
LINE
  5
4B63
  8
DIM
  6
CONTINUOUS
 62
    52
 10
2384.7144498292669
 20
2262.8174290882148
 30
0.0
 11
2470.1897659876508
 21
2262.8174290882148
 31
0.0
  0
LINE
  5
5215
  8
DIM
  6
CONTINUOUS
 10
2715.4843302132772
 20
880.83939695381935
 30
0.0
 11
2667.2035681378361
 21
880.83939695381935
 31
0.0
  0
LINE
  5
52A8
  8
OUTLINE
  6
CONTINUOUS
 10
862.71444982926675
 20
2287.3174290882148
 30
0.0
 11
862.71444982926675
 21
2313.3174290882148
 31
0.0
  0
LINE
  5
52A9
  8
OUTLINE
  6
CONTINUOUS
 10
864.71444982926641
 20
2313.3174290882148
 30
0.0
 11
2314.714449829266
 21
2313.3174290882148
 31
0.0
  0
LINE
  5
52B8
  8
OUTLINE
  6
CONTINUOUS
 10
2314.714449829266
 20
2313.3174290882148
 30
0.0
 11
2314.714449829266
 21
2287.3174290882148
 31
0.0
  0
LINE
  5
52B9
  8
OUTLINE
  6
CONTINUOUS
 10
2314.714449829266
 20
2287.3174290882148
 30
0.0
 11
2343.714449829266
 21
2287.3174290882148
 31
0.0
  0
LINE
  5
52BA
  8
OUTLINE
  6
CONTINUOUS
 10
2343.714449829266
 20
2287.3174290882148
 30
0.0
 11
2343.714449829266
 21
1753.317429088215
 31
0.0
  0
LINE
  5
52BB
  8
OUTLINE
  6
CONTINUOUS
 10
2343.714449829266
 20
1753.317429088215
 30
0.0
 11
2314.714449829266
 21
1753.317429088215
 31
0.0
  0
LINE
  5
52BC
  8
OUTLINE
  6
CONTINUOUS
 10
2315.714449829265
 20
1753.317429088215
 30
0.0
 11
2315.714449829265
 21
2287.3174290882148
 31
0.0
  0
LINE
  5
52BD
  8
OUTLINE
  6
CONTINUOUS
 10
2314.714449829266
 20
2287.3174290882148
 30
0.0
 11
862.71444982926675
 21
2287.3174290882148
 31
0.0
  0
LINE
  5
52BE
  8
OUTLINE
  6
CONTINUOUS
 10
898.4653741867603
 20
2313.3174290882148
 30
0.0
 11
898.4653741867603
 21
2333.3174290882148
 31
0.0
  0
LINE
  5
52BF
  8
OUTLINE
  6
CONTINUOUS
 10
898.4653741867603
 20
2333.3174290882148
 30
0.0
 11
1985.065374186765
 21
2333.3174290882048
 31
0.0
  0
LINE
  5
52C0
  8
OUTLINE
  6
CONTINUOUS
 10
1985.065374186765
 20
2333.3174290882048
 30
0.0
 11
1985.065374186765
 21
2313.3174290882148
 31
0.0
  0
LINE
  5
52C2
  8
OUTLINE
  6
CONTINUOUS
 10
862.71444982926675
 20
1753.317429088215
 30
0.0
 11
862.71444982926675
 21
1727.317429088215
 31
0.0
  0
LINE
  5
52C3
  8
OUTLINE
  6
CONTINUOUS
 10
862.71444982926653
 20
1727.3174290882159
 30
0.0
 11
2314.714449829266
 21
1727.317429088215
 31
0.0
  0
LINE
  5
52C4
  8
OUTLINE
  6
CONTINUOUS
 10
2314.714449829266
 20
1727.317429088215
 30
0.0
 11
2314.714449829266
 21
1753.317429088215
 31
0.0
  0
LINE
  5
52C5
  8
OUTLINE
  6
CONTINUOUS
 10
861.71444982926687
 20
2287.3174290882148
 30
0.0
 11
833.71444982926641
 21
2287.3174290882148
 31
0.0
  0
LINE
  5
52C6
  8
OUTLINE
  6
CONTINUOUS
 10
833.71444982926641
 20
2287.3174290882148
 30
0.0
 11
833.71444982926641
 21
1753.317429088215
 31
0.0
  0
LINE
  5
52C7
  8
OUTLINE
  6
CONTINUOUS
 10
833.71444982926641
 20
1753.317429088215
 30
0.0
 11
860.71444982926585
 21
1753.317429088215
 31
0.0
  0
LINE
  5
52C9
  8
OUTLINE
  6
CONTINUOUS
 10
859.71444982920946
 20
1753.317429088215
 30
0.0
 11
2314.714449829266
 21
1753.317429088215
 31
0.0
  0
LINE
  5
52CA
  8
OUTLINE
  6
CONTINUOUS
 10
998.81738123226398
 20
1727.317429088215
 30
0.0
 11
998.81738123226546
 21
1635.317429088215
 31
0.0
  0
LINE
  5
52CB
  8
OUTLINE
  6
CONTINUOUS
 10
998.81738123226546
 20
1635.317429088215
 30
0.0
 11
1858.621518426263
 21
1635.317429088215
 31
0.0
  0
LINE
  5
52CC
  8
OUTLINE
  6
CONTINUOUS
 10
1858.621518426263
 20
1635.317429088215
 30
0.0
 11
1858.621518426263
 21
1728.317429088215
 31
0.0
  0
LINE
  5
52CD
  8
OUTLINE
  6
CONTINUOUS
 10
2017.1218537376919
 20
1635.317429088215
 30
0.0
 11
2298.5375741936891
 21
1635.317429088215
 31
0.0
  0
LINE
  5
52CE
  8
OUTLINE
  6
CONTINUOUS
 10
2286.5297139286931
 20
1636.1174290882179
 30
0.0
 11
2286.5297139286909
 21
1728.317429088215
 31
0.0
  0
LINE
  5
52CF
  8
OUTLINE
  6
CONTINUOUS
 10
2029.929714002692
 20
1636.1174290882179
 30
0.0
 11
2029.1297140026879
 21
1728.317429088215
 31
0.0
  0
LINE
  5
52D0
  8
OUTLINE
  6
CONTINUOUS
 10
835.71444982926619
 20
1191.5207520871099
 30
0.0
 11
835.71444982926619
 21
1200.5207520871111
 31
0.0
  0
LINE
  5
52D1
  8
OUTLINE
  6
CONTINUOUS
 10
835.71444982926619
 20
1200.5207520871111
 30
0.0
 11
861.71444982926585
 21
1200.5207520871111
 31
0.0
  0
LINE
  5
52D2
  8
OUTLINE
  6
CONTINUOUS
 10
861.71444982926585
 20
1200.5207520871111
 30
0.0
 11
2315.7144498292628
 21
1200.5207520871111
 31
0.0
  0
LINE
  5
52D3
  8
OUTLINE
  6
CONTINUOUS
 10
2315.7144498292628
 20
1200.5207520871111
 30
0.0
 11
2341.7144498292628
 21
1200.5207520871111
 31
0.0
  0
LINE
  5
52D4
  8
OUTLINE
  6
CONTINUOUS
 10
2341.7144498292628
 20
1200.5207520871111
 30
0.0
 11
2341.7144498292628
 21
1191.5207520871099
 31
0.0
  0
LINE
  5
52D5
  8
OUTLINE
  6
CONTINUOUS
 10
2315.7144498292628
 20
1200.5207520871111
 30
0.0
 11
2315.7144498292628
 21
733.52075208711074
 31
0.0
  0
LINE
  5
52D6
  8
OUTLINE
  6
CONTINUOUS
 10
2315.7144498292628
 20
733.52075208711074
 30
0.0
 11
2340.7144498292701
 21
733.52075208711074
 31
0.0
  0
LINE
  5
52D7
  8
OUTLINE
  6
CONTINUOUS
 10
2340.7144498292701
 20
733.52075208711074
 30
0.0
 11
2340.7144498292701
 21
725.52075208711074
 31
0.0
  0
LINE
  5
52D8
  8
OUTLINE
  6
CONTINUOUS
 10
2315.7144498292628
 20
733.52075208711074
 30
0.0
 11
2316.0346977631498
 21
702.52075208711119
 31
0.0
  0
LINE
  5
52DA
  8
OUTLINE
  6
CONTINUOUS
 10
862.72477985661544
 20
701.52080543962984
 30
0.0
 11
862.72477985661544
 21
702.52075208710892
 31
0.0
  0
LINE
  5
52DB
  8
OUTLINE
  6
CONTINUOUS
 10
862.72477985661544
 20
695.52075208711074
 30
0.0
 11
842.71444982926391
 21
695.52075208711074
 31
0.0
  0
LINE
  5
52DC
  8
OUTLINE
  6
CONTINUOUS
 10
842.71444982926391
 20
695.52075208711074
 30
0.0
 11
842.71444982926391
 21
714.52075208711085
 31
0.0
  0
LINE
  5
52DD
  8
OUTLINE
  6
CONTINUOUS
 10
842.71444982926391
 20
714.52075208711085
 30
0.0
 11
862.71444982926539
 21
714.52075208710835
 31
0.0
  0
LINE
  5
52DE
  8
OUTLINE
  6
CONTINUOUS
 10
862.71444982926539
 20
721.52075208710653
 30
0.0
 11
862.71444982926585
 21
733.52075208711074
 31
0.0
  0
LINE
  5
52DF
  8
OUTLINE
  6
CONTINUOUS
 10
862.71444982926585
 20
733.52075208711074
 30
0.0
 11
836.71444982926562
 21
733.52075208711074
 31
0.0
  0
LINE
  5
52E0
  8
OUTLINE
  6
CONTINUOUS
 10
836.71444982926562
 20
733.52075208711074
 30
0.0
 11
836.71444982926562
 21
725.52075208711074
 31
0.0
  0
LINE
  5
52E1
  8
OUTLINE
  6
CONTINUOUS
 10
862.71444982926585
 20
725.52075208711074
 30
0.0
 11
2314.714449829271
 21
725.52075208711244
 31
0.0
  0
LINE
  5
52E2
  8
OUTLINE
  6
CONTINUOUS
 10
2315.7144498292628
 20
733.52075208711074
 30
0.0
 11
862.71444982926585
 21
733.52075208728115
 31
0.0
  0
LINE
  5
52E3
  8
OUTLINE
  6
CONTINUOUS
 10
862.71444982926539
 20
721.52075208710653
 30
0.0
 11
862.71444982926255
 21
694.52075208711119
 31
0.0
  0
LINE
  5
52E9
  8
OUTLINE
  6
CONTINUOUS
 10
2827.4843302132772
 20
1191.5207520871099
 30
0.0
 11
2827.4843302132772
 21
1200.5207520871111
 31
0.0
  0
LINE
  5
52EA
  8
OUTLINE
  6
CONTINUOUS
 10
2827.4843302132772
 20
1200.5207520871111
 30
0.0
 11
2853.4843302132772
 21
1200.5207520871111
 31
0.0
  0
LINE
  5
52EB
  8
OUTLINE
  6
CONTINUOUS
 10
2853.4843302132772
 20
1200.5207520871111
 30
0.0
 11
2853.4843302132772
 21
733.52075208711153
 31
0.0
  0
LINE
  5
52EC
  8
OUTLINE
  6
CONTINUOUS
 10
2853.4843302132772
 20
733.52075208711153
 30
0.0
 11
2827.5343302132769
 21
733.52075208711153
 31
0.0
  0
LINE
  5
52ED
  8
OUTLINE
  6
CONTINUOUS
 10
2827.5343302132769
 20
733.52075208711153
 30
0.0
 11
2827.5343302132769
 21
725.52075208711187
 31
0.0
  0
LINE
  5
52EE
  8
OUTLINE
  6
CONTINUOUS
 10
2853.4843302132772
 20
733.52075208711153
 30
0.0
 11
2835.9130370499211
 21
733.52075208711153
 31
0.0
  0
LINE
  5
52EF
  8
OUTLINE
  6
CONTINUOUS
 10
2853.4843302132772
 20
733.52075208711165
 30
0.0
 11
2853.4843302132772
 21
694.52075208711119
 31
0.0
  0
LINE
  5
52F0
  8
OUTLINE
  6
CONTINUOUS
 10
2853.4843302132772
 20
702.52075208711153
 30
0.0
 11
3387.5343302132769
 21
702.52075208711119
 31
0.0
  0
LINE
  5
52F1
  8
OUTLINE
  6
CONTINUOUS
 10
3387.5343302132769
 20
694.52075208711119
 30
0.0
 11
3387.5343302132769
 21
733.52075208711153
 31
0.0
  0
LINE
  5
52F2
  8
OUTLINE
  6
CONTINUOUS
 10
3387.5343302132769
 20
733.52075208711153
 30
0.0
 11
3413.534330213276
 21
733.52075208711153
 31
0.0
  0
LINE
  5
52F3
  8
OUTLINE
  6
CONTINUOUS
 10
3413.534330213276
 20
733.52075208711153
 30
0.0
 11
3413.534330213276
 21
725.52075208711187
 31
0.0
  0
LINE
  5
52F5
  8
OUTLINE
  6
CONTINUOUS
 10
3413.534330213276
 20
733.52075208711153
 30
0.0
 11
3387.4843302132758
 21
733.52075208711153
 31
0.0
  0
LINE
  5
52F6
  8
OUTLINE
  6
CONTINUOUS
 10
3387.4843302132758
 20
733.52075208711153
 30
0.0
 11
3387.484330213274
 21
1200.5207520871111
 31
0.0
  0
LINE
  5
52F7
  8
OUTLINE
  6
CONTINUOUS
 10
3387.484330213274
 20
1200.5207520871111
 30
0.0
 11
3413.4843302132781
 21
1200.5207520871111
 31
0.0
  0
LINE
  5
52F8
  8
OUTLINE
  6
CONTINUOUS
 10
3413.4843302132781
 20
1200.5207520871111
 30
0.0
 11
3413.484330213274
 21
1191.5207520871099
 31
0.0
  0
LINE
  5
52F9
  8
OUTLINE
  6
CONTINUOUS
 10
2854.4843302132758
 20
1200.5207520871111
 30
0.0
 11
3387.4843302132758
 21
1200.5207520871111
 31
0.0
  0
LINE
  5
52FA
  8
OUTLINE
  6
CONTINUOUS
 10
3387.4843302132758
 20
1114.6207520871119
 30
0.0
 11
3437.4843302132781
 21
1114.6207520871119
 31
0.0
  0
LINE
  5
52FB
  8
OUTLINE
  6
CONTINUOUS
 10
3437.4843302132781
 20
1114.6207520871119
 30
0.0
 11
3437.4843302132781
 21
749.82075208711137
 31
0.0
  0
LINE
  5
52FC
  8
OUTLINE
  6
CONTINUOUS
 10
3437.4843302132781
 20
749.82075208711137
 30
0.0
 11
3387.4843302132758
 21
749.82075208711137
 31
0.0
  0
LINE
  5
52FD
  8
OUTLINE
  6
CONTINUOUS
 10
2853.4843302132772
 20
1105.4259456188199
 30
0.0
 11
2735.4843302132772
 21
1105.4259456188199
 31
0.0
  0
LINE
  5
52FE
  8
OUTLINE
  6
CONTINUOUS
 10
2735.4843302132772
 20
1105.4259456188199
 30
0.0
 11
2735.4843302132772
 21
880.83939695381935
 31
0.0
  0
LINE
  5
52FF
  8
OUTLINE
  6
CONTINUOUS
 10
2735.4843302132772
 20
1091.4046665019559
 30
0.0
 11
2853.4843302132772
 21
1091.4046665019559
 31
0.0
  0
POLYLINE
  5
5300
  8
OUTLINE
  6
CONTINUOUS
 66
     1
 10
0.0
 20
0.0
 30
0.0
 70
     1
  0
VERTEX
  5
6B4B
  8
OUTLINE
  6
CONTINUOUS
 10
2969.4843302132772
 20
764.52075208711165
 30
0.0
  0
VERTEX
  5
6B4C
  8
OUTLINE
  6
CONTINUOUS
 10
3286.4843302132772
 20
764.52075208711165
 30
0.0
  0
VERTEX
  5
6B4D
  8
OUTLINE
  6
CONTINUOUS
 10
3286.4843302132772
 20
1115.5207520871099
 30
0.0
  0
VERTEX
  5
6B4E
  8
OUTLINE
  6
CONTINUOUS
 10
2969.4843302132772
 20
1115.5207520871099
 30
0.0
  0
SEQEND
  5
6B4F
  8
OUTLINE
  6
CONTINUOUS
  0
LINE
  5
5314
  8
OUTLINE
  6
CONTINUOUS
 10
861.71444982926585
 20
1200.5207520871111
 30
0.0
 11
861.71444982921139
 21
733.52075208728115
 31
0.0
  0
CIRCLE
  5
5331
  8
OUTLINE
 10
2878.9843302132781
 20
997.02075208711244
 30
0.0
 40
3.5
  0
LINE
  5
5332
  8
OUTLINE
  6
CONTINUOUS
 10
2853.9843302132781
 20
1007.2810049471331
 30
0.0
 11
2903.9843302132758
 21
1007.2810049471331
 31
0.0
  0
LINE
  5
5333
  8
OUTLINE
 10
2903.9843302132758
 20
1007.2810049471331
 30
0.0
 11
2853.9843302132781
 21
1007.2810049471331
 31
0.0
  0
LINE
  5
5334
  8
OUTLINE
 10
2901.4843302132772
 20
1007.2810049471331
 30
0.0
 11
2901.4843302132772
 21
1077.2810049471329
 31
0.0
  0
LINE
  5
5335
  8
OUTLINE
 10
2903.9843302132758
 20
1007.2810049471331
 30
0.0
 11
2903.9843302132758
 21
1077.2810049471329
 31
0.0
  0
LINE
  5
5336
  8
OUTLINE
 10
2853.9843302132781
 20
1007.2810049471331
 30
0.0
 11
2853.9843302132781
 21
1077.2810049471329
 31
0.0
  0
LINE
  5
5337
  8
OUTLINE
 10
2856.4843302132772
 20
1007.2810049471331
 30
0.0
 11
2856.4843302132772
 21
1077.2810049471329
 31
0.0
  0
LINE
  5
5338
  8
OUTLINE
  6
CONTINUOUS
 10
2853.9843302132781
 20
1077.2810049471329
 30
0.0
 11
2903.9843302132758
 21
1077.2810049471329
 31
0.0
  0
LINE
  5
5339
  8
OUTLINE
 10
2878.9843302132781
 20
1007.2810049471331
 30
0.0
 11
2878.9843302132781
 21
1000.2810049471331
 31
0.0
  0
LINE
  5
533A
  8
OUTLINE
 10
2860.4843302132772
 20
1004.281004947134
 30
0.0
 11
2860.4843302132772
 21
1000.2810049471331
 31
0.0
  0
LINE
  5
533B
  8
OUTLINE
 10
2897.4843302132772
 20
1004.281004947134
 30
0.0
 11
2897.4843302132772
 21
1000.2810049471331
 31
0.0
  0
LINE
  5
533C
  8
OUTLINE
 10
2860.4843302132772
 20
1000.2810049471331
 30
0.0
 11
2897.4843302132772
 21
1000.2810049471331
 31
0.0
  0
CIRCLE
  5
533D
  8
OUTLINE
 10
3363.9843302132758
 20
997.02075208711244
 30
0.0
 40
3.5
  0
LINE
  5
533E
  8
OUTLINE
  6
CONTINUOUS
 10
3388.9843302132758
 20
1007.2810049471331
 30
0.0
 11
3338.9843302132758
 21
1007.2810049471331
 31
0.0
  0
LINE
  5
533F
  8
OUTLINE
 10
3338.9843302132758
 20
1007.2810049471331
 30
0.0
 11
3388.9843302132758
 21
1007.2810049471331
 31
0.0
  0
LINE
  5
5340
  8
OUTLINE
 10
3341.4843302132772
 20
1007.2810049471331
 30
0.0
 11
3341.4843302132772
 21
1077.2810049471329
 31
0.0
  0
LINE
  5
5341
  8
OUTLINE
 10
3338.9843302132758
 20
1007.2810049471331
 30
0.0
 11
3338.9843302132758
 21
1077.2810049471329
 31
0.0
  0
LINE
  5
5342
  8
OUTLINE
 10
3388.9843302132758
 20
1007.2810049471331
 30
0.0
 11
3388.9843302132758
 21
1077.2810049471329
 31
0.0
  0
LINE
  5
5343
  8
OUTLINE
 10
3386.4843302132758
 20
1007.2810049471331
 30
0.0
 11
3386.4843302132758
 21
1077.2810049471329
 31
0.0
  0
LINE
  5
5344
  8
OUTLINE
  6
CONTINUOUS
 10
3388.9843302132758
 20
1077.2810049471329
 30
0.0
 11
3338.9843302132758
 21
1077.2810049471329
 31
0.0
  0
LINE
  5
5345
  8
OUTLINE
 10
3363.9843302132758
 20
1007.2810049471331
 30
0.0
 11
3363.9843302132758
 21
1000.2810049471331
 31
0.0
  0
LINE
  5
5346
  8
OUTLINE
 10
3382.4843302132758
 20
1004.281004947134
 30
0.0
 11
3382.4843302132758
 21
1000.2810049471331
 31
0.0
  0
LINE
  5
5347
  8
OUTLINE
 10
3345.4843302132772
 20
1004.281004947134
 30
0.0
 11
3345.4843302132772
 21
1000.2810049471331
 31
0.0
  0
LINE
  5
5348
  8
OUTLINE
 10
3382.4843302132758
 20
1000.2810049471331
 30
0.0
 11
3345.4843302132772
 21
1000.2810049471331
 31
0.0
  0
CIRCLE
  5
7FAC
  8
OUTLINE
 10
3009.4843302132758
 20
1154.5207520871099
 30
0.0
 40
21.5
  0
CIRCLE
  5
7FAD
  8
OUTLINE
 10
2934.4843302132781
 20
1154.5207520871099
 30
0.0
 40
21.5
  0
LINE
  5
7FB7
  8
DIM
  6
CONTINUOUS
 10
988.81738123226592
 20
1635.317429088215
 30
0.0
 11
651.54168929733476
 21
1635.317429088215
 31
0.0
  0
LINE
  5
7FB8
  8
DIM
  6
CONTINUOUS
 10
888.4653741867603
 20
2333.3174290882148
 30
0.0
 11
651.5416892973351
 21
2333.3174290882162
 31
0.0
  0
LINE
  5
7FB9
  8
DIM
  6
CONTINUOUS
 10
651.72168929733505
 20
1665.317429088215
 30
0.0
 11
651.72168929733505
 21
1884.317429088215
 31
0.0
  0
LINE
  5
7FBA
  8
DIM
  6
CONTINUOUS
 10
651.72168929733505
 20
2303.3174290882148
 30
0.0
 11
651.72168929733505
 21
2084.3174290882162
 31
0.0
  0
SOLID
  5
7FBB
  8
DIM
  6
CONTINUOUS
 10
646.72168929733505
 20
1665.317429088215
 30
0.0
 11
656.72168929733505
 21
1665.317429088215
 31
0.0
 12
651.72168929733505
 22
1635.317429088215
 32
0.0
 13
651.72168929733505
 23
1635.317429088215
 33
0.0
  0
SOLID
  5
7FBC
  8
DIM
  6
CONTINUOUS
 10
646.72168929733505
 20
2303.3174290882148
 30
0.0
 11
656.72168929733505
 21
2303.3174290882148
 31
0.0
 12
651.72168929733505
 22
2333.3174290882162
 32
0.0
 13
651.72168929733505
 23
2333.3174290882162
 33
0.0
  0
INSERT
  5
7FBD
  8
DIM
  6
CONTINUOUS
  2
*U16
 10
0.0
 20
85.879172800194269
 30
0.0
  0
LINE
  5
7FC8
  8
DIM
 10
3130.5847074818221
 20
949.9308273573555
 30
0.0
 11
3150.4288862746248
 21
949.9308273573555
 31
0.0
  0
LINE
  5
7FC9
  8
DIM
 10
3130.5847074818221
 20
933.59427617417316
 30
0.0
 11
3130.5847074818221
 21
949.9308273573555
 31
0.0
  0
LINE
  5
7FCA
  8
DIM
 10
3093.7279157563971
 20
957.52922325650786
 30
0.0
 11
3130.5847074818221
 21
933.59427617417316
 31
0.0
  0
LINE
  5
7FCB
  8
DIM
 10
3150.4288862746248
 20
965.12761915566273
 30
0.0
 11
3150.4288862746248
 21
949.9308273573555
 31
0.0
  0
LINE
  5
7FCC
  8
DIM
 10
3130.5847074818221
 20
965.12761915566273
 30
0.0
 11
3150.4288862746248
 21
965.12761915566273
 31
0.0
  0
LINE
  5
7FCD
  8
DIM
 10
3130.5847074818221
 20
981.46417033884234
 30
0.0
 11
3130.5847074818221
 21
965.12761915566273
 31
0.0
  0
LINE
  5
7FCE
  8
DIM
 10
3093.7279157563971
 20
957.52922325650786
 30
0.0
 11
3130.5847074818221
 21
981.46417033884234
 31
0.0
  0
TEXT
  5
7FE1
  8
DIM
  6
CONTINUOUS
 10
3535.7115078185529
 20
1132.8564663728259
 30
0.0
 40
30.0
  1
85
 50
90.0
  7
TITLE3
  0
LINE
  5
7FE4
  8
DIM
  6
CONTINUOUS
 10
3019.4843302132772
 20
1154.5207520871099
 30
0.0
 11
3110.0833382401061
 21
1154.5207520871099
 31
0.0
  0
LINE
  5
7FE5
  8
DIM
  6
CONTINUOUS
 10
3019.4843302132772
 20
1200.5207520871111
 30
0.0
 11
3110.0833382401061
 21
1200.5207520871111
 31
0.0
  0
LINE
  5
7FE6
  8
DIM
  6
CONTINUOUS
 10
3109.9033382401021
 20
1124.5207520871099
 30
0.0
 11
3109.9033382401021
 21
1094.5207520871099
 31
0.0
  0
LINE
  5
7FE7
  8
DIM
  6
CONTINUOUS
 10
3109.9033382401021
 20
1230.5207520871111
 30
0.0
 11
3109.9033382401021
 21
1260.5207520871099
 31
0.0
  0
SOLID
  5
7FE8
  8
DIM
  6
CONTINUOUS
 10
3104.903338240103
 20
1124.5207520871099
 30
0.0
 11
3114.903338240103
 21
1124.5207520871099
 31
0.0
 12
3109.9033382401021
 22
1154.5207520871099
 32
0.0
 13
3109.9033382401021
 23
1154.5207520871099
 33
0.0
  0
SOLID
  5
7FE9
  8
DIM
  6
CONTINUOUS
 10
3104.903338240103
 20
1230.5207520871111
 30
0.0
 11
3114.903338240103
 21
1230.5207520871111
 31
0.0
 12
3109.9033382401021
 22
1200.5207520871111
 32
0.0
 13
3109.9033382401021
 23
1200.5207520871111
 33
0.0
  0
INSERT
  5
7FEA
  8
DIM
  6
CONTINUOUS
  2
*U18
 10
46.545236478665167
 20
-16.131794210631369
 30
0.0
  0
TEXT
  5
7FEC
  8
DIM
  6
CONTINUOUS
 62
    50
 10
1205.3823964165081
 20
1343.3406297735439
 30
0.0
 40
30.0
  1
1548 OPTIONAL SPRING MTG. CTRS
  7
TITLE3
  0
LINE
  5
7FEE
  8
DIM
 10
1651.800459515571
 20
1832.1526194485471
 30
0.0
 11
1651.800459515571
 21
1851.99679824135
 31
0.0
  0
LINE
  5
7FEF
  8
DIM
 10
1668.137010698752
 20
1832.1526194485471
 30
0.0
 11
1651.800459515571
 21
1832.1526194485471
 31
0.0
  0
LINE
  5
7FF0
  8
DIM
 10
1644.2020636164179
 20
1795.295827723121
 30
0.0
 11
1668.137010698752
 21
1832.1526194485471
 31
0.0
  0
LINE
  5
7FF1
  8
DIM
 10
1636.6036677172631
 20
1851.99679824135
 30
0.0
 11
1651.800459515571
 21
1851.99679824135
 31
0.0
  0
LINE
  5
7FF2
  8
DIM
 10
1636.6036677172631
 20
1832.1526194485471
 30
0.0
 11
1636.6036677172631
 21
1851.99679824135
 31
0.0
  0
LINE
  5
7FF3
  8
DIM
 10
1620.2671165340839
 20
1832.1526194485471
 30
0.0
 11
1636.6036677172631
 21
1832.1526194485471
 31
0.0
  0
LINE
  5
7FF4
  8
DIM
 10
1644.2020636164179
 20
1795.295827723121
 30
0.0
 11
1620.2671165340839
 21
1832.1526194485471
 31
0.0
  0
LINE
  5
7FF5
  8
DIM
 10
1086.227901925902
 20
1832.1526194485471
 30
0.0
 11
1086.227901925902
 21
1851.99679824135
 31
0.0
  0
LINE
  5
7FF6
  8
DIM
 10
1102.5644531090829
 20
1832.1526194485471
 30
0.0
 11
1086.227901925902
 21
1832.1526194485471
 31
0.0
  0
LINE
  5
7FF7
  8
DIM
 10
1078.6295060267489
 20
1795.295827723121
 30
0.0
 11
1102.5644531090829
 21
1832.1526194485471
 31
0.0
  0
LINE
  5
7FF8
  8
DIM
 10
1071.031110127594
 20
1851.99679824135
 30
0.0
 11
1086.227901925902
 21
1851.99679824135
 31
0.0
  0
LINE
  5
7FF9
  8
DIM
 10
1071.031110127594
 20
1832.1526194485471
 30
0.0
 11
1071.031110127594
 21
1851.99679824135
 31
0.0
  0
LINE
  5
7FFA
  8
DIM
 10
1054.694558944414
 20
1832.1526194485471
 30
0.0
 11
1071.031110127594
 21
1832.1526194485471
 31
0.0
  0
LINE
  5
7FFB
  8
DIM
 10
1078.6295060267489
 20
1795.295827723121
 30
0.0
 11
1054.694558944414
 21
1832.1526194485471
 31
0.0
  0
LINE
  5
801E
  8
OUTLINE
 10
3653.8355899580938
 20
257.78296107609549
 30
0.0
 11
573.44366753791189
 21
257.78296107609549
 31
0.0
  0
LINE
  5
801F
  8
OUTLINE
 10
573.44366753791189
 20
257.78296107609549
 30
0.0
 11
573.44366753791189
 21
2601.4883006412861
 31
0.0
  0
LINE
  5
8020
  8
OUTLINE
 10
573.44366753791189
 20
2601.4883006412861
 30
0.0
 11
3653.8355899580938
 21
2601.4883006412861
 31
0.0
  0
LINE
  5
8021
  8
OUTLINE
 10
3653.8355899580938
 20
2601.4883006412861
 30
0.0
 11
3653.8355899580938
 21
257.78296107609549
 31
0.0
  0
INSERT
  5
8022
  8
TEXT
  2
NEW_BLOCK
 10
2817.5999824798282
 20
2145.618812228015
 30
0.0
 41
0.8399999999996906
 42
0.8400000000001455
 43
0.84
  0
TEXT
  5
8023
  8
TEXT
 10
2703.4600437672939
 20
511.3916103567953
 30
0.0
 40
50.0
  1
temperzone HWP 170
  7
TITLE5
 72
     1
 11
3108.2219485291989
 21
511.3916103567953
 31
0.0
  0
TEXT
  5
8024
  8
TEXT
 10
3207.461112741003
 20
320.41858822766523
 30
0.0
 40
30.0
  1
HWP 170
 41
1.363712017963431
  7
TITLE3
 72
     5
 11
3472.4108762310411
 21
320.41858822766523
 31
0.0
  0
TEXT
  5
8025
  8
OVERLAY-A3
 10
2611.1241341020591
 20
368.61417493619638
 30
0.0
 40
24.0
  1
Date
  7
SIMPLEX
  0
TEXT
  5
8026
  8
OVERLAY-A3
 10
3509.946782331539
 20
387.2862630995067
 30
0.0
 40
24.0
  1
Revision
 41
0.7812095035934742
  7
SIMPLEX
 72
     5
 11
3615.2984639590022
 21
387.2862630995067
 31
0.0
  0
LINE
  5
8027
  8
OVERLAY-A3
 10
3498.3269399480992
 20
278.62545392441262
 30
0.0
 11
3498.3269399480992
 21
426.05161678464191
 31
0.0
  0
LINE
  5
8028
  8
OVERLAY-A3
 10
2583.1871194150849
 20
595.12559453046356
 30
0.0
 11
2583.1871194150849
 21
278.62545392441262
 31
0.0
  0
LINE
  5
8029
  8
OVERLAY-A3
 10
3180.7492679710308
 20
278.62545392441262
 30
0.0
 11
3180.7492679710308
 21
426.05161678464191
 31
0.0
  0
LINE
  5
802A
  8
OVERLAY-A3
 10
3180.7492679710308
 20
351.09556034555931
 30
0.0
 11
2583.1871194150849
 21
351.09556034555931
 31
0.0
  0
LINE
  5
802B
  8
OVERLAY-A3
 10
3625.4110551957792
 20
426.05161678464191
 30
0.0
 11
2583.1871194150849
 21
426.05161678464191
 31
0.0
  0
LINE
  5
802C
  8
OVERLAY-A3
 10
2583.1871194150849
 20
278.62545392441262
 30
0.0
 11
3625.1135480174289
 21
278.62545392441262
 31
0.0
  0
LINE
  5
802D
  8
OVERLAY-A3
 10
3625.1135480174289
 20
595.12559453046356
 30
0.0
 11
2583.1871194150849
 21
595.12559453046356
 31
0.0
  0
TEXT
  5
802E
  8
OVERLAY-A3
 10
2608.318809061047
 20
305.70544914145319
 30
0.0
 40
20.0
  1
Scale
 41
1.3701747965659661
  7
SIMPLEX
 72
     5
 11
2708.7982941425512
 21
305.70544914145319
 31
0.0
  0
TEXT
  5
802F
  8
OVERLAY-A3
 10
3238.6947135587361
 20
386.67639258280519
 30
0.0
 40
20.0
  1
Drawing No.
  7
SIMPLEX
 72
     2
 11
3412.9804278444499
 21
386.67639258280519
 31
0.0
  0
TEXT
  5
8030
  8
TEXT
 10
2714.5390906198531
 20
367.78296107609538
 30
0.0
 40
25.0
  1
08.05.08
 41
1.0029850746268649
  7
TITLE3
 72
     5
 11
2874.5390906198531
 21
367.78296107609538
 31
0.0
  0
TEXT
  5
8031
  8
TEXT
 10
2764.8790347331278
 20
305.2815738089048
 30
0.0
 40
25.0
  1
1:10
  7
TITLE3
  0
LINE
  5
8032
  8
OUTLINE
  6
CONTINUOUS
 10
2853.4843302132772
 20
733.52075208711153
 30
0.0
 11
3387.5343302132769
 21
733.52075208711153
 31
0.0
  0
LINE
  5
8033
  8
OUTLINE
  6
CONTINUOUS
 10
2853.4843302132772
 20
725.52075208711187
 30
0.0
 11
3387.5343302132769
 21
725.52075208711187
 31
0.0
  0
LINE
  5
8352
  8
DIM
  6
CONTINUOUS
 10
2326.7144498292678
 20
1727.317429088215
 30
0.0
 11
2527.4195893740389
 21
1727.317429088215
 31
0.0
  0
LINE
  5
8353
  8
DIM
  6
CONTINUOUS
 10
2326.7144498292678
 20
2313.3174290882148
 30
0.0
 11
2527.4195893740389
 21
2313.3174290882148
 31
0.0
  0
LINE
  5
863E
  8
OUTLINE
  6
CONTINUOUS
 10
2735.4843302132772
 20
773.40466650195663
 30
0.0
 11
2853.4843302132772
 21
773.40466650195663
 31
0.0
  0
LINE
  5
8642
  8
OUTLINE
  6
CONTINUOUS
 10
1998.788955459122
 20
773.40466650195663
 30
0.0
 11
2314.3874194478999
 21
773.40466650195663
 31
0.0
  0
LINE
  5
8643
  8
OUTLINE
  6
CONTINUOUS
 10
2314.3874194478999
 20
773.40466650195663
 30
0.0
 11
2314.3874194478999
 21
1091.4046665019559
 31
0.0
  0
LINE
  5
8644
  8
OUTLINE
  6
CONTINUOUS
 10
2314.3874194478999
 20
1091.4046665019559
 30
0.0
 11
1998.788955459122
 21
1091.4046665019559
 31
0.0
  0
LINE
  5
8645
  8
OUTLINE
  6
CONTINUOUS
 10
1998.788955459122
 20
1091.4046665019559
 30
0.0
 11
1998.788955459122
 21
773.40466650195663
 31
0.0
  0
LINE
  5
8648
  8
OUTLINE
  6
HIDDEN
 10
2853.4843302132772
 20
880.83939695381935
 30
0.0
 11
2735.4843302132772
 21
880.83939695381935
 31
0.0
  0
LINE
  5
8649
  8
OUTLINE
  6
CONTINUOUS
 10
2735.4843302132772
 20
1075.272872291325
 30
0.0
 11
2735.4843302132772
 21
773.40466650195663
 31
0.0
  0
LINE
  5
864A
  8
DIM
  6
CONTINUOUS
 10
2725.4843302132772
 20
1105.4259456188199
 30
0.0
 11
2666.2509838459118
 21
1105.4259456188199
 31
0.0
  0
TEXT
  5
8651
  8
DIM
  6
CONTINUOUS
 10
2646.6505545446671
 20
953.84695700060524
 30
0.0
 40
30.0
  1
224
 50
90.0
  7
TITLE3
  0
LINE
  5
865C
  8
DIM
  6
CONTINUOUS
 10
2725.4843302132772
 20
1105.4259456188199
 30
0.0
 11
2666.2509838459118
 21
1105.4259456188199
 31
0.0
  0
LINE
  5
865D
  8
DIM
  6
CONTINUOUS
 10
2817.4843302132772
 20
1200.5207520871111
 30
0.0
 11
2666.2509838459118
 21
1200.5207520871111
 31
0.0
  0
LINE
  5
865E
  8
DIM
  6
CONTINUOUS
 10
2666.4309838459121
 20
1135.4259456188199
 30
0.0
 11
2666.4309838459121
 21
1170.5207520871111
 31
0.0
  0
SOLID
  5
8660
  8
DIM
  6
CONTINUOUS
 10
2661.4309838459121
 20
1135.4259456188199
 30
0.0
 11
2671.4309838459121
 21
1135.4259456188199
 31
0.0
 12
2666.4309838459121
 22
1105.4259456188199
 32
0.0
 13
2666.4309838459121
 23
1105.4259456188199
 33
0.0
  0
SOLID
  5
8661
  8
DIM
  6
CONTINUOUS
 10
2661.4309838459121
 20
1170.5207520871111
 30
0.0
 11
2671.4309838459121
 21
1170.5207520871111
 31
0.0
 12
2666.4309838459121
 22
1200.5207520871111
 32
0.0
 13
2666.4309838459121
 23
1200.5207520871111
 33
0.0
  0
INSERT
  5
8662
  8
DIM
  6
CONTINUOUS
  2
*U22
 10
0.0
 20
0.0
 30
0.0
  0
LINE
  5
8663
  8
DIM
  6
CONTINUOUS
 10
2817.5343302132769
 20
733.52075208711153
 30
0.0
 11
2565.4201464716521
 21
733.52075208711165
 31
0.0
  0
LINE
  5
8664
  8
DIM
  6
CONTINUOUS
 10
2817.5343302132769
 20
1200.5207520871111
 30
0.0
 11
2565.4201464716521
 21
1200.5207520871111
 31
0.0
  0
LINE
  5
8665
  8
DIM
  6
CONTINUOUS
 10
2565.6001464716519
 20
763.52075208711165
 30
0.0
 11
2565.6001464716519
 21
923.44932351568286
 31
0.0
  0
LINE
  5
8666
  8
DIM
  6
CONTINUOUS
 10
2565.6001464716519
 20
1170.5207520871111
 30
0.0
 11
2565.6001464716519
 21
1010.59218065854
 31
0.0
  0
SOLID
  5
8667
  8
DIM
  6
CONTINUOUS
 10
2560.6001464716519
 20
763.52075208711165
 30
0.0
 11
2570.600146471651
 21
763.52075208711165
 31
0.0
 12
2565.6001464716519
 22
733.52075208711165
 32
0.0
 13
2565.6001464716519
 23
733.52075208711165
 33
0.0
  0
SOLID
  5
8668
  8
DIM
  6
CONTINUOUS
 10
2560.6001464716519
 20
1170.5207520871111
 30
0.0
 11
2570.6001464716519
 21
1170.5207520871111
 31
0.0
 12
2565.6001464716519
 22
1200.5207520871111
 32
0.0
 13
2565.6001464716519
 23
1200.5207520871111
 33
0.0
  0
INSERT
  5
8669
  8
DIM
  6
CONTINUOUS
  2
*U23
 10
0.0
 20
0.0
 30
0.0
  0
LINE
  5
8670
  8
OUTLINE
  6
CONTINUOUS
 10
998.80738125926428
 20
879.64353342744016
 30
0.0
 11
1858.621518399262
 21
879.64353342744016
 31
0.0
  0
LINE
  5
8671
  8
OUTLINE
  6
CONTINUOUS
 10
1858.621518399262
 20
879.64353342744016
 30
0.0
 11
1858.621518399262
 21
1103.266807761436
 31
0.0
  0
LINE
  5
8672
  8
OUTLINE
  6
CONTINUOUS
 10
1858.621518399262
 20
1103.266807761436
 30
0.0
 11
998.80738125926428
 21
1103.266807761436
 31
0.0
  0
LINE
  5
8673
  8
OUTLINE
  6
CONTINUOUS
 10
998.80738125926428
 20
1103.266807761436
 30
0.0
 11
998.80738125926428
 21
879.64353342744016
 31
0.0
  0
LINE
  5
8676
  8
DIM
  6
CONTINUOUS
 10
2374.714449829266
 20
1777.817429088215
 30
0.0
 11
2427.7369462165329
 21
1777.817429088215
 31
0.0
  0
LINE
  5
8677
  8
DIM
  6
CONTINUOUS
 10
2374.714449829266
 20
2262.8174290882148
 30
0.0
 11
2427.7369462165329
 21
2262.8174290882148
 31
0.0
  0
LINE
  5
8678
  8
DIM
  6
CONTINUOUS
 10
2427.556946216534
 20
1807.817429088215
 30
0.0
 11
2427.556946216534
 21
1976.7460005167859
 31
0.0
  0
LINE
  5
8679
  8
DIM
  6
CONTINUOUS
 10
2427.556946216534
 20
2232.8174290882148
 30
0.0
 11
2427.556946216534
 21
2063.8888576596428
 31
0.0
  0
SOLID
  5
867A
  8
DIM
  6
CONTINUOUS
 10
2422.5569462165331
 20
1807.817429088215
 30
0.0
 11
2432.5569462165331
 21
1807.817429088215
 31
0.0
 12
2427.556946216534
 22
1777.817429088215
 32
0.0
 13
2427.556946216534
 23
1777.817429088215
 33
0.0
  0
SOLID
  5
867B
  8
DIM
  6
CONTINUOUS
 10
2422.5569462165331
 20
2232.8174290882148
 30
0.0
 11
2432.5569462165331
 21
2232.8174290882148
 31
0.0
 12
2427.556946216534
 22
2262.8174290882148
 32
0.0
 13
2427.556946216534
 23
2262.8174290882148
 33
0.0
  0
INSERT
  5
867C
  8
DIM
  6
CONTINUOUS
  2
*U24
 10
0.0
 20
85.879172800194269
 30
0.0
  0
LINE
  5
867D
  8
DIM
  6
CONTINUOUS
 10
2513.0216518180009
 20
1727.317429088215
 30
0.0
 11
2510.1891238054141
 21
1727.317429088215
 31
0.0
  0
LINE
  5
867E
  8
DIM
  6
CONTINUOUS
 10
2513.0216518180009
 20
2313.3174290882148
 30
0.0
 11
2510.1891238054141
 21
2313.3174290882148
 31
0.0
  0
LINE
  5
867F
  8
DIM
  6
CONTINUOUS
 10
2510.0091238054142
 20
1757.317429088215
 30
0.0
 11
2510.0091238054142
 21
1977.4602862310719
 31
0.0
  0
LINE
  5
8680
  8
DIM
  6
CONTINUOUS
 10
2510.0091238054142
 20
2283.3174290882148
 30
0.0
 11
2510.0091238054142
 21
2063.1745719453579
 31
0.0
  0
SOLID
  5
8681
  8
DIM
  6
CONTINUOUS
 10
2505.0091238054151
 20
1757.317429088215
 30
0.0
 11
2515.0091238054142
 21
1757.317429088215
 31
0.0
 12
2510.0091238054142
 22
1727.317429088215
 32
0.0
 13
2510.0091238054142
 23
1727.317429088215
 33
0.0
  0
SOLID
  5
8682
  8
DIM
  6
CONTINUOUS
 10
2505.0091238054151
 20
2283.3174290882148
 30
0.0
 11
2515.0091238054142
 21
2283.3174290882148
 31
0.0
 12
2510.0091238054142
 22
2313.3174290882148
 32
0.0
 13
2510.0091238054142
 23
2313.3174290882148
 33
0.0
  0
INSERT
  5
8683
  8
DIM
  6
CONTINUOUS
  2
*U25
 10
0.0
 20
85.879172800194269
 30
0.0
  0
LINE
  5
86A5
  8
OUTLINE
  6
CONTINUOUS
 10
862.71444982926255
 20
694.52075208711119
 30
0.0
 11
2316.0346977631498
 21
702.52075208711119
 31
0.0
  0
LINE
  5
86A6
  8
DIM
  6
CONTINUOUS
 10
805.71444982926641
 20
1200.5207520871111
 30
0.0
 11
679.52477173182888
 21
1200.5207520871111
 31
0.0
  0
LINE
  5
86A7
  8
DIM
  6
CONTINUOUS
 10
832.71444982926391
 20
695.52075208711074
 30
0.0
 11
679.52477173182888
 21
695.52075208711085
 31
0.0
  0
LINE
  5
86A8
  8
DIM
  6
CONTINUOUS
 10
679.70477173182894
 20
1170.5207520871111
 30
0.0
 11
679.70477173182894
 21
990.87789494425442
 31
0.0
  0
LINE
  5
86A9
  8
DIM
  6
CONTINUOUS
 10
679.70477173182894
 20
725.52075208711074
 30
0.0
 11
679.70477173182894
 21
905.16360922996785
 31
0.0
  0
SOLID
  5
86AA
  8
DIM
  6
CONTINUOUS
 10
674.70477173182917
 20
1170.5207520871111
 30
0.0
 11
684.70477173182894
 21
1170.5207520871111
 31
0.0
 12
679.70477173182894
 22
1200.5207520871111
 32
0.0
 13
679.70477173182894
 23
1200.5207520871111
 33
0.0
  0
SOLID
  5
86AB
  8
DIM
  6
CONTINUOUS
 10
674.70477173182894
 20
725.52075208711074
 30
0.0
 11
684.70477173182894
 21
725.52075208711074
 31
0.0
 12
679.70477173182894
 22
695.52075208711085
 32
0.0
 13
679.70477173182894
 23
695.52075208711085
 33
0.0
  0
INSERT
  5
86AC
  8
DIM
  6
CONTINUOUS
  2
*U26
 10
0.0
 20
0.0
 30
0.0
  0
LINE
  5
86AD
  8
DIM
  6
CONTINUOUS
 10
2351.7144498292628
 20
1200.5207520871111
 30
0.0
 11
2428.745525870791
 21
1200.5207520871111
 31
0.0
  0
LINE
  5
86AE
  8
DIM
  6
CONTINUOUS
 10
2326.0346977631489
 20
702.52075208711119
 30
0.0
 11
2428.7455258707901
 21
702.52075208711119
 31
0.0
  0
LINE
  5
86AF
  8
DIM
  6
CONTINUOUS
 10
2428.5655258707911
 20
1170.5207520871111
 30
0.0
 11
2428.5655258707902
 21
995.09218065853952
 31
0.0
  0
LINE
  5
86B0
  8
DIM
  6
CONTINUOUS
 10
2428.5655258707902
 20
732.52075208711119
 30
0.0
 11
2428.5655258707902
 21
907.94932351568275
 31
0.0
  0
SOLID
  5
86B1
  8
DIM
  6
CONTINUOUS
 10
2423.5655258707911
 20
1170.5207520871111
 30
0.0
 11
2433.565525870792
 21
1170.5207520871111
 31
0.0
 12
2428.5655258707911
 22
1200.5207520871111
 32
0.0
 13
2428.5655258707911
 23
1200.5207520871111
 33
0.0
  0
SOLID
  5
86B2
  8
DIM
  6
CONTINUOUS
 10
2423.5655258707902
 20
732.52075208711119
 30
0.0
 11
2433.5655258707902
 21
732.52075208711119
 31
0.0
 12
2428.5655258707902
 22
702.52075208711119
 32
0.0
 13
2428.5655258707902
 23
702.52075208711119
 33
0.0
  0
INSERT
  5
86B3
  8
DIM
  6
CONTINUOUS
  2
*U27
 10
0.0
 20
0.0
 30
0.0
  0
LINE
  5
86B4
  8
OUTLINE
  6
CONTINUOUS
 10
2853.4843302132772
 20
694.52075208711119
 30
0.0
 11
3387.5343302132769
 21
694.52075208711119
 31
0.0
  0
LINE
  5
87CC
  8
OVERLAY-A3
  6
CONTINUOUS
 10
3625.1135480174289
 20
595.12559453046356
 30
0.0
 11
3625.1135480174289
 21
278.62545392441262
 31
0.0
  0
LINE
  5
88D0
  8
OUTLINE
  6
CONTINUOUS
 10
859.71444982927187
 20
2287.8174290882162
 30
0.0
 11
859.71444982920946
 21
1753.317429088215
 31
0.0
  0
LINE
  5
88F2
  8
DIM
  6
CONTINUOUS
 10
859.71444982927187
 20
2297.8174290882162
 30
0.0
 11
859.71444982927187
 21
2391.5210297528279
 31
0.0
  0
LINE
  5
88F3
  8
DIM
  6
CONTINUOUS
 10
898.4653741867603
 20
2343.3174290882148
 30
0.0
 11
898.4653741867603
 21
2391.5210297528279
 31
0.0
  0
LINE
  5
88F4
  8
DIM
  6
CONTINUOUS
 10
829.71444982927164
 20
2380.9551132244051
 30
0.0
 11
799.71444982927164
 21
2380.9551132244051
 31
0.0
  0
LINE
  5
88F5
  8
DIM
  6
CONTINUOUS
 10
928.46537418676041
 20
2380.9551132244051
 30
0.0
 11
958.46537418676041
 21
2380.9551132244051
 31
0.0
  0
SOLID
  5
88F6
  8
DIM
  6
CONTINUOUS
 10
829.71444982927164
 20
2385.9551132244051
 30
0.0
 11
829.71444982927164
 21
2375.9551132244051
 31
0.0
 12
859.71444982927187
 22
2380.9551132244051
 32
0.0
 13
859.71444982927187
 23
2380.9551132244051
 33
0.0
  0
SOLID
  5
88F7
  8
DIM
  6
CONTINUOUS
 10
928.46537418676041
 20
2385.9551132244051
 30
0.0
 11
928.46537418676041
 21
2375.9551132244051
 31
0.0
 12
898.4653741867603
 22
2380.9551132244051
 32
0.0
 13
898.4653741867603
 23
2380.9551132244051
 33
0.0
  0
INSERT
  5
88F8
  8
DIM
  6
CONTINUOUS
  2
*U28
 10
0.0
 20
0.0
 30
0.0
  0
LINE
  5
88F9
  8
DIM
  6
CONTINUOUS
 10
898.4653741867603
 20
2343.3174290882148
 30
0.0
 11
898.4653741867603
 21
2391.5210297528279
 31
0.0
  0
LINE
  5
88FA
  8
DIM
  6
CONTINUOUS
 10
1985.065374186765
 20
2343.3174290882039
 30
0.0
 11
1985.065374186765
 21
2391.5210297528279
 31
0.0
  0
LINE
  5
88FB
  8
DIM
  6
CONTINUOUS
 10
928.46537418676041
 20
2380.9551132244051
 30
0.0
 11
1389.265374186763
 21
2380.9551132244051
 31
0.0
  0
LINE
  5
88FC
  8
DIM
  6
CONTINUOUS
 10
1955.065374186765
 20
2380.9551132244051
 30
0.0
 11
1494.265374186763
 21
2380.9551132244051
 31
0.0
  0
SOLID
  5
88FD
  8
DIM
  6
CONTINUOUS
 10
928.46537418676041
 20
2385.9551132244051
 30
0.0
 11
928.46537418676041
 21
2375.9551132244051
 31
0.0
 12
898.4653741867603
 22
2380.9551132244051
 32
0.0
 13
898.4653741867603
 23
2380.9551132244051
 33
0.0
  0
SOLID
  5
88FE
  8
DIM
  6
CONTINUOUS
 10
1955.065374186765
 20
2385.9551132244051
 30
0.0
 11
1955.065374186765
 21
2375.9551132244051
 31
0.0
 12
1985.065374186765
 22
2380.9551132244051
 32
0.0
 13
1985.065374186765
 23
2380.9551132244051
 33
0.0
  0
INSERT
  5
88FF
  8
DIM
  6
CONTINUOUS
  2
*U29
 10
0.0
 20
0.0
 30
0.0
  0
TEXT
  5
8913
  8
DIM
  6
CONTINUOUS
 62
    50
 10
2063.5965555563389
 20
1575.6317455178239
 30
0.0
 40
30.0
  1
483
  7
TITLE3
  0
LINE
  5
8915
  8
DIM
  6
CONTINUOUS
 10
1985.065374186765
 20
2343.3174290882039
 30
0.0
 11
1985.065374186765
 21
2391.5210297528279
 31
0.0
  0
LINE
  5
8916
  8
DIM
  6
CONTINUOUS
 10
2315.714449829265
 20
2297.3174290882148
 30
0.0
 11
2315.714449829265
 21
2391.5210297528279
 31
0.0
  0
LINE
  5
8917
  8
DIM
  6
CONTINUOUS
 10
2015.065374186765
 20
2380.6072225118442
 30
0.0
 11
2105.389912008015
 21
2380.6072225118442
 31
0.0
  0
LINE
  5
8918
  8
DIM
  6
CONTINUOUS
 10
2285.714449829265
 20
2380.6072225118442
 30
0.0
 11
2195.389912008015
 21
2380.6072225118442
 31
0.0
  0
SOLID
  5
8919
  8
DIM
  6
CONTINUOUS
 10
2015.065374186765
 20
2385.6072225118442
 30
0.0
 11
2015.065374186765
 21
2375.6072225118442
 31
0.0
 12
1985.065374186765
 22
2380.6072225118442
 32
0.0
 13
1985.065374186765
 23
2380.6072225118442
 33
0.0
  0
SOLID
  5
891A
  8
DIM
  6
CONTINUOUS
 10
2285.714449829265
 20
2385.6072225118442
 30
0.0
 11
2285.714449829265
 21
2375.6072225118442
 31
0.0
 12
2315.714449829265
 22
2380.6072225118442
 32
0.0
 13
2315.714449829265
 23
2380.6072225118442
 33
0.0
  0
INSERT
  5
891B
  8
DIM
  6
CONTINUOUS
  2
*U30
 10
0.0
 20
0.0
 30
0.0
  0
POINT
  5
891D
  8
DIM
  6
CONTINUOUS
 10
2332.2144498292669
 20
1200.5207520871111
 30
0.0
  0
POINT
  5
891E
  8
DIM
  6
CONTINUOUS
 10
849.21444982926562
 20
1200.5207520871111
 30
0.0
  0
ENDSEC
  0
EOF
