  0
SECTION
  2
HEADER
  9
$ACADVER
  1
AC1009
  9
$INSBASE
 10
0.0
 20
0.0
 30
0.0
  9
$EXTMIN
 10
2138.799602611542
 20
-0.0811705646119663
 30
-0.0015258207003583
  9
$EXTMAX
 10
3890.118722436313
 20
1949.784551264933
 30
0.0000000349246037
  9
$LIMMIN
 10
0.0
 20
0.0
  9
$LIMMAX
 10
3890.0
 20
2660.0
  9
$ORTHOMODE
 70
     1
  9
$REGENMODE
 70
     1
  9
$FILLMODE
 70
     1
  9
$QTEXTMODE
 70
     0
  9
$MIRRTEXT
 70
     0
  9
$DRAGMODE
 70
     2
  9
$LTSCALE
 40
25.0
  9
$OSMODE
 70
     0
  9
$ATTMODE
 70
     1
  9
$TEXTSIZE
 40
25.0
  9
$TRACEWID
 40
0.05
  9
$TEXTSTYLE
  7
SIMPLEX
  9
$CLAYER
  8
DIM
  9
$CELTYPE
  6
BYLAYER
  9
$CECOLOR
 62
   256
  9
$DIMSCALE
 40
1.0
  9
$DIMASZ
 40
0.12
  9
$DIMEXO
 40
0.05
  9
$DIMDLI
 40
0.5
  9
$DIMRND
 40
0.0
  9
$DIMDLE
 40
0.0
  9
$DIMEXE
 40
0.1
  9
$DIMTP
 40
0.1
  9
$DIMTM
 40
0.1
  9
$DIMTXT
 40
0.12
  9
$DIMCEN
 40
0.0
  9
$DIMTSZ
 40
0.0
  9
$DIMTOL
 70
     0
  9
$DIMLIM
 70
     0
  9
$DIMTIH
 70
     1
  9
$DIMTOH
 70
     1
  9
$DIMSE1
 70
     0
  9
$DIMSE2
 70
     0
  9
$DIMTAD
 70
     0
  9
$DIMZIN
 70
     7
  9
$DIMBLK
  1

  9
$DIMASO
 70
     0
  9
$DIMSHO
 70
     0
  9
$DIMPOST
  1

  9
$DIMAPOST
  1
mm
  9
$DIMALT
 70
     0
  9
$DIMALTD
 70
     2
  9
$DIMALTF
 40
25.399999999999999
  9
$DIMLFAC
 40
1.0
  9
$DIMTOFL
 70
     0
  9
$DIMTVP
 40
0.0
  9
$DIMTIX
 70
     0
  9
$DIMSOXD
 70
     0
  9
$DIMSAH
 70
     0
  9
$DIMBLK1
  1

  9
$DIMBLK2
  1

  9
$DIMSTYLE
  2
AM_ANSI
  9
$DIMCLRD
 70
   256
  9
$DIMCLRE
 70
   256
  9
$DIMCLRT
 70
     2
  9
$DIMTFAC
 40
0.71
  9
$DIMGAP
 40
0.06
  9
$LUNITS
 70
     2
  9
$LUPREC
 70
     2
  9
$SKETCHINC
 40
0.1
  9
$FILLETRAD
 40
0.0
  9
$AUNITS
 70
     0
  9
$AUPREC
 70
     2
  9
$MENU
  1
\acad12\support\cnc
  9
$ELEVATION
 40
0.0
  9
$PELEVATION
 40
0.0
  9
$THICKNESS
 40
0.0
  9
$LIMCHECK
 70
     0
  9
$BLIPMODE
 70
     0
  9
$CHAMFERA
 40
0.0
  9
$CHAMFERB
 40
0.0
  9
$SKPOLY
 70
     0
  9
$TDCREATE
 40
2451409.6119530089
  9
$TDUPDATE
 40
2454699.4668530212
  9
$TDINDWG
 40
0.4567380556
  9
$TDUSRTIMER
 40
0.4567376968
  9
$USRTIMER
 70
     1
  9
$ANGBASE
 50
0.0
  9
$ANGDIR
 70
     0
  9
$PDMODE
 70
     2
  9
$PDSIZE
 40
10.0
  9
$PLINEWID
 40
0.0
  9
$COORDS
 70
     1
  9
$SPLFRAME
 70
     0
  9
$SPLINETYPE
 70
     6
  9
$SPLINESEGS
 70
     8
  9
$ATTDIA
 70
     1
  9
$ATTREQ
 70
     1
  9
$HANDLING
 70
     1
  9
$HANDSEED
  5
DD4
  9
$SURFTAB1
 70
     6
  9
$SURFTAB2
 70
     6
  9
$SURFTYPE
 70
     6
  9
$SURFU
 70
     6
  9
$SURFV
 70
     6
  9
$UCSNAME
  2

  9
$UCSORG
 10
0.0
 20
0.0
 30
0.0
  9
$UCSXDIR
 10
1.0
 20
0.0
 30
0.0
  9
$UCSYDIR
 10
0.0
 20
1.0
 30
0.0
  9
$PUCSNAME
  2

  9
$PUCSORG
 10
0.0
 20
0.0
 30
0.0
  9
$PUCSXDIR
 10
1.0
 20
0.0
 30
0.0
  9
$PUCSYDIR
 10
0.0
 20
1.0
 30
0.0
  9
$USERI1
 70
     0
  9
$USERI2
 70
     0
  9
$USERI3
 70
     0
  9
$USERI4
 70
     0
  9
$USERI5
 70
     0
  9
$USERR1
 40
0.0
  9
$USERR2
 40
0.0
  9
$USERR3
 40
0.0
  9
$USERR4
 40
0.0
  9
$USERR5
 40
0.0
  9
$WORLDVIEW
 70
     1
  9
$SHADEDGE
 70
     3
  9
$SHADEDIF
 70
    70
  9
$TILEMODE
 70
     1
  9
$MAXACTVP
 70
    16
  9
$PLIMCHECK
 70
     0
  9
$PEXTMIN
 10
1.0000000000000000E+020
 20
1.0000000000000000E+020
 30
1.0000000000000000E+020
  9
$PEXTMAX
 10
-1.0000000000000000E+020
 20
-1.0000000000000000E+020
 30
-1.0000000000000000E+020
  9
$PLIMMIN
 10
0.0
 20
0.0
  9
$PLIMMAX
 10
12.0
 20
9.0
  9
$UNITMODE
 70
     0
  9
$VISRETAIN
 70
     0
  9
$PLINEGEN
 70
     0
  9
$PSLTSCALE
 70
     0
  0
ENDSEC
  0
SECTION
  2
TABLES
  0
TABLE
  2
VPORT
 70
     1
  0
VPORT
  2
*ACTIVE
 70
     0
 10
0.0
 20
0.0
 11
1.0
 21
1.0
 12
3014.4591625239268
 22
974.85169035016042
 13
0.0
 23
0.0
 14
25.0
 24
25.0
 15
100.0
 25
100.0
 16
0.0
 26
0.0
 36
1.0
 17
0.0
 27
0.0
 37
0.0
 40
1964.6002235058379
 41
1.5308953341740219
 42
50.0
 43
0.0
 44
0.0
 50
0.0
 51
0.0
 71
     0
 72
   100
 73
     1
 74
     0
 75
     0
 76
     0
 77
     0
 78
     0
  0
ENDTAB
  0
TABLE
  2
LTYPE
 70
    16
  0
LTYPE
  2
CONTINUOUS
 70
     0
  3
Solid line
 72
    65
 73
     0
 40
0.0
  0
LTYPE
  2
HIDDEN
 70
     0
  3
Hidden __ __ __ __ __ __ __ __ __ __ __ __ __ _
 72
    65
 73
     2
 40
0.375
 49
0.25
 49
-0.125
  0
LTYPE
  2
PHANTOM2
 70
     0
  3
Phantom (.5x) ___ _ _ ___ _ _ ___ _ _ ___ _ _
 72
    65
 73
     6
 40
1.25
 49
0.625
 49
-0.125
 49
0.125
 49
-0.125
 49
0.125
 49
-0.125
  0
LTYPE
  2
CENTER
 70
     0
  3
Center ____ _ ____ _ ____ _ ____ _ ____ _ ____
 72
    65
 73
     4
 40
2.0
 49
1.25
 49
-0.25
 49
0.25
 49
-0.25
  0
LTYPE
  2
AM_ISO02W050
 70
     0
  3
__ __ __ __ __ __ __ __ __ __ __ __ __ __ __
 72
    65
 73
     2
 40
7.5
 49
6.0
 49
-1.5
  0
LTYPE
  2
AM_ISO08W050
 70
     0
  3
____ . ____ . ____ . ____ . ____ . ____ . ____
 72
    65
 73
     4
 40
18.0
 49
12.0
 49
-1.5
 49
3.0
 49
-1.5
  0
LTYPE
  2
AM_ISO09W050
 70
     0
  3
_____ . . _____ . . _____ . . ____ .. ____
 72
    65
 73
     6
 40
22.5
 49
12.0
 49
-1.5
 49
3.0
 49
-1.5
 49
3.0
 49
-1.5
  0
LTYPE
  2
AMCONSTR
 70
     0
  3
_______________________
 72
    65
 73
     2
 40
9999.0
 49
9999.0
 49
0.0
  0
LTYPE
  2
AM_ISO08W050X2
 70
     0
  3
__ . __ . __ . __ . __ . __
 72
    65
 73
     4
 40
9.0
 49
6.0
 49
-0.75
 49
1.5
 49
-0.75
  0
LTYPE
  2
AM_ISO02W050X2
 70
     0
  3
 _ _ _ _ _ _ _ _ _ _ _ _
 72
    65
 73
     2
 40
3.75
 49
3.0
 49
-0.75
  0
LTYPE
  2
AMZIGZAG
 70
     0
  3
/\/-/\/-/\/-/\/-/\/-/\/
 72
    65
 73
     2
 40
11.0001
 49
0.0001
 49
-11.0
  0
LTYPE
  2
CENTER2
 70
     0
  3
Center (.5x) ___ _ ___ _ ___ _ ___ _ ___ _ ___
 72
    65
 73
     4
 40
1.125
 49
0.75
 49
-0.125
 49
0.125
 49
-0.125
  0
LTYPE
  2
HIDDEN2
 70
     0
  3
Hidden (.5x) _ _ _ _ _ _ _ _ _ _ _ _ _ _ _ _ _
 72
    65
 73
     2
 40
0.1875
 49
0.125
 49
-0.0625
  0
LTYPE
  2
AMZIGZAG2
 70
     0
  3
/\/-/\/-/\/-/\/-/\/-/\/
 72
    65
 73
     2
 40
0.4401
 49
0.0001
 49
-0.4400000000000001
  0
LTYPE
  2
ACANSTGB
 70
     0
  3
__ . . __ . .
 72
    65
 73
     6
 40
0.35433070866
 49
0.15748031496
 49
-0.03937007874
 49
0.03937007874
 49
-0.03937007874
 49
0.03937007874
 49
-0.03937007874
  0
LTYPE
  2
ACANSTGL
 70
     0
  3
_ _ _ _ _
 72
    65
 73
     2
 40
0.11811023622
 49
0.07874015748
 49
-0.03937007874
  0
ENDTAB
  0
TABLE
  2
LAYER
 70
     5
  0
LAYER
  2
0
 70
     0
 62
     7
  6
CONTINUOUS
  0
LAYER
  2
DIM
 70
     0
 62
     7
  6
CONTINUOUS
  0
LAYER
  2
TEXT
 70
     0
 62
   100
  6
CONTINUOUS
  0
LAYER
  2
OUTLINE
 70
     0
 62
     7
  6
CONTINUOUS
  0
LAYER
  2
OVERLAY-A3
 70
     0
 62
     7
  6
CONTINUOUS
  0
ENDTAB
  0
TABLE
  2
STYLE
 70
     8
  0
STYLE
  2
STANDARD
 70
     0
 40
0.0
 41
1.0
 50
0.0
 71
     0
 42
0.2
  3
txt
  4

  0
STYLE
  2
ANNOTATIVE
 70
     0
 40
0.0
 41
1.0
 50
0.0
 71
     0
 42
0.2
  3
txt
  4

  0
STYLE
  2
SIMPLEX
 70
     0
 40
30.0
 41
1.0
 50
0.0
 71
     0
 42
25.0
  3
SIMPLEX.shx
  4

  0
STYLE
  2
TITLE3
 70
     0
 40
25.0
 41
1.0
 50
0.0
 71
     0
 42
25.0
  3
SIMPLEX
  4

  0
STYLE
  2
TITLE5
 70
     0
 40
50.0
 41
1.0
 50
0.0
 71
     0
 42
50.0
  3
SIMPLEX
  4

  0
STYLE
  2

 70
     1
 40
0.0
 41
1.0
 50
0.0
 71
     0
 42
25.0
  3
genltshp.shx
  4

  0
STYLE
  2
ACANSTS
 70
     0
 40
1.0
 41
1.0
 50
0.0
 71
     0
 42
25.0
  3
romans.shx
  4

  0
STYLE
  2
ACANSGDT
 70
     0
 40
0.0
 41
1.0
 50
0.0
 71
     0
 42
25.0
  3
amgdt.shx
  4

  0
ENDTAB
  0
TABLE
  2
VIEW
 70
     0
  0
ENDTAB
  0
TABLE
  2
UCS
 70
     0
  0
ENDTAB
  0
TABLE
  2
APPID
 70
    10
  0
APPID
  2
ACAD
 70
     0
  0
APPID
  2
ACADANNOTATIVE
 70
     0
  0
APPID
  2
ACAD_MLEADERVER
 70
     0
  0
APPID
  2
MCAD_NO_VIS
 70
     0
  0
APPID
  2
ACAD_TEMP_GRAPHIC
 70
     0
  0
APPID
  2
AD_DRAW
 70
     0
  0
APPID
  2
ACATTRIBSERVICES
 70
     0
  0
APPID
  2
DESIGNERASSEMBLIES
 70
     0
  0
APPID
  2
ACADM_DIM_EDIT
 70
     0
  0
APPID
  2
AMDT_DM_ADJ
 70
     0
  0
ENDTAB
  0
TABLE
  2
DIMSTYLE
 70
     8
  0
DIMSTYLE
  2
STANDARD
 70
     0
  3

  4

  5

  6

  7

 40
1.0
 41
0.18
 42
0.0625
 43
0.38
 44
0.18
 45
0.0
 46
0.0
 47
0.0
 48
0.0
140
0.18
141
0.09
142
0.0
143
25.399999999999999
144
1.0
145
0.0
146
1.0
147
0.09
 71
     0
 72
     0
 73
     1
 74
     1
 75
     0
 76
     0
 77
     0
 78
     0
170
     0
171
     2
172
     0
173
     0
174
     0
175
     0
176
     0
177
     0
178
     0
  0
DIMSTYLE
  2
ANNOTATIVE
 70
     0
  3

  4

  5

  6

  7

 40
1.0
 41
0.18
 42
0.0625
 43
0.38
 44
0.18
 45
0.0
 46
0.0
 47
0.0
 48
0.0
140
0.18
141
0.09
142
0.0
143
25.399999999999999
144
1.0
145
0.0
146
1.0
147
0.09
 71
     0
 72
     0
 73
     1
 74
     1
 75
     0
 76
     0
 77
     0
 78
     0
170
     0
171
     2
172
     0
173
     0
174
     0
175
     0
176
     0
177
     0
178
     0
  0
DIMSTYLE
  2
AM_ANSI
 70
     0
  3

  4
mm
  5

  6

  7

 40
1.0
 41
0.12
 42
0.05
 43
0.5
 44
0.1
 45
0.0
 46
0.0
 47
0.1
 48
0.1
140
0.12
141
0.0
142
0.0
143
25.399999999999999
144
1.0
145
0.0
146
0.71
147
0.06
 71
     0
 72
     0
 73
     1
 74
     1
 75
     0
 76
     0
 77
     0
 78
     7
170
     0
171
     2
172
     0
173
     0
174
     0
175
     0
176
   256
177
   256
178
     2
  0
DIMSTYLE
  2
AM_ANSI$3
 70
     0
  3

  4
mm
  5

  6

  7

 40
1.0
 41
0.12
 42
0.05
 43
0.5
 44
0.1
 45
0.0
 46
0.0
 47
0.1
 48
0.1
140
0.12
141
0.0
142
0.0
143
25.399999999999999
144
1.0
145
0.0
146
0.71
147
0.06
 71
     0
 72
     0
 73
     1
 74
     1
 75
     0
 76
     0
 77
     0
 78
     7
170
     0
171
     2
172
     0
173
     0
174
     0
175
     0
176
   256
177
   256
178
     2
  0
DIMSTYLE
  2
AM_ANSI$4
 70
     0
  3

  4
mm
  5

  6

  7

 40
1.0
 41
0.12
 42
0.05
 43
0.5
 44
0.1
 45
0.0
 46
0.0
 47
0.1
 48
0.1
140
0.12
141
0.0
142
0.0
143
25.399999999999999
144
1.0
145
0.0
146
0.71
147
0.06
 71
     0
 72
     0
 73
     1
 74
     1
 75
     0
 76
     0
 77
     0
 78
     7
170
     0
171
     2
172
     0
173
     0
174
     0
175
     0
176
   256
177
   256
178
     2
  0
DIMSTYLE
  2
AM_ANSI$7
 70
     0
  3

  4
mm
  5

  6

  7

 40
1.0
 41
0.12
 42
0.05
 43
0.5
 44
0.1
 45
0.0
 46
0.0
 47
0.1
 48
0.1
140
0.12
141
0.0
142
0.0
143
25.399999999999999
144
1.0
145
0.0
146
0.71
147
0.06
 71
     0
 72
     0
 73
     1
 74
     1
 75
     0
 76
     0
 77
     0
 78
     7
170
     0
171
     2
172
     0
173
     0
174
     0
175
     0
176
   256
177
   256
178
     2
  0
DIMSTYLE
  2
AM_ANSI$SF
 70
     0
  3

  4
mm
  5

  6

  7

 40
1.0
 41
0.12
 42
0.05
 43
0.5
 44
0.1
 45
0.0
 46
0.0
 47
0.1
 48
0.1
140
0.12
141
0.0
142
0.0
143
25.399999999999999
144
1.0
145
0.0
146
0.71
147
0.06
 71
     0
 72
     0
 73
     1
 74
     1
 75
     1
 76
     1
 77
     0
 78
     7
170
     0
171
     2
172
     0
173
     0
174
     0
175
     0
176
   256
177
   256
178
     2
  0
DIMSTYLE
  2
AM_ANSI$SH
 70
     0
  3

  4
mm
  5

  6
GENAXEH
  7

 40
1.0
 41
0.12
 42
0.05
 43
0.5
 44
0.1
 45
0.0
 46
0.0
 47
0.1
 48
0.1
140
0.12
141
0.0
142
0.0
143
25.399999999999999
144
1.0
145
0.0
146
0.71
147
0.06
 71
     0
 72
     0
 73
     1
 74
     1
 75
     1
 76
     1
 77
     0
 78
     7
170
     0
171
     2
172
     0
173
     1
174
     0
175
     0
176
   256
177
   256
178
     2
  0
ENDTAB
  0
ENDSEC
  0
SECTION
  2
BLOCKS
  0
BLOCK
  8
0
  2
$MODEL_SPACE
 70
     0
 10
0.0
 20
0.0
 30
0.0
  3
$MODEL_SPACE
  1

  0
ENDBLK
  5
CFE
  8
0
  0
BLOCK
 67
     1
  8
0
  2
$PAPER_SPACE
 70
     0
 10
0.0
 20
0.0
 30
0.0
  3
$PAPER_SPACE
  1

  0
ENDBLK
  5
CFA
 67
     1
  8
0
  0
BLOCK
  8
0
  2
NEW_BLOCK
 70
     0
 10
0.0
 20
0.0
 30
0.0
  3
NEW_BLOCK
  1

  0
TEXT
  5
B67
  8
TEXT
 10
27.285946821803002
 20
25.27142175952417
 30
0.0
 40
40.0
  1
available on request
  7
TITLE3
  0
TEXT
  5
B68
  8
TEXT
 10
27.285946821803002
 20
93.842850330952714
 30
0.0
 40
40.0
  1
Certified dimensions
  7
TITLE3
  0
TEXT
  5
B69
  8
TEXT
 10
27.285946821803002
 20
162.4142789023812
 30
0.0
 40
40.0
  1
without notice or obligation.
  7
TITLE3
  0
TEXT
  5
B6A
  8
TEXT
 10
27.285946821803002
 20
230.9857074738097
 30
0.0
 40
40.0
  1
specifications at any time
  7
TITLE3
  0
TEXT
  5
B6B
  8
TEXT
 10
27.285946821803002
 20
299.55713604523839
 30
0.0
 40
40.0
  1
the right to change 
  7
TITLE3
  0
TEXT
  5
B6C
  8
TEXT
 10
27.285946821803002
 20
436.69999318809528
 30
0.0
 40
40.0
  1
NOTE
  7
TITLE3
  0
TEXT
  5
B6D
  8
TEXT
 10
27.285946821803002
 20
368.12856461666678
 30
0.0
 40
40.0
  1
The manufacturer reserves
  7
TITLE3
  0
ENDBLK
  5
B6E
  8
0
  0
BLOCK
  8
0
  2
GENAXEH
 70
     0
 10
0.0
 20
0.0
 30
0.0
  3
GENAXEH
  1

  0
LINE
  5
D9C
  8
0
 10
-1.0
 20
0.0
 30
0.0
 11
1.0
 21
0.0
 31
0.0
  0
ENDBLK
  5
D9E
  8
0
  0
ENDSEC
  0
SECTION
  2
ENTITIES
  0
TEXT
  5
B6F
  8
TEXT
 10
2934.8625490474519
 20
271.50014060605099
 30
0.0
 40
50.0
  1
temperzone HWP 33R
  7
TITLE5
 72
     1
 11
3344.386358571262
 21
271.50014060605099
 31
0.0
  0
TEXT
  5
B70
  8
TEXT
 10
3430.0
 20
70.0
 30
0.0
 40
30.0
  1
HWP33
 41
2.009900990099009
  7
TITLE3
 72
     5
 11
3720.0
 21
70.0
 31
0.0
  0
TEXT
  5
B71
  8
DIM
 10
2629.961690281606
 20
1264.572598126475
 30
0.0
 40
25.0
  1
HANGING CTRS
 50
90.0
 41
1.12061119376013
  7
TITLE3
 72
     5
 11
2629.961690281606
 21
1572.740676410511
 31
0.0
  0
TEXT
  5
B72
  8
OVERLAY-A3
 10
2847.2885441441222
 20
110.8312138601009
 30
0.0
 40
24.0
  1
Date
  7
SIMPLEX
  0
TEXT
  5
B73
  8
OVERLAY-A3
 10
3746.1111923736021
 20
129.50330202341121
 30
0.0
 40
24.0
  1
Revision
 41
0.7812095035934775
  7
SIMPLEX
 72
     5
 11
3851.4628740010648
 21
129.50330202341121
 31
0.0
  0
LINE
  5
B74
  8
OVERLAY-A3
 10
3734.49134999016
 20
20.842492848317129
 30
0.0
 11
3734.49134999016
 21
168.2686557085465
 31
0.0
  0
LINE
  5
B75
  8
OVERLAY-A3
 10
2819.3515294571471
 20
337.34263345436813
 30
0.0
 11
2819.3515294571471
 21
20.842492848317129
 31
0.0
  0
LINE
  5
B76
  8
OVERLAY-A3
 10
3416.9136780130939
 20
20.842492848317129
 30
0.0
 11
3416.9136780130939
 21
168.2686557085465
 31
0.0
  0
LINE
  5
B77
  8
OVERLAY-A3
 10
3416.9136780130939
 20
93.312599269463774
 30
0.0
 11
2819.3515294571471
 21
93.312599269463774
 31
0.0
  0
LINE
  5
B78
  8
OVERLAY-A3
 10
3861.5754652378409
 20
168.2686557085465
 30
0.0
 11
2819.3515294571471
 21
168.2686557085465
 31
0.0
  0
LINE
  5
B79
  8
OVERLAY-A3
 10
2819.3515294571471
 20
20.842492848317129
 30
0.0
 11
3861.2779580594911
 21
20.842492848317129
 31
0.0
  0
LINE
  5
B7A
  8
OVERLAY-A3
 10
3861.2779580594911
 20
20.842492848317129
 30
0.0
 11
3861.2779580594911
 21
337.34263345436813
 31
0.0
  0
LINE
  5
B7B
  8
OVERLAY-A3
 10
3861.2779580594911
 20
337.34263345436813
 30
0.0
 11
2819.3515294571471
 21
337.34263345436813
 31
0.0
  0
TEXT
  5
B7C
  8
OVERLAY-A3
 10
2844.4832191031091
 20
47.922488065357669
 30
0.0
 40
20.0
  1
Scale
 41
1.3701747965659721
  7
SIMPLEX
 72
     5
 11
2944.9627041846138
 21
47.922488065357669
 31
0.0
  0
TEXT
  5
B7D
  8
OVERLAY-A3
 10
3474.8591236007969
 20
128.8934315067097
 30
0.0
 40
20.0
  1
Drawing No.
  7
SIMPLEX
 72
     2
 11
3649.1448378865121
 21
128.8934315067097
 31
0.0
  0
LINE
  5
B7E
  8
OVERLAY-A3
 10
2138.8079971175389
 20
0.0
 30
0.0
 11
3890.000000000156
 21
0.0
 31
0.0
  0
LINE
  5
B7F
  8
OVERLAY-A3
 10
3890.000000000156
 20
0.0
 30
0.0
 11
3890.000000000156
 21
1949.706749881705
 31
0.0
  0
LINE
  5
B80
  8
OVERLAY-A3
 10
3890.000000000156
 20
1949.706749881705
 30
0.0
 11
2138.8079971175389
 21
1949.706749881705
 31
0.0
  0
LINE
  5
B81
  8
OVERLAY-A3
 10
2138.8079971175389
 20
1949.706749881705
 30
0.0
 11
2138.8079971175389
 21
0.0
 31
0.0
  0
LINE
  5
B82
  8
OUTLINE
 10
2806.0954973212301
 20
1177.436987993073
 30
0.0
 11
3458.4954973212289
 21
1177.436987993073
 31
0.0
  0
LINE
  5
B83
  8
OUTLINE
 10
2806.0954973212301
 20
1661.236987993072
 30
0.0
 11
3458.4954973212289
 21
1661.236987993072
 31
0.0
  0
LINE
  5
B84
  8
OUTLINE
 10
2782.0954973212288
 20
1637.236987993072
 30
0.0
 11
3482.4954973212298
 21
1637.236987993072
 31
0.0
  0
LINE
  5
B85
  8
OUTLINE
 10
2782.0954973212288
 20
1201.436987993073
 30
0.0
 11
3482.4954973212298
 21
1201.436987993073
 31
0.0
  0
LINE
  5
B86
  8
OUTLINE
 10
2761.0954973212301
 20
548.48767082467043
 30
0.0
 11
3503.495497321228
 21
548.48767082467054
 31
0.0
  0
LINE
  5
B87
  8
OUTLINE
 10
3488.495497321228
 20
516.35595346904995
 30
0.0
 11
2776.095497321227
 21
529.59863009168032
 31
0.0
  0
LINE
  5
B88
  8
OUTLINE
 10
2758.0954973212288
 20
849.68767082467025
 30
0.0
 11
3506.4954973212298
 21
849.68767082467025
 31
0.0
  0
LINE
  5
B89
  8
OUTLINE
 10
2782.0954973212288
 20
849.68767082467025
 30
0.0
 11
2782.0954973212288
 21
548.48767082467043
 31
0.0
  0
LINE
  5
B8A
  8
OUTLINE
 10
2782.0954973212279
 20
548.48767082467043
 30
0.0
 11
2805.095497321227
 21
548.48767082467043
 31
0.0
  0
LINE
  5
B8B
  8
OUTLINE
 10
2776.0954973212288
 20
548.48767082467043
 30
0.0
 11
2776.095497321227
 21
529.59863009168032
 31
0.0
  0
LINE
  5
B8C
  8
OUTLINE
 10
2761.0954973212301
 20
548.48767082467043
 30
0.0
 11
2761.0954973212301
 21
540.48767082467043
 31
0.0
  0
LINE
  5
B8D
  8
OUTLINE
 10
2758.0954973212288
 20
1613.236987993072
 30
0.0
 11
2758.0954973212288
 21
1225.436987993073
 31
0.0
  0
LINE
  5
B8E
  8
OUTLINE
 10
2782.0954973212288
 20
1637.236987993072
 30
0.0
 11
2782.0954973212288
 21
1201.436987993073
 31
0.0
  0
LINE
  5
B8F
  8
OUTLINE
 10
2758.0954973212288
 20
1225.436987993073
 30
0.0
 11
2806.0954973212301
 21
1177.436987993073
 31
0.0
  0
LINE
  5
B90
  8
OUTLINE
 10
2774.0954973212288
 20
716.88767082466904
 30
0.0
 11
2717.0954973212288
 21
716.88767082466904
 31
0.0
  0
LINE
  5
B91
  8
OUTLINE
 10
2782.0954973212288
 20
708.88767082466904
 30
0.0
 11
2717.0954973212288
 21
708.88767082466904
 31
0.0
  0
LINE
  5
B92
  8
OUTLINE
 10
2721.5954973212279
 20
708.88767082466904
 30
0.0
 11
2752.5954973212288
 21
708.88767082466904
 31
0.0
  0
LINE
  5
B93
  8
OUTLINE
 10
2755.5954973212288
 20
701.88767082466916
 30
0.0
 11
2718.5954973212288
 21
701.88767082466916
 31
0.0
  0
LINE
  5
B94
  8
OUTLINE
 10
2717.0954973212288
 20
716.88767082466904
 30
0.0
 11
2717.0954973212288
 21
708.88767082466904
 31
0.0
  0
ARC
  5
B95
  8
OUTLINE
 10
2721.5954973212279
 20
705.88767082466916
 30
0.0
 40
3.0
 50
90.0
 51
180.0
  0
LINE
  5
B96
  8
OUTLINE
 10
2718.5954973212288
 20
705.88767082466916
 30
0.0
 11
2718.5954973212288
 21
701.88767082466916
 31
0.0
  0
LINE
  5
B97
  8
OUTLINE
 10
2755.5954973212288
 20
705.88767082466916
 30
0.0
 11
2755.5954973212288
 21
701.88767082466916
 31
0.0
  0
ARC
  5
B98
  8
OUTLINE
 10
2752.5954973212288
 20
705.88767082466916
 30
0.0
 40
3.0
 50
0.0
 51
90.0
  0
LINE
  5
B99
  8
OUTLINE
 10
2782.0954973212288
 20
778.88767082466904
 30
0.0
 11
2782.0954973212288
 21
718.88767082466916
 31
0.0
  0
LINE
  5
B9A
  8
OUTLINE
 10
2774.0954973212288
 20
778.88767082466904
 30
0.0
 11
2774.0954973212288
 21
716.88767082466904
 31
0.0
  0
LINE
  5
B9B
  8
OUTLINE
 10
2782.0954973212288
 20
778.88767082466904
 30
0.0
 11
2774.0954973212288
 21
778.88767082466904
 31
0.0
  0
LINE
  5
B9C
  8
OUTLINE
 10
2758.0954973212288
 20
849.68767082467025
 30
0.0
 11
2758.0954973212288
 21
841.6876708246707
 31
0.0
  0
ARC
  5
B9D
  8
OUTLINE
 10
2770.5954973212301
 20
1237.186987993073
 30
0.0
 40
4.75
 50
180.0
 51
0.0
  0
LINE
  5
B9E
  8
OUTLINE
 10
2765.8454973212301
 20
1247.6869879930721
 30
0.0
 11
2765.8454973212301
 21
1237.186987993073
 31
0.0
  0
LINE
  5
B9F
  8
OUTLINE
 10
2775.3454973212288
 20
1237.186987993073
 30
0.0
 11
2775.3454973212288
 21
1247.6869879930721
 31
0.0
  0
ARC
  5
BA0
  8
OUTLINE
 10
2770.5954973212301
 20
1247.6869879930721
 30
0.0
 40
4.75
 50
0.0
 51
180.0
  0
LINE
  5
BA1
  8
OUTLINE
 10
2758.0954973212288
 20
1613.236987993072
 30
0.0
 11
2806.0954973212301
 21
1661.236987993072
 31
0.0
  0
ARC
  5
BA2
  8
OUTLINE
 10
2770.5954973212301
 20
1601.4869879930709
 30
0.0
 40
4.75
 50
0.0
 51
180.0
  0
LINE
  5
BA3
  8
OUTLINE
 10
2775.3454973212288
 20
1590.986987993072
 30
0.0
 11
2775.3454973212288
 21
1601.4869879930709
 31
0.0
  0
ARC
  5
BA4
  8
OUTLINE
 10
2770.5954973212301
 20
1590.986987993072
 30
0.0
 40
4.75
 50
180.0
 51
0.0
  0
LINE
  5
BA5
  8
OUTLINE
 10
2765.8454973212301
 20
1601.4869879930709
 30
0.0
 11
2765.8454973212301
 21
1590.986987993072
 31
0.0
  0
LINE
  5
BA6
  8
OUTLINE
 10
3482.4954973212298
 20
849.68767082467025
 30
0.0
 11
3482.4954973212261
 21
548.48767082467054
 31
0.0
  0
LINE
  5
BA7
  8
OUTLINE
 10
3455.4954973212298
 20
596.88767082467052
 30
0.0
 11
3455.4954973212298
 21
799.88767082467052
 31
0.0
  0
LINE
  5
BAA
  8
OUTLINE
 10
3488.495497321228
 20
522.46900339216063
 30
0.0
 11
3507.495497321228
 21
522.46900339215983
 31
0.0
  0
LINE
  5
BAB
  8
OUTLINE
 10
3488.495497321228
 20
541.46900339216063
 30
0.0
 11
3507.4954973212298
 21
541.46900339215983
 31
0.0
  0
LINE
  5
BAC
  8
OUTLINE
 10
3488.495497321228
 20
548.48767082466793
 30
0.0
 11
3488.495497321228
 21
516.35595346904995
 31
0.0
  0
LINE
  5
BAD
  8
OUTLINE
 10
3507.4954973212298
 20
541.46900339215983
 30
0.0
 11
3507.495497321228
 21
522.46900339215983
 31
0.0
  0
LINE
  5
BAE
  8
OUTLINE
 10
3007.4954973212298
 20
799.88767082466984
 30
0.0
 11
3455.4954973212298
 21
799.88767082467052
 31
0.0
  0
LINE
  5
BAF
  8
OUTLINE
 10
3506.495497321228
 20
1613.2369879930741
 30
0.0
 11
3506.495497321228
 21
1225.436987993073
 31
0.0
  0
LINE
  5
BB0
  8
OUTLINE
 10
3482.4954973212298
 20
1637.236987993072
 30
0.0
 11
3482.4954973212298
 21
1201.436987993073
 31
0.0
  0
LINE
  5
BB1
  8
OUTLINE
 10
3482.4954973212298
 20
778.88767082466904
 30
0.0
 11
3482.4954973212298
 21
718.88767082466916
 31
0.0
  0
LINE
  5
BB2
  8
OUTLINE
 10
3490.4954973212289
 20
778.88767082466904
 30
0.0
 11
3490.4954973212289
 21
716.88767082466904
 31
0.0
  0
LINE
  5
BB3
  8
OUTLINE
 10
3482.4954973212298
 20
778.88767082466904
 30
0.0
 11
3490.4954973212289
 21
778.88767082466904
 31
0.0
  0
LINE
  5
BB4
  8
OUTLINE
 10
3490.4954973212289
 20
716.88767082466904
 30
0.0
 11
3547.4954973212289
 21
716.88767082466904
 31
0.0
  0
LINE
  5
BB5
  8
OUTLINE
 10
3482.4954973212298
 20
708.88767082466904
 30
0.0
 11
3547.4954973212289
 21
708.88767082466904
 31
0.0
  0
LINE
  5
BB6
  8
OUTLINE
 10
3542.9954973212298
 20
708.88767082466904
 30
0.0
 11
3511.9954973212298
 21
708.88767082466904
 31
0.0
  0
LINE
  5
BB7
  8
OUTLINE
 10
3508.9954973212298
 20
701.88767082466916
 30
0.0
 11
3545.9954973212289
 21
701.88767082466916
 31
0.0
  0
LINE
  5
BB8
  8
OUTLINE
 10
3508.9954973212298
 20
705.88767082466916
 30
0.0
 11
3508.9954973212298
 21
701.88767082466916
 31
0.0
  0
ARC
  5
BB9
  8
OUTLINE
 10
3511.9954973212298
 20
705.88767082466916
 30
0.0
 40
3.0
 50
90.0
 51
180.0
  0
LINE
  5
BBA
  8
OUTLINE
 10
3547.4954973212289
 20
716.88767082466904
 30
0.0
 11
3547.4954973212289
 21
708.88767082466904
 31
0.0
  0
ARC
  5
BBB
  8
OUTLINE
 10
3542.9954973212298
 20
705.88767082466916
 30
0.0
 40
3.0
 50
0.0
 51
90.0
  0
LINE
  5
BBC
  8
OUTLINE
 10
3545.9954973212289
 20
705.88767082466916
 30
0.0
 11
3545.9954973212289
 21
701.88767082466916
 31
0.0
  0
ARC
  5
BBD
  8
OUTLINE
 10
3493.9954973212289
 20
1247.6869879930721
 30
0.0
 40
4.75
 50
0.0
 51
180.0
  0
ARC
  5
BBE
  8
OUTLINE
 10
3493.9954973212289
 20
1237.186987993073
 30
0.0
 40
4.75
 50
180.0
 51
0.0
  0
LINE
  5
BBF
  8
OUTLINE
 10
3506.4954973212298
 20
1225.436987993073
 30
0.0
 11
3458.4954973212289
 21
1177.436987993073
 31
0.0
  0
LINE
  5
BC0
  8
OUTLINE
 10
3489.2454973212298
 20
1237.186987993073
 30
0.0
 11
3489.2454973212298
 21
1247.6869879930721
 31
0.0
  0
LINE
  5
BC1
  8
OUTLINE
 10
3506.4954973212298
 20
849.68767082467025
 30
0.0
 11
3506.4954973212298
 21
841.6876708246682
 31
0.0
  0
LINE
  5
BC2
  8
OUTLINE
 10
3498.7454973212289
 20
1247.6869879930721
 30
0.0
 11
3498.7454973212289
 21
1237.186987993073
 31
0.0
  0
ARC
  5
BC3
  8
OUTLINE
 10
3493.9954973212289
 20
1601.4869879930709
 30
0.0
 40
4.75
 50
0.0
 51
180.0
  0
ARC
  5
BC4
  8
OUTLINE
 10
3493.9954973212289
 20
1590.986987993072
 30
0.0
 40
4.75
 50
180.0
 51
0.0
  0
LINE
  5
BC5
  8
OUTLINE
 10
3506.4954973212298
 20
1613.236987993072
 30
0.0
 11
3458.4954973212289
 21
1661.236987993072
 31
0.0
  0
LINE
  5
BC6
  8
OUTLINE
 10
3489.2454973212298
 20
1590.986987993072
 30
0.0
 11
3489.2454973212298
 21
1601.4869879930709
 31
0.0
  0
LINE
  5
BC7
  8
OUTLINE
 10
3498.7454973212289
 20
1601.4869879930709
 30
0.0
 11
3498.7454973212289
 21
1590.986987993072
 31
0.0
  0
LINE
  5
BC8
  8
DIM
 10
3508.4954973212289
 20
516.35595346904995
 30
0.0
 11
3664.20830180337
 21
516.35595346904995
 31
0.0
  0
LINE
  5
BC9
  8
DIM
 10
3526.4954973212289
 20
849.68767082467025
 30
0.0
 11
3664.20830180337
 21
849.68767082467025
 31
0.0
  0
LINE
  5
BCA
  8
DIM
 10
3644.2083018033709
 20
546.35595346904995
 30
0.0
 11
3644.2083018033709
 21
819.68767082467014
 31
0.0
  0
SOLID
  5
BCB
  8
DIM
 10
3639.20830180337
 20
546.35595346904995
 30
0.0
 11
3649.20830180337
 21
546.35595346904995
 31
0.0
 12
3644.2083018033709
 22
516.35595346904995
 32
0.0
 13
3644.2083018033709
 23
516.35595346904995
 33
0.0
  0
SOLID
  5
BCC
  8
DIM
 10
3639.20830180337
 20
819.68767082467014
 30
0.0
 11
3649.20830180337
 21
819.68767082467014
 31
0.0
 12
3644.2083018033709
 22
849.68767082467025
 32
0.0
 13
3644.2083018033709
 23
849.68767082467025
 33
0.0
  0
TEXT
  5
BCD
  8
DIM
 10
3626.7083018033709
 20
650.87895500400305
 30
0.0
 40
25.0
  1
330
 50
90.0
  7
TITLE3
 72
     1
 11
3614.20830180337
 21
683.02181214686016
 31
0.0
 73
     2
  0
LINE
  5
BCE
  8
DIM
 10
3478.4954973212298
 20
1177.436987993073
 30
0.0
 11
3794.6326310566251
 21
1177.436987993073
 31
0.0
  0
LINE
  5
BCF
  8
DIM
 10
3478.4954973212298
 20
1661.236987993072
 30
0.0
 11
3794.6326310566251
 21
1661.236987993072
 31
0.0
  0
LINE
  5
BD0
  8
DIM
 10
3774.6326310566242
 20
1207.436987993073
 30
0.0
 11
3774.6326310566242
 21
1631.2369879930709
 31
0.0
  0
SOLID
  5
BD1
  8
DIM
 10
3769.6326310566251
 20
1207.436987993073
 30
0.0
 11
3779.6326310566251
 21
1207.436987993073
 31
0.0
 12
3774.6326310566242
 22
1177.436987993073
 32
0.0
 13
3774.6326310566242
 23
1177.436987993073
 33
0.0
  0
SOLID
  5
BD2
  8
DIM
 10
3769.6326310566251
 20
1631.2369879930709
 30
0.0
 11
3779.6326310566251
 21
1631.2369879930709
 31
0.0
 12
3774.6326310566242
 22
1661.236987993072
 32
0.0
 13
3774.6326310566242
 23
1661.236987993072
 33
0.0
  0
TEXT
  5
BD3
  8
DIM
 10
3757.1326310566242
 20
1387.194130850216
 30
0.0
 40
25.0
  1
485
 50
90.0
  7
TITLE3
 72
     1
 11
3744.6326310566242
 21
1419.3369879930731
 31
0.0
 73
     2
  0
LINE
  5
BD4
  8
DIM
 10
2758.0954973212288
 20
1623.8666031179721
 30
0.0
 11
2758.0954973212288
 21
1774.736028873345
 31
0.0
  0
LINE
  5
BD5
  8
DIM
 10
3506.495497321228
 20
1623.8666031179721
 30
0.0
 11
3506.495497321228
 21
1774.736028873345
 31
0.0
  0
LINE
  5
BD6
  8
DIM
 10
2788.0954973212301
 20
1764.106413748442
 30
0.0
 11
3476.4954973212289
 21
1764.106413748442
 31
0.0
  0
SOLID
  5
BD7
  8
DIM
 10
2788.0954973212301
 20
1769.106413748442
 30
0.0
 11
2788.0954973212301
 21
1759.106413748442
 31
0.0
 12
2758.0954973212288
 22
1764.106413748442
 32
0.0
 13
2758.0954973212288
 23
1764.106413748442
 33
0.0
  0
SOLID
  5
BD8
  8
DIM
 10
3476.4954973212289
 20
1769.106413748442
 30
0.0
 11
3476.4954973212289
 21
1759.106413748442
 31
0.0
 12
3506.495497321228
 22
1764.106413748442
 32
0.0
 13
3506.495497321228
 23
1764.106413748442
 33
0.0
  0
TEXT
  5
BD9
  8
DIM
 10
3100.1526401783722
 20
1781.606413748442
 30
0.0
 40
25.0
  1
750
  7
TITLE3
 72
     1
 11
3132.295497321229
 21
1794.106413748442
 31
0.0
 73
     2
  0
LINE
  5
BDA
  8
DIM
 10
2745.8454973212301
 20
1242.436987993073
 30
0.0
 11
2628.3243417237809
 21
1242.436987993073
 31
0.0
  0
LINE
  5
BDB
  8
DIM
 10
2745.8454973212301
 20
1596.236987993072
 30
0.0
 11
2628.3243417237809
 21
1596.236987993072
 31
0.0
  0
LINE
  5
BDC
  8
DIM
 10
2648.3243417237818
 20
1272.436987993073
 30
0.0
 11
2648.3243417237818
 21
1566.236987993072
 31
0.0
  0
SOLID
  5
BDD
  8
DIM
 10
2643.3243417237809
 20
1272.436987993073
 30
0.0
 11
2653.3243417237809
 21
1272.436987993073
 31
0.0
 12
2648.3243417237818
 22
1242.436987993073
 32
0.0
 13
2648.3243417237818
 23
1242.436987993073
 33
0.0
  0
SOLID
  5
BDE
  8
DIM
 10
2643.3243417237809
 20
1566.236987993072
 30
0.0
 11
2653.3243417237809
 21
1566.236987993072
 31
0.0
 12
2648.3243417237818
 22
1596.236987993072
 32
0.0
 13
2648.3243417237818
 23
1596.236987993072
 33
0.0
  0
TEXT
  5
BDF
  8
DIM
 10
2585.3168193698189
 20
1384.2053282395191
 30
0.0
 40
25.0
  1
354
 50
90.0
  7
TITLE3
 72
     1
 11
2572.8168193698189
 21
1416.943423477614
 31
0.0
 73
     2
  0
TEXT
  5
BE0
  8
DIM
 10
3678.2558759774902
 20
1387.5941308502149
 30
0.0
 40
25.0
  1
408
 50
90.0
  7
TITLE3
 72
     1
 11
3665.7558759774902
 21
1419.736987993072
 31
0.0
 73
     2
  0
TEXT
  5
BE1
  8
DIM
 10
3591.4401770474301
 20
1332.0275080007859
 30
0.0
 40
25.0
  1
OPTIONAL
 50
90.0
  7
TITLE3
 72
     1
 11
3591.4401770474301
 21
1419.5275080007859
 31
0.0
  0
TEXT
  5
BE2
  8
DIM
 10
3634.2973199045732
 20
1248.0989365722151
 30
0.0
 40
25.0
  1
SPRING MTG CTRS
 50
90.0
  7
TITLE3
 72
     1
 11
3634.2973199045732
 21
1419.5275080007859
 31
0.0
  0
LINE
  5
BE3
  8
DIM
 10
2770.5954973212301
 20
1227.686987993073
 30
0.0
 11
2770.5954973212301
 21
1081.433827935005
 31
0.0
  0
LINE
  5
BE4
  8
DIM
 10
3493.9954973212289
 20
1227.686987993073
 30
0.0
 11
3493.9954973212289
 21
1081.433827935005
 31
0.0
  0
LINE
  5
BE5
  8
DIM
 10
2800.5954973212288
 20
1101.433827935002
 30
0.0
 11
3463.9954973212289
 21
1101.433827935002
 31
0.0
  0
SOLID
  5
BE6
  8
DIM
 10
2800.5954973212288
 20
1106.433827935004
 30
0.0
 11
2800.5954973212288
 21
1096.433827935004
 31
0.0
 12
2770.5954973212301
 22
1101.433827935002
 32
0.0
 13
2770.5954973212301
 23
1101.433827935002
 33
0.0
  0
SOLID
  5
BE7
  8
DIM
 10
3463.9954973212289
 20
1106.433827935004
 30
0.0
 11
3463.9954973212289
 21
1096.433827935004
 31
0.0
 12
3493.9954973212289
 22
1101.433827935002
 32
0.0
 13
3493.9954973212289
 23
1101.433827935002
 33
0.0
  0
TEXT
  5
BE8
  8
DIM
 10
2911.2365696012239
 20
1117.288849382616
 30
0.0
 40
25.0
  1
HANGING CENTRES 724
  7
TITLE3
 72
     1
 11
3132.0699029345569
 21
1117.288849382616
 31
0.0
  0
CIRCLE
  5
BE9
  8
OUTLINE
 10
2737.0954973212288
 20
1215.736987993072
 30
0.0
 40
9.5
  0
LINE
  5
BEA
  8
OUTLINE
 10
2717.0954973212288
 20
1192.236987993072
 30
0.0
 11
2791.295497321229
 21
1192.236987993072
 31
0.0
  0
LINE
  5
BEB
  8
OUTLINE
 10
2717.0954973212288
 20
1192.236987993072
 30
0.0
 11
2717.0954973212288
 21
1239.236987993072
 31
0.0
  0
LINE
  5
BEC
  8
OUTLINE
 10
2717.0954973212288
 20
1239.236987993072
 30
0.0
 11
2758.0954973212288
 21
1239.236987993072
 31
0.0
  0
CIRCLE
  5
BED
  8
OUTLINE
 10
2737.095497321227
 20
1623.7369879930729
 30
0.0
 40
9.5
  0
LINE
  5
BEE
  8
OUTLINE
 10
2717.0954973212279
 20
1647.2369879930709
 30
0.0
 11
2792.095497321227
 21
1647.23698799307
 31
0.0
  0
LINE
  5
BEF
  8
OUTLINE
 10
2717.0954973212279
 20
1647.2369879930709
 30
0.0
 11
2717.0954973212279
 21
1600.236987993072
 31
0.0
  0
LINE
  5
BF0
  8
OUTLINE
 10
2717.0954973212279
 20
1600.236987993072
 30
0.0
 11
2758.0954973212288
 21
1600.236987993072
 31
0.0
  0
LINE
  5
BF1
  8
OUTLINE
 10
3547.4954973212289
 20
1192.236987993072
 30
0.0
 11
3473.29549732123
 21
1192.236987993072
 31
0.0
  0
CIRCLE
  5
BF2
  8
OUTLINE
 10
3527.4954973212298
 20
1215.736987993072
 30
0.0
 40
9.5
  0
LINE
  5
BF3
  8
OUTLINE
 10
3547.4954973212289
 20
1192.236987993072
 30
0.0
 11
3547.4954973212289
 21
1239.236987993072
 31
0.0
  0
LINE
  5
BF4
  8
OUTLINE
 10
3547.4954973212289
 20
1239.236987993072
 30
0.0
 11
3506.4954973212298
 21
1239.236987993072
 31
0.0
  0
LINE
  5
BF5
  8
OUTLINE
 10
3547.4954973212289
 20
1600.236987993072
 30
0.0
 11
3506.4954973212298
 21
1600.236987993072
 31
0.0
  0
LINE
  5
BF6
  8
OUTLINE
 10
3547.4954973212289
 20
1647.2369879930709
 30
0.0
 11
3547.4954973212289
 21
1600.236987993072
 31
0.0
  0
LINE
  5
BF7
  8
OUTLINE
 10
3547.4954973212289
 20
1647.2369879930709
 30
0.0
 11
3472.4954973212289
 21
1647.23698799307
 31
0.0
  0
CIRCLE
  5
BF8
  8
OUTLINE
 10
3527.4954973212311
 20
1623.7369879930729
 30
0.0
 40
9.5
  0
LINE
  5
BF9
  8
DIM
 10
2737.0954973212288
 20
1210.736987993072
 30
0.0
 11
2737.0954973212288
 21
1013.199578812274
 31
0.0
  0
LINE
  5
BFA
  8
DIM
 10
3527.4954973212298
 20
1210.736987993072
 30
0.0
 11
3527.4954973212298
 21
1013.199578812274
 31
0.0
  0
LINE
  5
BFB
  8
DIM
 10
2767.0954973212279
 20
1033.199578812274
 30
0.0
 11
3497.4954973212289
 21
1033.199578812274
 31
0.0
  0
SOLID
  5
BFC
  8
DIM
 10
2767.0954973212279
 20
1038.1995788122731
 30
0.0
 11
2767.0954973212279
 21
1028.199578812274
 31
0.0
 12
2737.0954973212288
 22
1033.199578812274
 32
0.0
 13
2737.0954973212288
 23
1033.199578812274
 33
0.0
  0
SOLID
  5
BFD
  8
DIM
 10
3497.4954973212289
 20
1038.1995788122731
 30
0.0
 11
3497.4954973212289
 21
1028.199578812274
 31
0.0
 12
3527.4954973212298
 22
1033.199578812274
 32
0.0
 13
3527.4954973212298
 23
1033.199578812274
 33
0.0
  0
TEXT
  5
BFE
  8
DIM
 10
2811.831807696462
 20
1048.9994797795171
 30
0.0
 40
25.0
  1
OPTIONAL SPRING MTG CTRS 790
  7
TITLE3
 72
     1
 11
3132.0699029345569
 21
1048.9994797795171
 31
0.0
  0
LINE
  5
BFF
  8
DIM
 10
2697.0954973212279
 20
708.88767082466904
 30
0.0
 11
2637.941814333939
 21
708.88767082466904
 31
0.0
  0
LINE
  5
C00
  8
DIM
 10
2738.0954973212288
 20
849.68767082467025
 30
0.0
 11
2637.941814333939
 21
849.68767082467025
 31
0.0
  0
LINE
  5
C01
  8
DIM
 10
2657.941814333939
 20
678.88767082466904
 30
0.0
 11
2657.941814333939
 21
648.88767082466904
 31
0.0
  0
LINE
  5
C02
  8
DIM
 10
2657.941814333939
 20
879.68767082467025
 30
0.0
 11
2657.941814333939
 21
909.68767082467025
 31
0.0
  0
SOLID
  5
C03
  8
DIM
 10
2652.941814333939
 20
678.88767082466904
 30
0.0
 11
2662.9418143339381
 21
678.88767082466904
 31
0.0
 12
2657.941814333939
 22
708.88767082466904
 32
0.0
 13
2657.941814333939
 23
708.88767082466904
 33
0.0
  0
SOLID
  5
C04
  8
DIM
 10
2652.941814333939
 20
879.68767082467025
 30
0.0
 11
2662.9418143339381
 21
879.68767082467025
 31
0.0
 12
2657.941814333939
 22
849.68767082467025
 32
0.0
 13
2657.941814333939
 23
849.68767082467025
 33
0.0
  0
TEXT
  5
C05
  8
DIM
 10
2670.441814333939
 20
752.31379172225536
 30
0.0
 40
25.0
  1
141
 50
90.0
  7
TITLE3
 72
     1
 11
2657.941814333939
 21
776.7185536270174
 31
0.0
 73
     2
  0
LINE
  5
C06
  8
DIM
 10
2349.6089922288861
 20
1743.763135156104
 30
0.0
 11
2330.5583279944431
 21
1712.427080827893
 31
0.0
  0
LINE
  5
C07
  8
DIM
 10
2330.5583279944431
 20
1712.427080827893
 30
0.0
 11
2342.3909830301982
 21
1712.427080827893
 31
0.0
  0
LINE
  5
C08
  8
DIM
 10
2342.3909830301982
 20
1712.427080827893
 30
0.0
 11
2342.3909830301982
 21
1675.769812356195
 31
0.0
  0
LINE
  5
C09
  8
DIM
 10
2342.3909830301982
 20
1675.769812356195
 30
0.0
 11
2356.827001427574
 21
1675.769812356195
 31
0.0
  0
LINE
  5
C0A
  8
DIM
 10
2356.827001427574
 20
1712.427080827893
 30
0.0
 11
2356.827001427574
 21
1675.769812356195
 31
0.0
  0
LINE
  5
C0B
  8
DIM
 10
2368.659656463326
 20
1712.427080827893
 30
0.0
 11
2356.827001427574
 21
1712.427080827893
 31
0.0
  0
LINE
  5
C0C
  8
DIM
 10
2349.6089922288861
 20
1743.763135156104
 30
0.0
 11
2368.659656463326
 21
1712.427080827893
 31
0.0
  0
LINE
  5
C0D
  8
DIM
 10
3263.7034979361201
 20
1709.7228074614461
 30
0.0
 11
3263.7034979361201
 21
1673.065538989749
 31
0.0
  0
LINE
  5
C0E
  8
DIM
 10
3249.2674795387438
 20
1709.7228074614461
 30
0.0
 11
3249.2674795387438
 21
1673.065538989749
 31
0.0
  0
LINE
  5
C0F
  8
DIM
 10
3249.2674795387438
 20
1673.065538989749
 30
0.0
 11
3263.7034979361201
 21
1673.065538989749
 31
0.0
  0
LINE
  5
C10
  8
DIM
 10
3256.4854887374322
 20
1741.0588617896581
 30
0.0
 11
3275.5361529718739
 21
1709.7228074614461
 31
0.0
  0
LINE
  5
C11
  8
DIM
 10
3275.5361529718739
 20
1709.7228074614461
 30
0.0
 11
3263.7034979361201
 21
1709.7228074614461
 31
0.0
  0
LINE
  5
C12
  8
DIM
 10
3237.4348245029892
 20
1709.7228074614461
 30
0.0
 11
3249.2674795387438
 21
1709.7228074614461
 31
0.0
  0
LINE
  5
C13
  8
DIM
 10
3256.4854887374322
 20
1741.0588617896581
 30
0.0
 11
3237.4348245029892
 21
1709.7228074614461
 31
0.0
  0
LINE
  5
C14
  8
OUTLINE
 10
2782.0954973212288
 20
1440.8369879930719
 30
0.0
 11
2763.6954973212278
 21
1440.8369879930719
 31
0.0
  0
LINE
  5
C15
  8
OUTLINE
 10
2782.0954973212288
 20
1461.636987993071
 30
0.0
 11
2763.6954973212278
 21
1461.636987993071
 31
0.0
  0
LINE
  5
C16
  8
OUTLINE
 10
2782.0954973212288
 20
1515.836987993071
 30
0.0
 11
2763.6954973212278
 21
1515.836987993071
 31
0.0
  0
LINE
  5
C17
  8
OUTLINE
 10
2782.0954973212288
 20
1536.636987993071
 30
0.0
 11
2763.6954973212278
 21
1536.636987993071
 31
0.0
  0
LINE
  5
C18
  8
OUTLINE
 10
2763.6954973212278
 20
1440.8369879930719
 30
0.0
 11
2763.6954973212278
 21
1461.636987993071
 31
0.0
  0
LINE
  5
C19
  8
OUTLINE
 10
2763.6954973212278
 20
1515.836987993071
 30
0.0
 11
2763.6954973212291
 21
1536.636987993071
 31
0.0
  0
TEXT
  5
C1A
  8
TEXT
 10
2950.7035006619162
 20
110.0
 30
0.0
 40
25.0
  1
6.11.02
 41
1.2679245283018861
  7
TITLE3
 72
     5
 11
3110.7035006619149
 21
110.0
 31
0.0
  0
LINE
  5
C1B
  8
DIM
 10
3547.4954973212289
 20
1215.736987993072
 30
0.0
 11
3706.0215914884579
 21
1215.736987993072
 31
0.0
  0
LINE
  5
C1C
  8
DIM
 10
3547.4954973212289
 20
1623.7369879930729
 30
0.0
 11
3706.0215914884579
 21
1623.7369879930729
 31
0.0
  0
LINE
  5
C1D
  8
DIM
 10
3686.021591488457
 20
1245.736987993072
 30
0.0
 11
3686.021591488457
 21
1593.736987993072
 31
0.0
  0
SOLID
  5
C1E
  8
DIM
 10
3681.0215914884579
 20
1245.736987993072
 30
0.0
 11
3691.021591488457
 21
1245.736987993072
 31
0.0
 12
3686.021591488457
 22
1215.736987993072
 32
0.0
 13
3686.021591488457
 23
1215.736987993072
 33
0.0
  0
SOLID
  5
C1F
  8
DIM
 10
3681.0215914884579
 20
1593.736987993072
 30
0.0
 11
3691.021591488457
 21
1593.736987993072
 31
0.0
 12
3686.021591488457
 22
1623.7369879930729
 32
0.0
 13
3686.021591488457
 23
1623.7369879930729
 33
0.0
  0
LINE
  5
C20
  8
OUTLINE
 10
2453.8690042968892
 20
1647.2384391041419
 30
0.0
 11
2383.8690042968892
 21
1647.2384391041419
 31
0.0
  0
LINE
  5
C21
  8
OUTLINE
 10
2383.8690042968892
 20
1600.2384391041419
 30
0.0
 11
2453.8690042968892
 21
1600.2384391041419
 31
0.0
  0
LINE
  5
C22
  8
OUTLINE
 10
2250.46900429689
 20
1661.2384391041419
 30
0.0
 11
2455.4690042968891
 21
1661.2384391041419
 31
0.0
  0
LINE
  5
C23
  8
OUTLINE
 10
2453.8690042968901
 20
1239.238439104141
 30
0.0
 11
2383.8690042968892
 21
1239.238439104141
 31
0.0
  0
LINE
  5
C24
  8
OUTLINE
 10
2383.8690042968892
 20
1192.2384391041401
 30
0.0
 11
2453.8690042968901
 21
1192.2384391041401
 31
0.0
  0
LINE
  5
C25
  8
OUTLINE
 10
2223.4690042968882
 20
1201.438439104141
 30
0.0
 11
2376.8690042968892
 21
1201.438439104141
 31
0.0
  0
LINE
  5
C26
  8
OUTLINE
 10
2223.46900429689
 20
1637.2384391041419
 30
0.0
 11
2376.8690042968892
 21
1637.2384391041419
 31
0.0
  0
LINE
  5
C27
  8
OUTLINE
 10
2191.46900429689
 20
1195.438439104141
 30
0.0
 11
2191.46900429689
 21
1643.2384391041419
 31
0.0
  0
LINE
  5
C28
  8
OUTLINE
 10
2223.46900429689
 20
1201.438439104141
 30
0.0
 11
2223.46900429689
 21
1637.2384391041419
 31
0.0
  0
LINE
  5
C29
  8
OUTLINE
 10
2191.46900429689
 20
1195.438439104141
 30
0.0
 11
2223.46900429689
 21
1195.438439104141
 31
0.0
  0
LINE
  5
C2A
  8
OUTLINE
 10
2223.46900429689
 20
1201.438439104141
 30
0.0
 11
2223.46900429689
 21
1179.838439104142
 31
0.0
  0
LINE
  5
C2B
  8
OUTLINE
 10
2215.46900429689
 20
1179.838439104142
 30
0.0
 11
2223.46900429689
 21
1179.838439104142
 31
0.0
  0
LINE
  5
C2C
  8
OUTLINE
 10
2383.8690042968892
 20
1239.238439104141
 30
0.0
 11
2383.8690042968892
 21
1192.2384391041401
 31
0.0
  0
LINE
  5
C2D
  8
OUTLINE
 10
2380.8690042968901
 20
1234.2384391041401
 30
0.0
 11
2376.8690042968892
 21
1234.2384391041401
 31
0.0
  0
ARC
  5
C2E
  8
OUTLINE
 10
2380.8690042968901
 20
1231.238439104141
 30
0.0
 40
3.0
 50
0.0
 51
90.0
  0
ARC
  5
C2F
  8
OUTLINE
 10
2380.8690042968901
 20
1200.238439104141
 30
0.0
 40
3.0
 50
270.0
 51
0.0
  0
LINE
  5
C30
  8
OUTLINE
 10
2380.8690042968901
 20
1197.238439104141
 30
0.0
 11
2376.8690042968892
 21
1197.238439104141
 31
0.0
  0
LINE
  5
C31
  8
OUTLINE
 10
2383.8690042968892
 20
1231.238439104141
 30
0.0
 11
2383.8690042968892
 21
1200.238439104141
 31
0.0
  0
LINE
  5
C32
  8
OUTLINE
 10
2376.8690042968892
 20
1197.238439104141
 30
0.0
 11
2376.8690042968892
 21
1234.2384391041401
 31
0.0
  0
LINE
  5
C33
  8
OUTLINE
 10
2191.46900429689
 20
1643.2384391041419
 30
0.0
 11
2223.46900429689
 21
1643.2384391041419
 31
0.0
  0
LINE
  5
C34
  8
OUTLINE
 10
2223.46900429689
 20
1637.238439104143
 30
0.0
 11
2223.46900429689
 21
1658.838439104142
 31
0.0
  0
LINE
  5
C35
  8
OUTLINE
 10
2215.46900429689
 20
1658.838439104142
 30
0.0
 11
2223.46900429689
 21
1658.838439104142
 31
0.0
  0
LINE
  5
C36
  8
OUTLINE
 10
2250.46900429689
 20
1661.2384391041419
 30
0.0
 11
2250.46900429689
 21
1637.2384391041419
 31
0.0
  0
LINE
  5
C37
  8
OUTLINE
 10
2383.8690042968892
 20
1647.2384391041419
 30
0.0
 11
2383.8690042968892
 21
1600.2384391041419
 31
0.0
  0
LINE
  5
C38
  8
OUTLINE
 10
2383.8690042968892
 20
1639.238439104141
 30
0.0
 11
2383.8690042968892
 21
1608.2384391041401
 31
0.0
  0
LINE
  5
C39
  8
OUTLINE
 10
2376.8690042968892
 20
1605.238439104141
 30
0.0
 11
2376.8690042968892
 21
1642.2384391041419
 31
0.0
  0
ARC
  5
C3A
  8
OUTLINE
 10
2380.8690042968892
 20
1608.2384391041401
 30
0.0
 40
3.0
 50
270.0
 51
0.0
  0
LINE
  5
C3B
  8
OUTLINE
 10
2380.8690042968892
 20
1605.238439104141
 30
0.0
 11
2376.8690042968892
 21
1605.238439104141
 31
0.0
  0
LINE
  5
C3C
  8
OUTLINE
 10
2380.8690042968892
 20
1642.2384391041419
 30
0.0
 11
2376.8690042968892
 21
1642.2384391041419
 31
0.0
  0
ARC
  5
C3D
  8
OUTLINE
 10
2380.8690042968892
 20
1639.238439104141
 30
0.0
 40
3.0
 50
0.0
 51
90.0
  0
LINE
  5
C3E
  8
OUTLINE
 10
2524.6690042968899
 20
1637.238439104141
 30
0.0
 11
2524.6690042968899
 21
1201.438439104141
 31
0.0
  0
LINE
  5
C3F
  8
OUTLINE
 10
2524.6690042968899
 20
1201.438439104141
 30
0.0
 11
2524.6690042968899
 21
1177.438439104141
 31
0.0
  0
LINE
  5
C40
  8
OUTLINE
 10
2453.8690042968901
 20
1239.238439104141
 30
0.0
 11
2453.8690042968901
 21
1192.2384391041401
 31
0.0
  0
LINE
  5
C41
  8
OUTLINE
 10
2524.6690042968899
 20
1177.438439104141
 30
0.0
 11
2516.6690042968899
 21
1177.438439104141
 31
0.0
  0
LINE
  5
C42
  8
OUTLINE
 10
2453.8690042968892
 20
1647.2384391041419
 30
0.0
 11
2453.8690042968892
 21
1600.2384391041419
 31
0.0
  0
LINE
  5
C43
  8
OUTLINE
 10
2455.4690042968891
 20
1661.2384391041419
 30
0.0
 11
2455.4690042968891
 21
1637.238439104141
 31
0.0
  0
LINE
  5
C44
  8
OUTLINE
 10
2524.6690042968899
 20
1637.238439104141
 30
0.0
 11
2524.6690042968899
 21
1661.2384391041419
 31
0.0
  0
LINE
  5
C45
  8
OUTLINE
 10
2524.6690042968899
 20
1661.2384391041419
 30
0.0
 11
2516.6690042968899
 21
1661.2384391041419
 31
0.0
  0
LINE
  5
C46
  8
OUTLINE
 10
2453.8690042968901
 20
1201.438439104141
 30
0.0
 11
2524.6690042968899
 21
1201.438439104141
 31
0.0
  0
LINE
  5
C47
  8
OUTLINE
 10
2383.0285069743131
 20
1198.156001065156
 30
0.0
 11
2383.8690042968892
 21
1198.156001065156
 31
0.0
  0
LINE
  5
C48
  8
OUTLINE
 10
2453.8690042968892
 20
1637.238439104141
 30
0.0
 11
2524.6690042968899
 21
1637.238439104141
 31
0.0
  0
TEXT
  5
C49
  8
TEXT
 10
3001.04344477519
 20
47.498612732809299
 30
0.0
 40
25.0
  1
1:10
  7
TITLE3
  0
LINE
  5
C4A
  8
DIM
 10
2349.6089922288861
 20
1185.325679281078
 30
0.0
 11
2330.5583279944431
 21
1153.989624952867
 31
0.0
  0
LINE
  5
C4B
  8
DIM
 10
2349.6089922288861
 20
1185.325679281078
 30
0.0
 11
2368.659656463326
 21
1153.989624952867
 31
0.0
  0
LINE
  5
C4C
  8
DIM
 10
2342.3909830301982
 20
1117.332356481169
 30
0.0
 11
2356.827001427574
 21
1117.332356481169
 31
0.0
  0
LINE
  5
C4D
  8
DIM
 10
2342.3909830301982
 20
1153.989624952867
 30
0.0
 11
2342.3909830301982
 21
1117.332356481169
 31
0.0
  0
LINE
  5
C4E
  8
DIM
 10
2330.5583279944431
 20
1153.989624952867
 30
0.0
 11
2342.3909830301982
 21
1153.989624952867
 31
0.0
  0
LINE
  5
C4F
  8
DIM
 10
2356.827001427574
 20
1153.989624952867
 30
0.0
 11
2356.827001427574
 21
1117.332356481169
 31
0.0
  0
LINE
  5
C50
  8
DIM
 10
2368.659656463326
 20
1153.989624952867
 30
0.0
 11
2356.827001427574
 21
1153.989624952867
 31
0.0
  0
LINE
  5
C51
  8
DIM
 10
2717.0954973212279
 20
1667.236987993072
 30
0.0
 11
2717.0954973212279
 21
1874.536302811516
 31
0.0
  0
LINE
  5
C52
  8
DIM
 10
3547.4954973212289
 20
1667.236987993072
 30
0.0
 11
3547.4954973212289
 21
1874.536302811516
 31
0.0
  0
LINE
  5
C53
  8
DIM
 10
2747.0954973212279
 20
1854.536302811516
 30
0.0
 11
3080.1526401783722
 21
1854.536302811516
 31
0.0
  0
LINE
  5
C54
  8
DIM
 10
3517.4954973212321
 20
1854.536302811516
 30
0.0
 11
3184.4383544640868
 21
1854.536302811516
 31
0.0
  0
SOLID
  5
C55
  8
DIM
 10
2747.0954973212279
 20
1859.536302811516
 30
0.0
 11
2747.0954973212279
 21
1849.536302811516
 31
0.0
 12
2717.0954973212279
 22
1854.536302811516
 32
0.0
 13
2717.0954973212279
 23
1854.536302811516
 33
0.0
  0
SOLID
  5
C56
  8
DIM
 10
3517.4954973212321
 20
1859.536302811516
 30
0.0
 11
3517.4954973212321
 21
1849.536302811516
 31
0.0
 12
3547.4954973212289
 22
1854.536302811516
 32
0.0
 13
3547.4954973212289
 23
1854.536302811516
 33
0.0
  0
TEXT
  5
C57
  8
TEXT
 62
     7
 10
3100.1526401783722
 20
1842.036302811516
 30
0.0
 40
25.0
  1
830
  7
TITLE3
  0
TEXT
  5
C58
  8
TEXT
 62
     7
 10
2996.4951035213949
 20
1373.3572734469251
 30
0.0
 40
50.0
  1
HWP33
  7
TITLE3
  0
INSERT
  5
C59
  8
TEXT
  2
NEW_BLOCK
 10
2168.3510656888061
 20
31.27165940950507
 30
0.0
 41
0.7
 42
0.7
 43
0.7
  0
LINE
  5
C5A
  8
OUTLINE
 10
3007.4954973212298
 20
596.88767082466973
 30
0.0
 11
3455.4954973212298
 21
596.88767082467052
 31
0.0
  0
LINE
  5
C5B
  8
OUTLINE
 10
3007.4954973212298
 20
596.88767082466973
 30
0.0
 11
3007.4954973212298
 21
799.88767082466984
 31
0.0
  0
LINE
  5
C6D
  8
DIM
 10
2250.46900429689
 20
1681.2384391041419
 30
0.0
 11
2250.46900429689
 21
1824.253502432181
 31
0.0
  0
LINE
  5
C6E
  8
DIM
 10
2455.4690042968891
 20
1681.2384391041419
 30
0.0
 11
2455.4690042968891
 21
1824.253502432181
 31
0.0
  0
LINE
  5
C6F
  8
DIM
 10
2220.46900429689
 20
1804.253502432181
 30
0.0
 11
2190.46900429689
 21
1804.253502432181
 31
0.0
  0
LINE
  5
C70
  8
DIM
 10
2485.4690042968891
 20
1804.253502432181
 30
0.0
 11
2515.4690042968891
 21
1804.253502432181
 31
0.0
  0
SOLID
  5
C71
  8
DIM
 10
2220.46900429689
 20
1809.253502432181
 30
0.0
 11
2220.46900429689
 21
1799.253502432181
 31
0.0
 12
2250.46900429689
 22
1804.253502432181
 32
0.0
 13
2250.46900429689
 23
1804.253502432181
 33
0.0
  0
SOLID
  5
C72
  8
DIM
 10
2485.4690042968891
 20
1809.253502432181
 30
0.0
 11
2485.4690042968891
 21
1799.253502432181
 31
0.0
 12
2455.4690042968891
 22
1804.253502432181
 32
0.0
 13
2455.4690042968891
 23
1804.253502432181
 33
0.0
  0
TEXT
  5
C73
  8
DIM
 10
2314.3975757254611
 20
1789.2535024321801
 30
0.0
 40
30.0
  1
205
  7
SIMPLEX
  0
LINE
  5
C74
  8
DIM
 10
3007.4954973212298
 20
819.88767082466984
 30
0.0
 11
3007.4954973212298
 21
930.22298007474683
 31
0.0
  0
LINE
  5
C75
  8
DIM
 10
3455.4954973212298
 20
819.88767082467064
 30
0.0
 11
3455.4954973212298
 21
930.22298007474683
 31
0.0
  0
LINE
  5
C76
  8
DIM
 10
3037.4954973212289
 20
910.22298007474672
 30
0.0
 11
3172.9240687498009
 21
910.22298007474672
 31
0.0
  0
LINE
  5
C77
  8
DIM
 10
3425.4954973212289
 20
910.22298007474672
 30
0.0
 11
3290.0669258926582
 21
910.22298007474672
 31
0.0
  0
SOLID
  5
C78
  8
DIM
 10
3037.4954973212289
 20
915.22298007474683
 30
0.0
 11
3037.4954973212289
 21
905.22298007474683
 31
0.0
 12
3007.4954973212298
 22
910.22298007474672
 32
0.0
 13
3007.4954973212298
 23
910.22298007474672
 33
0.0
  0
SOLID
  5
C79
  8
DIM
 10
3425.4954973212289
 20
915.22298007474683
 30
0.0
 11
3425.4954973212289
 21
905.22298007474683
 31
0.0
 12
3455.4954973212298
 22
910.22298007474672
 32
0.0
 13
3455.4954973212298
 23
910.22298007474672
 33
0.0
  0
TEXT
  5
C7A
  8
DIM
 10
3192.9240687498009
 20
895.22298007474694
 30
0.0
 40
30.0
  1
448
  7
SIMPLEX
  0
LINE
  5
C7B
  8
DIM
 10
2987.4954973212298
 20
799.88767082466984
 30
0.0
 11
2901.040958835039
 21
799.88767082466984
 31
0.0
  0
LINE
  5
C7C
  8
DIM
 10
2987.4954973212298
 20
596.88767082466973
 30
0.0
 11
2901.040958835039
 21
596.88767082466973
 31
0.0
  0
LINE
  5
C7D
  8
DIM
 10
2921.040958835039
 20
829.88767082466984
 30
0.0
 11
2921.040958835039
 21
859.88767082466995
 31
0.0
  0
LINE
  5
C7E
  8
DIM
 10
2921.040958835039
 20
566.88767082466973
 30
0.0
 11
2921.040958835039
 21
536.88767082466973
 31
0.0
  0
SOLID
  5
C7F
  8
DIM
 10
2916.040958835039
 20
829.88767082466984
 30
0.0
 11
2926.040958835039
 21
829.88767082466984
 31
0.0
 12
2921.040958835039
 22
799.88767082466984
 32
0.0
 13
2921.040958835039
 23
799.88767082466984
 33
0.0
  0
SOLID
  5
C80
  8
DIM
 10
2916.040958835039
 20
566.88767082466973
 30
0.0
 11
2926.040958835039
 21
566.88767082466973
 31
0.0
 12
2921.040958835039
 22
596.88767082466973
 32
0.0
 13
2921.040958835039
 23
596.88767082466973
 33
0.0
  0
TEXT
  5
C81
  8
DIM
 10
2936.040958835039
 20
659.81624225324174
 30
0.0
 40
30.0
  1
203
 50
90.0
  7
SIMPLEX
  0
ENDSEC
  0
EOF
