  0
SECTION
  2
HEADER
  9
$ACADVER
  1
AC1009
  9
$INSBASE
 10
0.0
 20
0.0
 30
0.0
  9
$EXTMIN
 10
1043.622779895672
 20
0.0
 30
0.0
  9
$EXTMAX
 10
3890.0
 20
2233.8370458295271
 30
0.0
  9
$LIMMIN
 10
0.0
 20
0.0
  9
$LIMMAX
 10
3890.0
 20
2660.0
  9
$ORTHOMODE
 70
     1
  9
$REGENMODE
 70
     1
  9
$FILLMODE
 70
     1
  9
$QTEXTMODE
 70
     0
  9
$MIRRTEXT
 70
     0
  9
$DRAGMODE
 70
     2
  9
$LTSCALE
 40
100.0
  9
$OSMODE
 70
     0
  9
$ATTMODE
 70
     1
  9
$TEXTSIZE
 40
30.0
  9
$TRACEWID
 40
0.05
  9
$TEXTSTYLE
  7
TITLE3
  9
$CLAYER
  8
CLEAR
  9
$CELTYPE
  6
BYLAYER
  9
$CECOLOR
 62
   256
  9
$DIMSCALE
 40
1.0
  9
$DIMASZ
 40
30.0
  9
$DIMEXO
 40
20.0
  9
$DIMDLI
 40
0.38
  9
$DIMRND
 40
0.0
  9
$DIMDLE
 40
0.0
  9
$DIMEXE
 40
20.0
  9
$DIMTP
 40
0.0
  9
$DIMTM
 40
0.0
  9
$DIMTXT
 40
30.0
  9
$DIMCEN
 40
0.09
  9
$DIMTSZ
 40
0.0
  9
$DIMTOL
 70
     0
  9
$DIMLIM
 70
     0
  9
$DIMTIH
 70
     0
  9
$DIMTOH
 70
     0
  9
$DIMSE1
 70
     0
  9
$DIMSE2
 70
     0
  9
$DIMTAD
 70
     0
  9
$DIMZIN
 70
     0
  9
$DIMBLK
  1

  9
$DIMASO
 70
     0
  9
$DIMSHO
 70
     0
  9
$DIMPOST
  1

  9
$DIMAPOST
  1

  9
$DIMALT
 70
     0
  9
$DIMALTD
 70
     2
  9
$DIMALTF
 40
25.399999999999999
  9
$DIMLFAC
 40
1.0
  9
$DIMTOFL
 70
     0
  9
$DIMTVP
 40
0.0
  9
$DIMTIX
 70
     0
  9
$DIMSOXD
 70
     0
  9
$DIMSAH
 70
     0
  9
$DIMBLK1
  1

  9
$DIMBLK2
  1

  9
$DIMSTYLE
  2
STANDARD
  9
$DIMCLRD
 70
    52
  9
$DIMCLRE
 70
    52
  9
$DIMCLRT
 70
    50
  9
$DIMTFAC
 40
1.0
  9
$DIMGAP
 40
20.0
  9
$LUNITS
 70
     2
  9
$LUPREC
 70
     2
  9
$SKETCHINC
 40
0.1
  9
$FILLETRAD
 40
0.0
  9
$AUNITS
 70
     0
  9
$AUPREC
 70
     2
  9
$MENU
  1
\acad12\support\cnc
  9
$ELEVATION
 40
0.0
  9
$PELEVATION
 40
0.0
  9
$THICKNESS
 40
0.0
  9
$LIMCHECK
 70
     0
  9
$BLIPMODE
 70
     0
  9
$CHAMFERA
 40
0.0
  9
$CHAMFERB
 40
0.0
  9
$SKPOLY
 70
     0
  9
$TDCREATE
 40
2451407.7046237262
  9
$TDUPDATE
 40
2452929.568438217
  9
$TDINDWG
 40
0.2964976273
  9
$TDUSRTIMER
 40
0.2964976273
  9
$USRTIMER
 70
     1
  9
$ANGBASE
 50
0.0
  9
$ANGDIR
 70
     0
  9
$PDMODE
 70
     2
  9
$PDSIZE
 40
10.0
  9
$PLINEWID
 40
0.0
  9
$COORDS
 70
     2
  9
$SPLFRAME
 70
     0
  9
$SPLINETYPE
 70
     6
  9
$SPLINESEGS
 70
     8
  9
$ATTDIA
 70
     0
  9
$ATTREQ
 70
     1
  9
$HANDLING
 70
 22529
  9
$HANDSEED
  5
9588
  9
$SURFTAB1
 70
     6
  9
$SURFTAB2
 70
     6
  9
$SURFTYPE
 70
     6
  9
$SURFU
 70
     6
  9
$SURFV
 70
     6
  9
$UCSNAME
  2

  9
$UCSORG
 10
0.0
 20
0.0
 30
0.0
  9
$UCSXDIR
 10
1.0
 20
0.0
 30
0.0
  9
$UCSYDIR
 10
0.0
 20
1.0
 30
0.0
  9
$PUCSNAME
  2

  9
$PUCSORG
 10
0.0
 20
0.0
 30
0.0
  9
$PUCSXDIR
 10
1.0
 20
0.0
 30
0.0
  9
$PUCSYDIR
 10
0.0
 20
1.0
 30
0.0
  9
$USERI1
 70
     0
  9
$USERI2
 70
     0
  9
$USERI3
 70
     0
  9
$USERI4
 70
     0
  9
$USERI5
 70
     0
  9
$USERR1
 40
0.0
  9
$USERR2
 40
0.0
  9
$USERR3
 40
0.0
  9
$USERR4
 40
0.0
  9
$USERR5
 40
0.0
  9
$WORLDVIEW
 70
     1
  9
$SHADEDGE
 70
     3
  9
$SHADEDIF
 70
    70
  9
$TILEMODE
 70
     1
  9
$MAXACTVP
 70
    16
  9
$PLIMCHECK
 70
     0
  9
$PEXTMIN
 10
1.0000000000000000E+020
 20
1.0000000000000000E+020
 30
1.0000000000000000E+020
  9
$PEXTMAX
 10
-1.0000000000000000E+020
 20
-1.0000000000000000E+020
 30
-1.0000000000000000E+020
  9
$PLIMMIN
 10
0.0
 20
0.0
  9
$PLIMMAX
 10
12.0
 20
9.0
  9
$UNITMODE
 70
     0
  9
$VISRETAIN
 70
     0
  9
$PLINEGEN
 70
     0
  9
$PSLTSCALE
 70
     0
  0
ENDSEC
  0
SECTION
  2
TABLES
  0
TABLE
  2
VPORT
 70
     2
  0
VPORT
  2
*ACTIVE
 70
     0
 10
0.0
 20
0.0
 11
1.0
 21
1.0
 12
2466.8205947936121
 22
1116.8639289415421
 13
0.0
 23
0.0
 14
25.0
 24
25.0
 15
100.0
 25
100.0
 16
0.0
 26
0.0
 36
1.0
 17
0.0
 27
0.0
 37
0.0
 40
2258.4684199051958
 41
1.5912408759124079
 42
50.0
 43
0.0
 44
0.0
 50
0.0
 51
0.0
 71
     0
 72
   100
 73
     1
 74
     0
 75
     0
 76
     0
 77
     0
 78
     0
  0
ENDTAB
  0
TABLE
  2
LTYPE
 70
     2
  0
LTYPE
  2
CONTINUOUS
 70
     0
  3
Solid line
 72
    65
 73
     0
 40
0.0
  0
LTYPE
  2
PHANTOM2
 70
     0
  3
Phantom (.5x) ___ _ _ ___ _ _ ___ _ _ ___ _ _
 72
    65
 73
     6
 40
1.25
 49
0.625
 49
-0.125
 49
0.125
 49
-0.125
 49
0.125
 49
-0.125
  0
ENDTAB
  0
TABLE
  2
LAYER
 70
     9
  0
LAYER
  2
0
 70
     0
 62
     7
  6
CONTINUOUS
  0
LAYER
  2
CLEAR
 70
     0
 62
     1
  6
PHANTOM2
  0
LAYER
  2
OUTLINE
 70
     0
 62
     7
  6
CONTINUOUS
  0
LAYER
  2
TEXT
 70
     0
 62
   100
  6
CONTINUOUS
  0
LAYER
  2
DIM
 70
     0
 62
    50
  6
CONTINUOUS
  0
LAYER
  2
OVERLAY-A3
 70
     0
 62
     7
  6
CONTINUOUS
  0
LAYER
  2
NODES
 70
     0
 62
     7
  6
CONTINUOUS
  0
LAYER
  2
OVAL
 70
     0
 62
     7
  6
CONTINUOUS
  0
LAYER
  2
AME_FRZ
 70
     0
 62
     7
  6
CONTINUOUS
  0
ENDTAB
  0
TABLE
  2
STYLE
 70
     3
  0
STYLE
  2
STANDARD
 70
     0
 40
0.0
 41
1.0
 50
0.0
 71
     0
 42
0.2
  3
txt
  4

  0
STYLE
  2
TITLE3
 70
     0
 40
30.0
 41
1.0
 50
0.0
 71
     0
 42
30.0
  3
SIMPLEX
  4

  0
STYLE
  2
SIMPLEX
 70
     0
 40
40.0
 41
1.0
 50
0.0
 71
     0
 42
25.0
  3
SIMPLEX
  4

  0
ENDTAB
  0
TABLE
  2
VIEW
 70
     0
  0
ENDTAB
  0
TABLE
  2
UCS
 70
     0
  0
ENDTAB
  0
TABLE
  2
APPID
 70
     2
  0
APPID
  2
ACAD
 70
     0
  0
APPID
  2
AME_SOL
 70
     0
  0
ENDTAB
  0
TABLE
  2
DIMSTYLE
 70
     1
  0
DIMSTYLE
  2
STANDARD
 70
     0
  3

  4

  5

  6

  7

 40
1.0
 41
0.18
 42
0.0625
 43
0.38
 44
0.18
 45
0.0
 46
0.0
 47
0.0
 48
0.0
140
0.18
141
0.09
142
0.0
143
25.399999999999999
144
1.0
145
0.0
146
1.0
147
0.09
 71
     0
 72
     0
 73
     1
 74
     1
 75
     0
 76
     0
 77
     0
 78
     0
170
     0
171
     2
172
     0
173
     0
174
     0
175
     0
176
     0
177
     0
178
     0
  0
ENDTAB
  0
ENDSEC
  0
SECTION
  2
BLOCKS
  0
BLOCK
  8
0
  2
$MODEL_SPACE
 70
     0
 10
0.0
 20
0.0
 30
0.0
  3
$MODEL_SPACE
  1

  0
ENDBLK
  5
9177
  8
0
  0
BLOCK
 67
     1
  8
0
  2
$PAPER_SPACE
 70
     0
 10
0.0
 20
0.0
 30
0.0
  3
$PAPER_SPACE
  1

  0
ENDBLK
  5
9173
 67
     1
  8
0
  0
BLOCK
  8
0
  2
RO42
 70
     0
 10
0.0
 20
0.0
 30
0.0
  3
RO42
  1

  0
CIRCLE
  5
9191
  8
0
 10
0.0
 20
0.0
 30
0.0
 40
12.699999999999999
  0
ENDBLK
  5
9192
  8
0
  0
BLOCK
  8
0
  2
RR07
 70
     0
 10
0.0
 20
0.0
 30
0.0
  3
RR07
  1

  0
POINT
  5
9195
  8
NODES
 10
0.0
 20
0.0
 30
0.0
  0
ARC
  5
9196
  8
OVAL
 10
-5.5
 20
0.0
 30
0.0
 40
4.5000000000000009
 50
90.000000000000028
 51
270.0
  0
ARC
  5
9197
  8
OVAL
 10
5.5
 20
0.0
 30
0.0
 40
4.5000000000000009
 50
270.0
 51
90.0
  0
LINE
  5
9198
  8
OVAL
 10
-5.5
 20
-4.5
 30
0.0
 11
5.5
 21
-4.5
 31
0.0
  0
LINE
  5
9199
  8
OVAL
 10
5.5
 20
4.5
 30
0.0
 11
-5.5
 21
4.5
 31
0.0
  0
ENDBLK
  5
919A
  8
0
  0
BLOCK
  8
0
  2
AME_NIL
 70
     0
 10
0.0
 20
0.0
 30
0.0
  3
AME_NIL
  1
AME_NIL
  0
ENDBLK
  5
919D
  8
0
  0
BLOCK
  8
0
  2
AME_SOL
 70
     0
 10
0.0
 20
0.0
 30
0.0
  3
AME_SOL
  1
AME_SOL
  0
ENDBLK
  5
91A0
  8
0
  0
BLOCK
  8
0
  2
NEW_BLOCK
 70
     0
 10
0.0
 20
0.0
 30
0.0
  3
NEW_BLOCK
  1

  0
TEXT
  5
91A3
  8
TEXT
 10
27.285946821803002
 20
25.27142175952417
 30
0.0
 40
40.0
  1
available on request
  7
TITLE3
  0
TEXT
  5
91A4
  8
TEXT
 10
27.285946821803002
 20
93.842850330952714
 30
0.0
 40
40.0
  1
Certified dimensions
  7
TITLE3
  0
TEXT
  5
91A5
  8
TEXT
 10
27.285946821803002
 20
162.4142789023812
 30
0.0
 40
40.0
  1
without notice or obligation.
  7
TITLE3
  0
TEXT
  5
91A6
  8
TEXT
 10
27.285946821803002
 20
230.9857074738097
 30
0.0
 40
40.0
  1
specifications at any time
  7
TITLE3
  0
TEXT
  5
91A7
  8
TEXT
 10
27.285946821803002
 20
299.55713604523839
 30
0.0
 40
40.0
  1
the right to change 
  7
TITLE3
  0
TEXT
  5
91A8
  8
TEXT
 10
27.285946821803002
 20
436.69999318809528
 30
0.0
 40
40.0
  1
NOTE
  7
TITLE3
  0
TEXT
  5
91A9
  8
TEXT
 10
27.285946821803002
 20
368.12856461666672
 30
0.0
 40
40.0
  1
The manufacturer reserves
  7
TITLE3
  0
ENDBLK
  5
91AA
  8
0
  0
BLOCK
  8
0
  2
NEW_BLOCK0
 70
     0
 10
0.0
 20
0.0
 30
0.0
  3
NEW_BLOCK0
  1

  0
INSERT
  5
91AD
  8
DIM
  2
NEW_BLOCK
 10
13.048098169647799
 20
6.0725618626865971
 30
0.0
 41
0.7000000000000455
 42
0.6999999999999993
 43
0.7
  0
ENDBLK
  5
91AE
  8
0
  0
ENDSEC
  0
SECTION
  2
ENTITIES
  0
LINE
  5
94AB
  8
OUTLINE
 10
3264.8012416299289
 20
567.75723476236101
 30
0.0
 11
3264.8012416299289
 21
804.71374117562493
 31
0.0
  0
LINE
  5
94AC
  8
OUTLINE
 10
3289.8012416299289
 20
925.75723476236089
 30
0.0
 11
2056.8012416299289
 21
925.7572347623618
 31
0.0
  0
LINE
  5
94AD
  8
OUTLINE
 10
2081.801241629928
 20
567.75723476236192
 30
0.0
 11
2081.801241629928
 21
804.71374117562493
 31
0.0
  0
LINE
  5
94AE
  8
OUTLINE
 10
3274.8012416299289
 20
567.75723476236067
 30
0.0
 11
2071.8012416299289
 21
567.7572347623618
 31
0.0
  0
LINE
  5
94AF
  8
OUTLINE
 10
1696.1554097917331
 20
567.71374117562505
 30
0.0
 11
1696.1554097917331
 21
925.75723476236203
 31
0.0
  0
LINE
  5
94B0
  8
OUTLINE
 10
1721.155409791731
 20
925.75723476236203
 30
0.0
 11
1166.0657210438919
 21
925.7572347623618
 31
0.0
  0
INSERT
  5
94B1
  8
OUTLINE
  2
RO42
 10
1503.5657210438919
 20
589.71374117562414
 30
0.0
 41
-1.0
  0
LINE
  5
94B2
  8
OUTLINE
 10
1191.0657210438919
 20
567.71374117562505
 30
0.0
 11
1191.0657210438919
 21
925.7572347623618
 31
0.0
  0
LINE
  5
94B3
  8
OUTLINE
 10
1181.0657210438919
 20
567.71374117562505
 30
0.0
 11
1706.1554097917331
 21
567.71374117562505
 31
0.0
  0
LINE
  5
94B4
  8
OUTLINE
 10
2156.301241629928
 20
909.25723476236101
 30
0.0
 11
3208.3012416299289
 21
909.25723476236135
 31
0.0
  0
LINE
  5
94B5
  8
OUTLINE
 10
2156.301241629928
 20
625.25723476236112
 30
0.0
 11
3208.3012416299289
 21
625.25723476236067
 31
0.0
  0
LINE
  5
94B6
  8
OUTLINE
 10
2156.301241629928
 20
909.25723476236101
 30
0.0
 11
2156.301241629928
 21
625.25723476236112
 31
0.0
  0
LINE
  5
94B7
  8
OUTLINE
 10
3208.3012416299289
 20
909.25723476236135
 30
0.0
 11
3208.3012416299289
 21
625.25723476236067
 31
0.0
  0
LINE
  5
94B8
  8
OUTLINE
 10
1696.1554097917331
 20
811.71374117562505
 30
0.0
 11
1761.1554097917319
 21
811.71374117562505
 31
0.0
  0
LINE
  5
94B9
  8
OUTLINE
 10
1723.6554097917319
 20
804.71374117562493
 30
0.0
 11
1758.6554097917319
 21
804.71374117562493
 31
0.0
  0
LINE
  5
94BA
  8
OUTLINE
 10
1708.6554097917331
 20
824.21374117562505
 30
0.0
 11
1761.1554097917319
 21
824.21374117562505
 31
0.0
  0
LINE
  5
94BB
  8
OUTLINE
 10
1723.6554097917319
 20
804.7137411756247
 30
0.0
 11
1723.6554097917319
 21
811.71374117562505
 31
0.0
  0
LINE
  5
94BC
  8
OUTLINE
 10
1696.1554097917319
 20
881.71374117562505
 30
0.0
 11
1708.655409791731
 21
881.71374117562505
 31
0.0
  0
LINE
  5
94BD
  8
OUTLINE
 10
1708.6554097917331
 20
824.21374117562505
 30
0.0
 11
1708.655409791731
 21
881.71374117562505
 31
0.0
  0
LINE
  5
94BE
  8
OUTLINE
 10
1758.6554097917319
 20
804.7137411756247
 30
0.0
 11
1758.6554097917319
 21
811.71374117562505
 31
0.0
  0
LINE
  5
94BF
  8
OUTLINE
 10
1761.1554097917319
 20
811.71374117562505
 30
0.0
 11
1761.1554097917319
 21
824.21374117562505
 31
0.0
  0
LINE
  5
94C0
  8
OUTLINE
 10
1178.5657210438919
 20
824.21374117562505
 30
0.0
 11
1126.0657210438919
 21
824.21374117562505
 31
0.0
  0
LINE
  5
94C1
  8
OUTLINE
 10
1163.5657210438919
 20
804.71374117562493
 30
0.0
 11
1128.5657210438919
 21
804.71374117562493
 31
0.0
  0
LINE
  5
94C2
  8
OUTLINE
 10
1191.0657210438919
 20
811.71374117562505
 30
0.0
 11
1126.0657210438919
 21
811.71374117562505
 31
0.0
  0
LINE
  5
94C3
  8
OUTLINE
 10
1126.0657210438919
 20
811.71374117562505
 30
0.0
 11
1126.0657210438919
 21
824.21374117562505
 31
0.0
  0
LINE
  5
94C4
  8
OUTLINE
 10
1128.5657210438919
 20
804.7137411756247
 30
0.0
 11
1128.5657210438919
 21
811.71374117562505
 31
0.0
  0
LINE
  5
94C5
  8
OUTLINE
 10
1163.5657210438919
 20
804.7137411756247
 30
0.0
 11
1163.5657210438919
 21
811.71374117562505
 31
0.0
  0
LINE
  5
94C6
  8
OUTLINE
 10
1191.0657210438919
 20
881.71374117562505
 30
0.0
 11
1178.5657210438919
 21
881.71374117562505
 31
0.0
  0
LINE
  5
94C7
  8
OUTLINE
 10
1178.5657210438919
 20
824.21374117562505
 30
0.0
 11
1178.5657210438919
 21
881.71374117562505
 31
0.0
  0
LINE
  5
94C8
  8
OUTLINE
 10
3273.8012416299289
 20
881.71374117562505
 30
0.0
 11
3273.8012416299289
 21
811.71374117562505
 31
0.0
  0
LINE
  5
94C9
  8
OUTLINE
 10
3226.8012416299289
 20
881.71374117562505
 30
0.0
 11
3226.8012416299289
 21
811.71374117562505
 31
0.0
  0
LINE
  5
94CA
  8
OUTLINE
 10
3226.8012416299289
 20
811.71374117562505
 30
0.0
 11
3273.8012416299289
 21
811.71374117562505
 31
0.0
  0
LINE
  5
94CB
  8
OUTLINE
 10
3267.8012416299289
 20
804.71374117562493
 30
0.0
 11
3232.8012416299289
 21
804.71374117562493
 31
0.0
  0
LINE
  5
94CC
  8
OUTLINE
 10
3267.8012416299289
 20
804.7137411756247
 30
0.0
 11
3267.8012416299289
 21
811.71374117562505
 31
0.0
  0
LINE
  5
94CD
  8
OUTLINE
 10
3226.8012416299289
 20
881.71374117562505
 30
0.0
 11
3273.8012416299289
 21
881.71374117562505
 31
0.0
  0
LINE
  5
94CE
  8
OUTLINE
 10
1757.1554097917331
 20
909.25723476236135
 30
0.0
 11
1696.1554097917319
 21
909.25723476236101
 31
0.0
  0
LINE
  5
94CF
  8
OUTLINE
 10
1757.1554097917319
 20
625.25723476236067
 30
0.0
 11
1757.1554097917319
 21
804.71374117562493
 31
0.0
  0
LINE
  5
94D0
  8
OUTLINE
 10
1757.1554097917319
 20
625.25723476236067
 30
0.0
 11
1696.1554097917319
 21
625.25723476236067
 31
0.0
  0
LINE
  5
94D1
  8
OUTLINE
 10
1130.065721043891
 20
912.75723476236135
 30
0.0
 11
1130.065721043891
 21
824.21374117562505
 31
0.0
  0
LINE
  5
94D2
  8
OUTLINE
 10
1190.0657210438919
 20
687.75723476236146
 30
0.0
 11
1130.065721043891
 21
687.75723476236146
 31
0.0
  0
LINE
  5
94D3
  8
OUTLINE
 10
1191.0657210438919
 20
672.75723476236135
 30
0.0
 11
1190.0657210438919
 21
672.75723476236135
 31
0.0
  0
LINE
  5
94D4
  8
OUTLINE
 10
1191.0657210438919
 20
912.75723476236135
 30
0.0
 11
1130.065721043891
 21
912.75723476236135
 31
0.0
  0
LINE
  5
94D5
  8
OUTLINE
 10
2072.8012416299289
 20
881.71374117562505
 30
0.0
 11
2072.8012416299289
 21
811.71374117562505
 31
0.0
  0
LINE
  5
94D6
  8
OUTLINE
 10
2119.801241629928
 20
881.71374117562505
 30
0.0
 11
2119.801241629928
 21
811.71374117562505
 31
0.0
  0
LINE
  5
94D7
  8
OUTLINE
 10
2113.801241629928
 20
804.71374117562493
 30
0.0
 11
2078.801241629928
 21
804.71374117562493
 31
0.0
  0
LINE
  5
94D8
  8
OUTLINE
 10
2072.8012416299289
 20
811.71374117562505
 30
0.0
 11
2119.801241629928
 21
811.71374117562505
 31
0.0
  0
LINE
  5
94D9
  8
OUTLINE
 10
2078.801241629928
 20
804.7137411756247
 30
0.0
 11
2078.801241629928
 21
811.71374117562505
 31
0.0
  0
LINE
  5
94DA
  8
OUTLINE
 10
2113.801241629928
 20
804.7137411756247
 30
0.0
 11
2113.801241629928
 21
811.71374117562505
 31
0.0
  0
LINE
  5
94DB
  8
OUTLINE
 10
2072.8012416299289
 20
881.71374117562505
 30
0.0
 11
2119.801241629928
 21
881.71374117562505
 31
0.0
  0
LINE
  5
94DC
  8
OUTLINE
 10
3264.8012416299289
 20
881.71374117562505
 30
0.0
 11
3264.801241629928
 21
925.75723476236089
 31
0.0
  0
LINE
  5
94DD
  8
OUTLINE
 10
2081.801241629928
 20
881.71374117562505
 30
0.0
 11
2081.801241629928
 21
925.7572347623618
 31
0.0
  0
TEXT
  5
94DE
  8
DIM
 62
    50
 10
3385.9080307238751
 20
708.18580619093211
 30
0.0
 40
30.0
  1
358
 50
90.0
  7
TITLE3
 72
     1
 11
3370.9080307238751
 21
746.75723476236055
 31
0.0
 73
     2
  0
LINE
  5
94DF
  8
DIM
 62
    52
 10
3291.9953165005459
 20
567.75723476236067
 30
0.0
 11
3390.9080307238751
 21
567.75723476236067
 31
0.0
  0
LINE
  5
94E0
  8
DIM
 62
    52
 10
3370.9080307238751
 20
597.75723476236089
 30
0.0
 11
3370.9080307238751
 21
698.78081622006869
 31
0.0
  0
SOLID
  5
94E1
  8
DIM
 62
    52
 10
3365.9080307238751
 20
597.75723476236089
 30
0.0
 11
3375.9080307238751
 21
597.75723476236089
 31
0.0
 12
3370.9080307238751
 22
567.75723476236067
 32
0.0
 13
3370.9080307238751
 23
567.75723476236067
 33
0.0
  0
SOLID
  5
94E2
  8
DIM
 62
    52
 10
3365.9080307238751
 20
895.75723476236067
 30
0.0
 11
3375.9080307238751
 21
895.75723476236067
 31
0.0
 12
3370.9080307238751
 22
925.75723476236089
 32
0.0
 13
3370.9080307238751
 23
925.75723476236089
 33
0.0
  0
LINE
  5
94E3
  8
DIM
 62
    52
 10
3307.9953165005468
 20
925.75723476236089
 30
0.0
 11
3390.9080307238751
 21
925.75723476236089
 31
0.0
  0
LINE
  5
94E4
  8
DIM
 62
    52
 10
3370.9080307238751
 20
895.75723476236067
 30
0.0
 11
3370.9080307238751
 21
798.00394525856689
 31
0.0
  0
LINE
  5
94E5
  8
DIM
 62
    52
 10
2056.8012416299289
 20
945.75723476236169
 30
0.0
 11
2056.8012416299289
 21
1056.310566898112
 31
0.0
  0
LINE
  5
94E6
  8
DIM
 62
    52
 10
3289.8012416299289
 20
945.75723476236101
 30
0.0
 11
3289.8012416299289
 21
1056.310566898112
 31
0.0
  0
LINE
  5
94E7
  8
DIM
 62
    52
 10
2086.8012416299289
 20
1036.310566898112
 30
0.0
 11
2601.8807715708649
 21
1036.310566898112
 31
0.0
  0
LINE
  5
94E8
  8
DIM
 62
    52
 10
3259.8012416299289
 20
1036.310566898112
 30
0.0
 11
2739.8099315559198
 21
1036.310566898112
 31
0.0
  0
SOLID
  5
94E9
  8
DIM
 62
    52
 10
2086.8012416299289
 20
1041.310566898112
 30
0.0
 11
2086.8012416299289
 21
1031.310566898112
 31
0.0
 12
2056.8012416299289
 22
1036.310566898112
 32
0.0
 13
2056.8012416299289
 23
1036.310566898112
 33
0.0
  0
SOLID
  5
94EA
  8
DIM
 62
    52
 10
3259.8012416299289
 20
1041.310566898112
 30
0.0
 11
3259.8012416299289
 21
1031.310566898112
 31
0.0
 12
3289.8012416299289
 22
1036.310566898112
 32
0.0
 13
3289.8012416299289
 23
1036.310566898112
 33
0.0
  0
TEXT
  5
94EB
  8
DIM
 62
    50
 10
2623.3012416299289
 20
1021.310566898112
 30
0.0
 40
30.0
  1
1233
  7
TITLE3
 72
     1
 11
2673.3012416299289
 21
1036.310566898112
 31
0.0
 73
     2
  0
TEXT
  5
94EC
  8
TEXT
 10
2948.394065173025
 20
110.0
 30
0.0
 40
30.0
  1
16.10.03
 41
0.8888888888888891
  7
TITLE3
 72
     5
 11
3108.394065173025
 21
110.0
 31
0.0
  0
LINE
  5
94ED
  8
OUTLINE
 10
3263.8012416299321
 20
1340.830338335091
 30
0.0
 11
2082.8012416299312
 21
1340.830338335091
 31
0.0
  0
LINE
  5
94EE
  8
OUTLINE
 10
2082.8012416299312
 20
1843.8303383350919
 30
0.0
 11
3263.8012416299321
 21
1843.8303383350919
 31
0.0
  0
LINE
  5
94EF
  8
OUTLINE
 10
2056.8012416299312
 20
1366.830338335091
 30
0.0
 11
2108.8012416299312
 21
1314.8303383350919
 31
0.0
  0
INSERT
  5
94F0
  8
OUTLINE
  2
RR07
 10
2117.8012416299312
 20
1327.3303383350919
 30
0.0
  0
LINE
  5
94F1
  8
OUTLINE
 10
2157.8012416299312
 20
1278.8303383350931
 30
0.0
 11
3219.8012416299312
 21
1278.8303383350931
 31
0.0
  0
CIRCLE
  5
94F2
  8
OUTLINE
 10
2095.3012416299312
 20
1294.8351463771421
 30
0.0
 40
9.5
  0
LINE
  5
94F3
  8
OUTLINE
 10
2120.3012416299312
 20
1274.8351463771421
 30
0.0
 11
2120.3012416299312
 21
1314.8303383350919
 31
0.0
  0
LINE
  5
94F4
  8
OUTLINE
 10
2070.3012416299312
 20
1274.8351463771421
 30
0.0
 11
2070.3012416299312
 21
1353.3303383350919
 31
0.0
  0
LINE
  5
94F5
  8
OUTLINE
 10
2120.3012416299312
 20
1274.8351463771421
 30
0.0
 11
2070.3012416299312
 21
1274.8351463771421
 31
0.0
  0
LINE
  5
94F6
  8
OUTLINE
 10
3118.8012416299312
 20
1905.8303383350919
 30
0.0
 11
2258.8012416299312
 21
1905.8303383350919
 31
0.0
  0
LINE
  5
94F7
  8
OUTLINE
 10
2082.8012416299312
 20
1340.830338335091
 30
0.0
 11
2082.8012416299312
 21
1843.8303383350919
 31
0.0
  0
LINE
  5
94F8
  8
OUTLINE
 10
2070.3012416299312
 20
1909.8255302930399
 30
0.0
 11
2070.3012416299312
 21
1831.3303383350919
 31
0.0
  0
LINE
  5
94F9
  8
OUTLINE
 10
2120.3012416299312
 20
1909.8255302930399
 30
0.0
 11
2120.3012416299312
 21
1869.830338335091
 31
0.0
  0
INSERT
  5
94FA
  8
OUTLINE
  2
RR07
 10
2117.8012416299312
 20
1857.330338335091
 30
0.0
  0
LINE
  5
94FB
  8
OUTLINE
 10
2082.8012416299312
 20
1843.8303383350919
 30
0.0
 11
2108.8012416299321
 21
1869.830338335091
 31
0.0
  0
LINE
  5
94FC
  8
OUTLINE
 10
2082.8012416299312
 20
1843.8303383350919
 30
0.0
 11
2056.8012416299312
 21
1817.8303383350919
 31
0.0
  0
CIRCLE
  5
94FD
  8
OUTLINE
 10
2095.3012416299312
 20
1889.8255302930399
 30
0.0
 40
9.5
  0
LINE
  5
94FE
  8
OUTLINE
 10
2120.3012416299312
 20
1909.8255302930399
 30
0.0
 11
2070.3012416299312
 21
1909.8255302930399
 31
0.0
  0
INSERT
  5
94FF
  8
OUTLINE
  2
RR07
 10
3228.8012416299298
 20
1327.3303383350919
 30
0.0
  0
LINE
  5
9500
  8
OUTLINE
 10
3289.8012416299298
 20
1366.830338335091
 30
0.0
 11
3237.8012416299312
 21
1314.8303383350919
 31
0.0
  0
LINE
  5
9501
  8
OUTLINE
 10
3227.3012416299298
 20
1274.8351463771421
 30
0.0
 11
3275.3012416299312
 21
1274.8351463771421
 31
0.0
  0
CIRCLE
  5
9502
  8
OUTLINE
 10
3251.3012416299312
 20
1294.8351463771421
 30
0.0
 40
9.5
  0
LINE
  5
9503
  8
OUTLINE
 10
3227.3012416299298
 20
1274.8351463771421
 30
0.0
 11
3227.3012416299298
 21
1314.8303383350919
 31
0.0
  0
LINE
  5
9504
  8
OUTLINE
 10
3275.3012416299312
 20
1274.8351463771421
 30
0.0
 11
3275.3012416299312
 21
1352.330338335091
 31
0.0
  0
LINE
  5
9505
  8
OUTLINE
 10
3263.8012416299321
 20
1843.8303383350919
 30
0.0
 11
3263.8012416299321
 21
1340.8303383350931
 31
0.0
  0
LINE
  5
9506
  8
OUTLINE
 10
3276.3012416299321
 20
1909.8255302930399
 30
0.0
 11
3276.3012416299321
 21
1831.3303383350899
 31
0.0
  0
LINE
  5
9507
  8
OUTLINE
 10
3226.3012416299312
 20
1909.8255302930399
 30
0.0
 11
3226.3012416299312
 21
1869.830338335091
 31
0.0
  0
INSERT
  5
9508
  8
OUTLINE
  2
RR07
 10
3228.8012416299298
 20
1857.330338335091
 30
0.0
 41
-1.0
  0
LINE
  5
9509
  8
OUTLINE
 10
3289.8012416299298
 20
1817.8303383350919
 30
0.0
 11
3237.801241629933
 21
1869.830338335091
 31
0.0
  0
LINE
  5
950A
  8
OUTLINE
 10
3226.3012416299312
 20
1909.8255302930399
 30
0.0
 11
3276.3012416299321
 21
1909.8255302930399
 31
0.0
  0
CIRCLE
  5
950B
  8
OUTLINE
 10
3251.3012416299312
 20
1889.8255302930399
 30
0.0
 40
9.5
  0
LINE
  5
950C
  8
OUTLINE
 10
3219.8012416299312
 20
1278.8303383350931
 30
0.0
 11
3219.8012416299312
 21
1314.8303383350919
 31
0.0
  0
LINE
  5
950D
  8
OUTLINE
 10
2157.8012416299312
 20
1278.8303383350931
 30
0.0
 11
2157.8012416299312
 21
1314.8303383350919
 31
0.0
  0
LINE
  5
950E
  8
DIM
 62
    52
 10
2104.501529173825
 20
1327.3303383350919
 30
0.0
 11
1915.597455303272
 21
1327.3303383350919
 31
0.0
  0
LINE
  5
950F
  8
DIM
 62
    52
 10
2103.243632716707
 20
1857.330338335091
 30
0.0
 11
1915.597455303272
 21
1857.330338335091
 31
0.0
  0
LINE
  5
9510
  8
DIM
 62
    52
 10
1935.597455303272
 20
1357.3303383350919
 30
0.0
 11
1935.597455303272
 21
1495.5446240493779
 31
0.0
  0
LINE
  5
9511
  8
DIM
 62
    52
 10
1935.597455303272
 20
1827.3303383350919
 30
0.0
 11
1935.597455303272
 21
1689.1160526208059
 31
0.0
  0
SOLID
  5
9512
  8
DIM
 62
    52
 10
1930.597455303272
 20
1357.3303383350919
 30
0.0
 11
1940.597455303272
 21
1357.3303383350919
 31
0.0
 12
1935.597455303272
 22
1327.3303383350919
 32
0.0
 13
1935.597455303272
 23
1327.3303383350919
 33
0.0
  0
SOLID
  5
9513
  8
DIM
 62
    52
 10
1930.597455303272
 20
1827.3303383350919
 30
0.0
 11
1940.597455303272
 21
1827.3303383350919
 31
0.0
 12
1935.597455303272
 22
1857.330338335091
 32
0.0
 13
1935.597455303272
 23
1857.330338335091
 33
0.0
  0
TEXT
  5
9514
  8
DIM
 62
    50
 10
1950.597455303272
 20
1553.758909763663
 30
0.0
 40
30.0
  1
530
 50
90.0
  7
TITLE3
 72
     4
 11
1935.597455303272
 21
1592.330338335091
 31
0.0
  0
LINE
  5
9515
  8
DIM
 62
    52
 10
2092.187157483329
 20
1889.8255302930399
 30
0.0
 11
1791.7150891978511
 21
1889.8255302930399
 31
0.0
  0
LINE
  5
9516
  8
DIM
 62
    52
 10
2092.029954577401
 20
1294.8351463771421
 30
0.0
 11
1791.7150891978511
 21
1294.8351463771421
 31
0.0
  0
LINE
  5
9517
  8
DIM
 62
    52
 10
1811.715089197852
 20
1859.825530293042
 30
0.0
 11
1811.715089197852
 21
1686.6160526208059
 31
0.0
  0
LINE
  5
9518
  8
DIM
 62
    52
 10
1811.715089197852
 20
1324.8351463771421
 30
0.0
 11
1811.715089197852
 21
1498.0446240493779
 31
0.0
  0
SOLID
  5
9519
  8
DIM
 62
    52
 10
1806.7150891978511
 20
1859.825530293042
 30
0.0
 11
1816.715089197852
 21
1859.825530293042
 31
0.0
 12
1811.715089197852
 22
1889.8255302930399
 32
0.0
 13
1811.715089197852
 23
1889.8255302930399
 33
0.0
  0
SOLID
  5
951A
  8
DIM
 62
    52
 10
1806.7150891978511
 20
1324.8351463771421
 30
0.0
 11
1816.715089197852
 21
1324.8351463771421
 31
0.0
 12
1811.715089197852
 22
1294.8351463771421
 32
0.0
 13
1811.715089197852
 23
1294.8351463771421
 33
0.0
  0
TEXT
  5
951B
  8
DIM
 62
    50
 10
1826.715089197852
 20
1553.758909763663
 30
0.0
 40
30.0
  1
595
 50
90.0
  7
TITLE3
 72
     1
 11
1811.715089197852
 21
1592.330338335091
 31
0.0
 73
     2
  0
LINE
  5
951C
  8
OUTLINE
 10
2258.8012416299312
 20
1905.8303383350919
 30
0.0
 11
2258.8012416299321
 21
1869.8303383350919
 31
0.0
  0
LINE
  5
951D
  8
OUTLINE
 10
3118.8012416299312
 20
1905.8303383350919
 30
0.0
 11
3118.8012416299312
 21
1869.830338335091
 31
0.0
  0
LINE
  5
951E
  8
OUTLINE
 10
3237.8012416299312
 20
1314.8303383350919
 30
0.0
 11
2108.8012416299312
 21
1314.8303383350919
 31
0.0
  0
LINE
  5
951F
  8
OUTLINE
 10
3289.8012416299298
 20
1817.8303383350919
 30
0.0
 11
3289.8012416299298
 21
1366.830338335091
 31
0.0
  0
LINE
  5
9520
  8
OUTLINE
 10
2056.8012416299312
 20
1366.830338335091
 30
0.0
 11
2056.8012416299312
 21
1817.8303383350919
 31
0.0
  0
LINE
  5
9521
  8
DIM
 62
    52
 10
2056.8012416299312
 20
1836.8303383350919
 30
0.0
 11
2056.8012416299312
 21
1983.630489827485
 31
0.0
  0
LINE
  5
9522
  8
DIM
 62
    52
 10
3289.8012416299298
 20
1835.8303383350919
 30
0.0
 11
3289.8012416299298
 21
1983.630489827485
 31
0.0
  0
LINE
  5
9523
  8
DIM
 62
    52
 10
2117.8012416299312
 20
1877.3303383350919
 30
0.0
 11
2117.8012416299312
 21
2031.382216596382
 31
0.0
  0
LINE
  5
9524
  8
DIM
 62
    52
 10
2147.8012416299312
 20
2011.382216596382
 30
0.0
 11
2608.46149876034
 21
2011.382216596382
 31
0.0
  0
LINE
  5
9525
  8
DIM
 62
    52
 10
3208.8012416299312
 20
2011.382216596382
 30
0.0
 11
2752.196251763788
 21
2011.382216596382
 31
0.0
  0
SOLID
  5
9526
  8
DIM
 62
    52
 10
2147.8012416299312
 20
2016.3822165963829
 30
0.0
 11
2147.8012416299312
 21
2006.382216596382
 31
0.0
 12
2117.8012416299312
 22
2011.382216596382
 32
0.0
 13
2117.8012416299312
 23
2011.382216596382
 33
0.0
  0
SOLID
  5
9527
  8
DIM
 62
    52
 10
3198.8012416299312
 20
2016.3822165963829
 30
0.0
 11
3198.8012416299312
 21
2006.382216596382
 31
0.0
 12
3228.8012416299298
 22
2011.382216596382
 32
0.0
 13
3228.8012416299298
 23
2011.382216596382
 33
0.0
  0
TEXT
  5
9528
  8
DIM
 62
    50
 10
2640.444098772788
 20
1996.382216596382
 30
0.0
 40
30.0
  1
1111
  7
TITLE3
 72
     4
 11
2678.3012416299312
 21
2011.382216596382
 31
0.0
  0
LINE
  5
9529
  8
DIM
 62
    52
 10
2095.3012416299312
 20
1909.825530293042
 30
0.0
 11
2095.3012416299312
 21
2084.1604455418678
 31
0.0
  0
LINE
  5
952A
  8
DIM
 62
    52
 10
3251.3012416299312
 20
1909.825530293042
 30
0.0
 11
3251.3012416299312
 21
2084.1604455418678
 31
0.0
  0
LINE
  5
952B
  8
DIM
 62
    52
 10
2125.3012416299312
 20
2064.1604455418678
 30
0.0
 11
2614.4521456259872
 21
2064.1604455418678
 31
0.0
  0
LINE
  5
952C
  8
DIM
 62
    52
 10
3231.3012416299312
 20
2064.1604455418678
 30
0.0
 11
2746.2056131748191
 21
2064.1604455418678
 31
0.0
  0
SOLID
  5
952D
  8
DIM
 62
    52
 10
2125.3012416299312
 20
2069.1604455418669
 30
0.0
 11
2125.3012416299312
 21
2059.1604455418678
 31
0.0
 12
2095.3012416299312
 22
2064.1604455418678
 32
0.0
 13
2095.3012416299312
 23
2064.1604455418678
 33
0.0
  0
SOLID
  5
952E
  8
DIM
 62
    52
 10
3221.3012416299312
 20
2069.1604455418669
 30
0.0
 11
3221.3012416299312
 21
2059.1604455418678
 31
0.0
 12
3251.3012416299312
 22
2064.1604455418678
 32
0.0
 13
3251.3012416299312
 23
2064.1604455418678
 33
0.0
  0
TEXT
  5
952F
  8
DIM
 62
    50
 10
2631.8726702013591
 20
2049.1604455418669
 30
0.0
 40
30.0
  1
1156
  7
TITLE3
 72
     4
 11
2678.3012416299312
 21
2064.1604455418678
 31
0.0
  0
LINE
  5
9530
  8
DIM
 62
    52
 10
2056.8012416299312
 20
1856.830338335091
 30
0.0
 11
2056.8012416299312
 21
2136.9386744873541
 31
0.0
  0
LINE
  5
9531
  8
DIM
 62
    52
 10
3289.8012416299298
 20
1855.8303383350919
 30
0.0
 11
3289.8012416299298
 21
2136.9386744873541
 31
0.0
  0
LINE
  5
9532
  8
DIM
 62
    52
 10
2085.8012416299312
 20
2116.9386744873541
 30
0.0
 11
2607.9092229202379
 21
2116.9386744873541
 31
0.0
  0
LINE
  5
9533
  8
DIM
 62
    52
 10
3260.8012416299312
 20
2116.9386744873541
 30
0.0
 11
2750.7208898334152
 21
2116.9386744873541
 31
0.0
  0
SOLID
  5
9534
  8
DIM
 62
    52
 10
2085.8012416299312
 20
2121.9386744873541
 30
0.0
 11
2085.8012416299312
 21
2111.9386744873541
 31
0.0
 12
2056.8012416299312
 22
2116.9386744873541
 32
0.0
 13
2056.8012416299312
 23
2116.9386744873541
 33
0.0
  0
SOLID
  5
9535
  8
DIM
 62
    52
 10
3260.8012416299312
 20
2121.9386744873541
 30
0.0
 11
3260.8012416299312
 21
2111.9386744873541
 31
0.0
 12
3289.8012416299298
 22
2116.9386744873541
 32
0.0
 13
3289.8012416299298
 23
2116.9386744873541
 33
0.0
  0
TEXT
  5
9536
  8
DIM
 62
    50
 10
2628.3012416299312
 20
2101.9386744873541
 30
0.0
 40
30.0
  1
1233
  7
TITLE3
 72
     4
 11
2678.3012416299312
 21
2116.9386744873541
 31
0.0
  0
LINE
  5
9537
  8
OUTLINE
 10
3238.8012416299321
 20
1340.830338335091
 30
0.0
 11
3263.8012416299321
 21
1340.830338335091
 31
0.0
  0
LINE
  5
9538
  8
OUTLINE
 10
3263.8012416299321
 20
1340.830338335091
 30
0.0
 11
3263.8012416299321
 21
1342.43033833509
 31
0.0
  0
LINE
  5
9539
  8
OUTLINE
 10
2108.8012416299321
 20
1869.830338335091
 30
0.0
 11
3237.801241629933
 21
1869.830338335091
 31
0.0
  0
INSERT
  5
953A
  8
AME_FRZ
  2
AME_NIL
 10
-5834.0555988760616
 20
804.43553234386309
 30
0.0
  0
INSERT
  5
953B
  8
AME_FRZ
  2
AME_SOL
 10
-5834.0555988760616
 20
804.43553234386309
 30
0.0
1001
AME_SOL
1000
R2.1
1000
AME2
1000
sq cm
1070
     3
1070
     0
1070
     3
1000
wire
1040
45.0
1000
U
1040
1.0
1000
cm
1000
gm
1000
MILD_STEEL
1070
    25
1000
CSG
1070
     1
1070
     3
1070
     3
1070
     3
1070
     0
1000
cu cm
1070
     1
1070
     0
1005
569C
  0
CIRCLE
  5
953C
  8
OUTLINE
 10
1574.865721043891
 20
682.21374117562607
 30
0.0
 40
14.25
  0
CIRCLE
  5
953D
  8
OUTLINE
 10
1622.3657210438901
 20
841.21374117562618
 30
0.0
 40
14.25
  0
LINE
  5
953E
  8
OUTLINE
 10
2019.0012416299301
 20
668.65353172106381
 30
0.0
 11
2081.801241629928
 21
668.65353172106381
 31
0.0
  0
LINE
  5
953F
  8
OUTLINE
 10
2081.801241629928
 20
700.64073172106339
 30
0.0
 11
2019.0012416299301
 21
700.64073172106464
 31
0.0
  0
LINE
  5
9540
  8
OUTLINE
 10
2019.0012416299301
 20
827.65353172106279
 30
0.0
 11
2072.8012416299289
 21
827.65353172106279
 31
0.0
  0
LINE
  5
9541
  8
OUTLINE
 10
2072.8012416299289
 20
859.64073172106305
 30
0.0
 11
2019.0012416299301
 21
859.64073172106384
 31
0.0
  0
LINE
  5
9542
  8
OUTLINE
 10
2017.001241629931
 20
697.66713172106415
 30
0.0
 11
2017.001241629931
 21
670.6535317210637
 31
0.0
  0
LINE
  5
9543
  8
OUTLINE
 10
2017.001241629931
 20
670.6535317210637
 30
0.0
 11
2019.0012416299301
 21
668.65353172106381
 31
0.0
  0
LINE
  5
9544
  8
OUTLINE
 10
2019.0012416299301
 20
700.64073172106464
 30
0.0
 11
2017.001241629931
 21
697.66713172106415
 31
0.0
  0
LINE
  5
9545
  8
OUTLINE
 10
2017.001241629931
 20
829.6535317210629
 30
0.0
 11
2019.0012416299301
 21
827.65353172106279
 31
0.0
  0
LINE
  5
9546
  8
OUTLINE
 10
2017.001241629931
 20
856.66713172106336
 30
0.0
 11
2017.001241629931
 21
829.6535317210629
 31
0.0
  0
LINE
  5
9547
  8
OUTLINE
 10
2019.0012416299301
 20
859.64073172106384
 30
0.0
 11
2017.001241629931
 21
856.66713172106336
 31
0.0
  0
LINE
  5
9548
  8
OUTLINE
 10
2013.55124162993
 20
1544.4303383350909
 30
0.0
 11
2056.8012416299312
 21
1544.4303383350909
 31
0.0
  0
LINE
  5
9549
  8
OUTLINE
 10
2013.55124162993
 20
1524.4303383350921
 30
0.0
 11
2056.8012416299312
 21
1524.4303383350921
 31
0.0
  0
LINE
  5
954A
  8
OUTLINE
 10
2013.55124162993
 20
1544.4303383350909
 30
0.0
 11
2013.55124162993
 21
1524.4303383350921
 31
0.0
  0
LINE
  5
954B
  8
OUTLINE
 10
2013.55124162993
 20
579.71374117562414
 30
0.0
 11
2081.801241629928
 21
579.7137411756238
 31
0.0
  0
LINE
  5
954C
  8
OUTLINE
 10
2013.55124162993
 20
599.71374117562414
 30
0.0
 11
2081.801241629928
 21
599.71374117562414
 31
0.0
  0
LINE
  5
954D
  8
OUTLINE
 10
2013.55124162993
 20
599.71374117562414
 30
0.0
 11
2013.55124162993
 21
579.71374117562414
 31
0.0
  0
TEXT
  5
954E
  8
OVERLAY-A3
 10
2844.9791086552332
 20
110.8312138601009
 30
0.0
 40
24.0
  1
Date
  7
SIMPLEX
  0
TEXT
  5
954F
  8
OVERLAY-A3
 10
3746.1111923736021
 20
129.50330202341121
 30
0.0
 40
24.0
  1
Revision
 41
0.7812095035934772
  7
SIMPLEX
 72
     5
 11
3851.4628740010648
 21
129.50330202341121
 31
0.0
  0
LINE
  5
9550
  8
OVERLAY-A3
 10
3734.49134999016
 20
20.842492848317129
 30
0.0
 11
3734.49134999016
 21
168.2686557085465
 31
0.0
  0
LINE
  5
9551
  8
OVERLAY-A3
 10
2819.3515294571471
 20
327.009637472848
 30
0.0
 11
2819.3515294571471
 21
20.842492848317129
 31
0.0
  0
LINE
  5
9552
  8
OVERLAY-A3
 10
3416.913678013093
 20
20.842492848317129
 30
0.0
 11
3416.913678013093
 21
168.2686557085465
 31
0.0
  0
LINE
  5
9553
  8
OVERLAY-A3
 10
3416.913678013093
 20
93.312599269463774
 30
0.0
 11
2819.3515294571471
 21
93.312599269463774
 31
0.0
  0
LINE
  5
9554
  8
OVERLAY-A3
 10
3861.5754652378419
 20
168.26865570854659
 30
0.0
 11
2819.3515294571471
 21
168.26865570854659
 31
0.0
  0
LINE
  5
9555
  8
OVERLAY-A3
 10
2819.3515294571471
 20
20.842492848317129
 30
0.0
 11
3861.2779580594911
 21
20.842492848317129
 31
0.0
  0
LINE
  5
9556
  8
OVERLAY-A3
 10
3861.2779580594911
 20
20.842492848317129
 30
0.0
 11
3861.2779580594911
 21
327.009637472848
 31
0.0
  0
LINE
  5
9557
  8
OVERLAY-A3
 10
3861.2779580594911
 20
327.009637472848
 30
0.0
 11
2819.3515294571471
 21
327.009637472848
 31
0.0
  0
TEXT
  5
9558
  8
OVERLAY-A3
 10
2844.4832191031091
 20
47.922488065357683
 30
0.0
 40
20.0
  1
Scale
 41
1.3701747965659781
  7
SIMPLEX
 72
     5
 11
2944.9627041846138
 21
47.922488065357683
 31
0.0
  0
TEXT
  5
9559
  8
OVERLAY-A3
 10
3474.8591236007969
 20
128.8934315067097
 30
0.0
 40
20.0
  1
Drawing No.
  7
SIMPLEX
 72
     2
 11
3649.1448378865111
 21
128.8934315067097
 31
0.0
  0
LINE
  5
955A
  8
OVERLAY-A3
 10
1043.622779895672
 20
0.0
 30
0.0
 11
3890.0
 21
0.0
 31
0.0
  0
LINE
  5
955B
  8
OVERLAY-A3
 10
3890.0
 20
0.0
 30
0.0
 11
3890.0
 21
2233.8370458295271
 31
0.0
  0
LINE
  5
955C
  8
OVERLAY-A3
 10
3890.0
 20
2233.8370458295271
 30
0.0
 11
1043.622779895672
 21
2233.8370458295271
 31
0.0
  0
LINE
  5
955D
  8
OVERLAY-A3
 10
1043.622779895672
 20
2233.8370458295271
 30
0.0
 11
1043.622779895672
 21
0.0
 31
0.0
  0
TEXT
  5
955E
  8
TEXT
 10
3473.9421123651882
 20
53.62090254668874
 30
0.0
 40
30.0
  1
IMD210
  7
TITLE3
  0
TEXT
  5
955F
  8
TEXT
 10
3113.723017572137
 20
215.8075771976664
 30
0.0
 40
60.0
  1
IMD210
  7
TITLE3
  0
TEXT
  5
9560
  8
TEXT
 10
2994.9694661234589
 20
47.02795083248111
 30
0.0
 40
30.0
  1
1:10
  7
TITLE3
  0
LINE
  5
9561
  8
OUTLINE
 10
1757.1554097917319
 20
824.21374117562527
 30
0.0
 11
1757.1554097917331
 21
909.25723476236101
 31
0.0
  0
LINE
  5
9562
  8
OUTLINE
 10
1130.065721043891
 20
804.71374117562493
 30
0.0
 11
1130.065721043891
 21
687.75723476236146
 31
0.0
  0
LINE
  5
9563
  8
DIM
 62
    52
 10
3228.8012416299298
 20
1877.3303383350919
 30
0.0
 11
3228.8012416299298
 21
2031.382216596382
 31
0.0
  0
LINE
  5
9564
  8
CLEAR
 10
1582.80124162993
 20
1340.830338335091
 30
0.0
 11
1582.80124162993
 21
1843.8303383350919
 31
0.0
  0
LINE
  5
9565
  8
CLEAR
 10
3763.8012416299321
 20
1843.8303383350919
 30
0.0
 11
3763.8012416299312
 21
1340.830338335091
 31
0.0
  0
LINE
  5
9566
  8
OUTLINE
 10
3232.8012416299289
 20
804.71374117562493
 30
0.0
 11
3232.8012416299289
 21
811.71374117562505
 31
0.0
  0
TEXT
  5
9567
  8
TEXT
 10
2529.1698106324989
 20
725.91701970562917
 30
0.0
 40
60.0
  1
IMD210
  7
TITLE3
  0
TEXT
  5
9568
  8
TEXT
 10
2533.2863749933999
 20
1556.9017561910459
 30
0.0
 40
60.0
  1
IMD210
  7
TITLE3
  0
TEXT
  5
9569
  8
TEXT
 10
1244.799371177638
 20
762.94109088731966
 30
0.0
 40
60.0
  1
IMD210
  7
TITLE3
  0
LINE
  5
956A
  8
CLEAR
 10
2082.8012416299312
 20
1843.8303383350919
 30
0.0
 11
1582.80124162993
 21
1843.8303383350919
 31
0.0
  0
LINE
  5
956B
  8
CLEAR
 10
2082.8012416299312
 20
1340.830338335091
 30
0.0
 11
1582.80124162993
 21
1340.830338335091
 31
0.0
  0
LINE
  5
956C
  8
CLEAR
 10
3263.8012416299321
 20
1843.8303383350919
 30
0.0
 11
3763.8012416299321
 21
1843.8303383350919
 31
0.0
  0
LINE
  5
956D
  8
CLEAR
 10
3263.8012416299321
 20
1340.830338335091
 30
0.0
 11
3763.8012416299312
 21
1340.830338335091
 31
0.0
  0
INSERT
  5
956E
  8
CLEAR
  2
NEW_BLOCK0
 10
1058.952998715795
 20
14.36932879145842
 30
0.0
  0
TEXT
  5
956F
  8
TEXT
  6
PHANTOM2
 10
1636.4950860860311
 20
1481.413569301505
 30
0.0
 40
30.0
  1
500 min 
 50
90.0
  7
TITLE3
  0
TEXT
  5
9570
  8
TEXT
  6
PHANTOM2
 10
1687.9236575146031
 20
1459.922037139658
 30
0.0
 40
30.0
  1
CLEARANCE
 50
90.0
  7
TITLE3
  0
TEXT
  5
9571
  8
TEXT
  6
PHANTOM2
 10
3742.0930394935199
 20
1459.922037139658
 30
0.0
 40
30.0
  1
CLEARANCE
 50
90.0
  7
TITLE3
  0
TEXT
  5
9572
  8
TEXT
  6
PHANTOM2
 10
3690.6644680649479
 20
1481.413569301505
 30
0.0
 40
30.0
  1
500 min 
 50
90.0
  7
TITLE3
  0
LINE
  5
9573
  8
DIM
 10
2672.2886265950619
 20
1354.8831520560771
 30
0.0
 11
2643.7126302433981
 21
1307.879070563758
 31
0.0
  0
LINE
  5
9574
  8
DIM
 10
2672.2886265950619
 20
1354.8831520560771
 30
0.0
 11
2700.8646229467249
 21
1307.879070563758
 31
0.0
  0
LINE
  5
9575
  8
DIM
 10
2643.7126302433981
 20
1307.879070563758
 30
0.0
 11
2661.4616127970289
 21
1307.879070563758
 31
0.0
  0
LINE
  5
9576
  8
DIM
 10
2661.4616127970289
 20
1307.879070563758
 30
0.0
 11
2661.4616127970289
 21
1252.893167856211
 31
0.0
  0
LINE
  5
9577
  8
DIM
 10
2683.115640393095
 20
1307.879070563758
 30
0.0
 11
2683.115640393095
 21
1252.893167856211
 31
0.0
  0
LINE
  5
9578
  8
DIM
 10
2661.4616127970289
 20
1252.893167856211
 30
0.0
 11
2683.115640393095
 21
1252.893167856211
 31
0.0
  0
LINE
  5
9579
  8
DIM
 10
2700.8646229467249
 20
1307.879070563758
 30
0.0
 11
2683.115640393095
 21
1307.879070563758
 31
0.0
  0
LINE
  5
957A
  8
DIM
 10
2661.4616127970289
 20
1888.816033043312
 30
0.0
 11
2661.4616127970289
 21
1833.830130335768
 31
0.0
  0
LINE
  5
957B
  8
DIM
 10
2683.115640393095
 20
1888.816033043312
 30
0.0
 11
2683.115640393095
 21
1833.830130335768
 31
0.0
  0
LINE
  5
957C
  8
DIM
 10
2661.4616127970289
 20
1833.830130335768
 30
0.0
 11
2683.115640393095
 21
1833.830130335768
 31
0.0
  0
LINE
  5
957D
  8
DIM
 10
2672.2886265950619
 20
1935.820114535632
 30
0.0
 11
2643.7126302433981
 21
1888.816033043312
 31
0.0
  0
LINE
  5
957E
  8
DIM
 10
2643.7126302433981
 20
1888.816033043312
 30
0.0
 11
2661.4616127970289
 21
1888.816033043312
 31
0.0
  0
LINE
  5
957F
  8
DIM
 10
2700.8646229467249
 20
1888.816033043312
 30
0.0
 11
2683.115640393095
 21
1888.816033043312
 31
0.0
  0
LINE
  5
9580
  8
DIM
 10
2672.2886265950619
 20
1935.820114535632
 30
0.0
 11
2700.8646229467249
 21
1888.816033043312
 31
0.0
  0
ENDSEC
  0
EOF
