  0
SECTION
  2
HEADER
  9
$ACADVER
  1
AC1009
  9
$INSBASE
 10
0.0
 20
0.0
 30
0.0
  9
$EXTMIN
 10
1132.302437745928
 20
0.0
 30
0.0
  9
$EXTMAX
 10
3890.0
 20
2258.3291732656749
 30
0.0
  9
$LIMMIN
 10
0.0
 20
0.0
  9
$LIMMAX
 10
3890.0
 20
2660.0
  9
$ORTHOMODE
 70
     1
  9
$REGENMODE
 70
     1
  9
$FILLMODE
 70
     1
  9
$QTEXTMODE
 70
     0
  9
$MIRRTEXT
 70
     0
  9
$DRAGMODE
 70
     2
  9
$LTSCALE
 40
100.0
  9
$OSMODE
 70
     0
  9
$ATTMODE
 70
     1
  9
$TEXTSIZE
 40
30.0
  9
$TRACEWID
 40
0.05
  9
$TEXTSTYLE
  7
TITLE3
  9
$CLAYER
  8
OUTLINE
  9
$CELTYPE
  6
BYLAYER
  9
$CECOLOR
 62
   256
  9
$DIMSCALE
 40
1.0
  9
$DIMASZ
 40
30.0
  9
$DIMEXO
 40
20.0
  9
$DIMDLI
 40
0.38
  9
$DIMRND
 40
0.0
  9
$DIMDLE
 40
0.0
  9
$DIMEXE
 40
20.0
  9
$DIMTP
 40
0.0
  9
$DIMTM
 40
0.0
  9
$DIMTXT
 40
30.0
  9
$DIMCEN
 40
0.09
  9
$DIMTSZ
 40
0.0
  9
$DIMTOL
 70
     0
  9
$DIMLIM
 70
     0
  9
$DIMTIH
 70
     0
  9
$DIMTOH
 70
     0
  9
$DIMSE1
 70
     0
  9
$DIMSE2
 70
     0
  9
$DIMTAD
 70
     0
  9
$DIMZIN
 70
     0
  9
$DIMBLK
  1

  9
$DIMASO
 70
     0
  9
$DIMSHO
 70
     0
  9
$DIMPOST
  1

  9
$DIMAPOST
  1

  9
$DIMALT
 70
     0
  9
$DIMALTD
 70
     2
  9
$DIMALTF
 40
25.399999999999999
  9
$DIMLFAC
 40
1.0
  9
$DIMTOFL
 70
     0
  9
$DIMTVP
 40
0.0
  9
$DIMTIX
 70
     0
  9
$DIMSOXD
 70
     0
  9
$DIMSAH
 70
     0
  9
$DIMBLK1
  1

  9
$DIMBLK2
  1

  9
$DIMSTYLE
  2
STANDARD
  9
$DIMCLRD
 70
    52
  9
$DIMCLRE
 70
    52
  9
$DIMCLRT
 70
    50
  9
$DIMTFAC
 40
1.0
  9
$DIMGAP
 40
20.0
  9
$LUNITS
 70
     2
  9
$LUPREC
 70
     2
  9
$SKETCHINC
 40
0.1
  9
$FILLETRAD
 40
0.0
  9
$AUNITS
 70
     0
  9
$AUPREC
 70
     2
  9
$MENU
  1
\acad12\support\cnc
  9
$ELEVATION
 40
0.0
  9
$PELEVATION
 40
0.0
  9
$THICKNESS
 40
0.0
  9
$LIMCHECK
 70
     0
  9
$BLIPMODE
 70
     0
  9
$CHAMFERA
 40
0.0
  9
$CHAMFERB
 40
0.0
  9
$SKPOLY
 70
     0
  9
$TDCREATE
 40
2451407.7046237262
  9
$TDUPDATE
 40
2452929.4969619792
  9
$TDINDWG
 40
0.232184213
  9
$TDUSRTIMER
 40
0.232184213
  9
$USRTIMER
 70
     1
  9
$ANGBASE
 50
0.0
  9
$ANGDIR
 70
     0
  9
$PDMODE
 70
     2
  9
$PDSIZE
 40
10.0
  9
$PLINEWID
 40
0.0
  9
$COORDS
 70
     2
  9
$SPLFRAME
 70
     0
  9
$SPLINETYPE
 70
     6
  9
$SPLINESEGS
 70
     8
  9
$ATTDIA
 70
     0
  9
$ATTREQ
 70
     1
  9
$HANDLING
 70
 22529
  9
$HANDSEED
  5
25BC
  9
$SURFTAB1
 70
     6
  9
$SURFTAB2
 70
     6
  9
$SURFTYPE
 70
     6
  9
$SURFU
 70
     6
  9
$SURFV
 70
     6
  9
$UCSNAME
  2

  9
$UCSORG
 10
0.0
 20
0.0
 30
0.0
  9
$UCSXDIR
 10
1.0
 20
0.0
 30
0.0
  9
$UCSYDIR
 10
0.0
 20
1.0
 30
0.0
  9
$PUCSNAME
  2

  9
$PUCSORG
 10
0.0
 20
0.0
 30
0.0
  9
$PUCSXDIR
 10
1.0
 20
0.0
 30
0.0
  9
$PUCSYDIR
 10
0.0
 20
1.0
 30
0.0
  9
$USERI1
 70
     0
  9
$USERI2
 70
     0
  9
$USERI3
 70
     0
  9
$USERI4
 70
     0
  9
$USERI5
 70
     0
  9
$USERR1
 40
0.0
  9
$USERR2
 40
0.0
  9
$USERR3
 40
0.0
  9
$USERR4
 40
0.0
  9
$USERR5
 40
0.0
  9
$WORLDVIEW
 70
     1
  9
$SHADEDGE
 70
     3
  9
$SHADEDIF
 70
    70
  9
$TILEMODE
 70
     1
  9
$MAXACTVP
 70
    16
  9
$PLIMCHECK
 70
     0
  9
$PEXTMIN
 10
1.0000000000000000E+020
 20
1.0000000000000000E+020
 30
1.0000000000000000E+020
  9
$PEXTMAX
 10
-1.0000000000000000E+020
 20
-1.0000000000000000E+020
 30
-1.0000000000000000E+020
  9
$PLIMMIN
 10
0.0
 20
0.0
  9
$PLIMMAX
 10
12.0
 20
9.0
  9
$UNITMODE
 70
     0
  9
$VISRETAIN
 70
     0
  9
$PLINEGEN
 70
     0
  9
$PSLTSCALE
 70
     0
  0
ENDSEC
  0
SECTION
  2
TABLES
  0
TABLE
  2
VPORT
 70
     2
  0
VPORT
  2
*ACTIVE
 70
     0
 10
0.0
 20
0.0
 11
1.0
 21
1.0
 12
2511.1910743530329
 22
1129.1422882407439
 13
0.0
 23
0.0
 14
25.0
 24
25.0
 15
100.0
 25
100.0
 16
0.0
 26
0.0
 36
1.0
 17
0.0
 27
0.0
 37
0.0
 40
2283.2935179418359
 41
1.5912408759124079
 42
50.0
 43
0.0
 44
0.0
 50
0.0
 51
0.0
 71
     0
 72
   100
 73
     1
 74
     0
 75
     0
 76
     0
 77
     0
 78
     0
  0
ENDTAB
  0
TABLE
  2
LTYPE
 70
     2
  0
LTYPE
  2
CONTINUOUS
 70
     0
  3
Solid line
 72
    65
 73
     0
 40
0.0
  0
LTYPE
  2
PHANTOM2
 70
     0
  3
Phantom (.5x) ___ _ _ ___ _ _ ___ _ _ ___ _ _
 72
    65
 73
     6
 40
1.25
 49
0.625
 49
-0.125
 49
0.125
 49
-0.125
 49
0.125
 49
-0.125
  0
ENDTAB
  0
TABLE
  2
LAYER
 70
     6
  0
LAYER
  2
0
 70
     0
 62
     7
  6
CONTINUOUS
  0
LAYER
  2
OUTLINE
 70
     0
 62
     7
  6
CONTINUOUS
  0
LAYER
  2
TEXT
 70
     0
 62
   100
  6
CONTINUOUS
  0
LAYER
  2
DIM
 70
     0
 62
    50
  6
CONTINUOUS
  0
LAYER
  2
OVERLAY-A3
 70
     0
 62
     7
  6
CONTINUOUS
  0
LAYER
  2
CLEAR
 70
     0
 62
     1
  6
PHANTOM2
  0
ENDTAB
  0
TABLE
  2
STYLE
 70
     3
  0
STYLE
  2
STANDARD
 70
     0
 40
0.0
 41
1.0
 50
0.0
 71
     0
 42
0.2
  3
txt
  4

  0
STYLE
  2
TITLE3
 70
     0
 40
30.0
 41
1.0
 50
0.0
 71
     0
 42
30.0
  3
SIMPLEX
  4

  0
STYLE
  2
SIMPLEX
 70
     0
 40
40.0
 41
1.0
 50
0.0
 71
     0
 42
25.0
  3
SIMPLEX
  4

  0
ENDTAB
  0
TABLE
  2
VIEW
 70
     0
  0
ENDTAB
  0
TABLE
  2
UCS
 70
     0
  0
ENDTAB
  0
TABLE
  2
APPID
 70
     1
  0
APPID
  2
ACAD
 70
     0
  0
ENDTAB
  0
TABLE
  2
DIMSTYLE
 70
     1
  0
DIMSTYLE
  2
STANDARD
 70
     0
  3

  4

  5

  6

  7

 40
1.0
 41
0.18
 42
0.0625
 43
0.38
 44
0.18
 45
0.0
 46
0.0
 47
0.0
 48
0.0
140
0.18
141
0.09
142
0.0
143
25.399999999999999
144
1.0
145
0.0
146
1.0
147
0.09
 71
     0
 72
     0
 73
     1
 74
     1
 75
     0
 76
     0
 77
     0
 78
     0
170
     0
171
     2
172
     0
173
     0
174
     0
175
     0
176
     0
177
     0
178
     0
  0
ENDTAB
  0
ENDSEC
  0
SECTION
  2
BLOCKS
  0
BLOCK
  8
0
  2
$MODEL_SPACE
 70
     0
 10
0.0
 20
0.0
 30
0.0
  3
$MODEL_SPACE
  1

  0
ENDBLK
  5
227F
  8
0
  0
BLOCK
 67
     1
  8
0
  2
$PAPER_SPACE
 70
     0
 10
0.0
 20
0.0
 30
0.0
  3
$PAPER_SPACE
  1

  0
ENDBLK
  5
227B
 67
     1
  8
0
  0
BLOCK
  8
0
  2
RO42
 70
     0
 10
0.0
 20
0.0
 30
0.0
  3
RO42
  1

  0
CIRCLE
  5
2295
  8
0
 10
0.0
 20
0.0
 30
0.0
 40
12.699999999999999
  0
ENDBLK
  5
2296
  8
0
  0
BLOCK
  8
0
  2
NEW_BLOCK
 70
     0
 10
0.0
 20
0.0
 30
0.0
  3
NEW_BLOCK
  1

  0
TEXT
  5
2299
  8
TEXT
 10
27.285946821803002
 20
25.27142175952417
 30
0.0
 40
40.0
  1
available on request
  7
TITLE3
  0
TEXT
  5
229A
  8
TEXT
 10
27.285946821803002
 20
93.842850330952714
 30
0.0
 40
40.0
  1
Certified dimensions
  7
TITLE3
  0
TEXT
  5
229B
  8
TEXT
 10
27.285946821803002
 20
162.4142789023812
 30
0.0
 40
40.0
  1
without notice or obligation.
  7
TITLE3
  0
TEXT
  5
229C
  8
TEXT
 10
27.285946821803002
 20
230.9857074738097
 30
0.0
 40
40.0
  1
specifications at any time
  7
TITLE3
  0
TEXT
  5
229D
  8
TEXT
 10
27.285946821803002
 20
299.55713604523839
 30
0.0
 40
40.0
  1
the right to change 
  7
TITLE3
  0
TEXT
  5
229E
  8
TEXT
 10
27.285946821803002
 20
436.69999318809528
 30
0.0
 40
40.0
  1
NOTE
  7
TITLE3
  0
TEXT
  5
229F
  8
TEXT
 10
27.285946821803002
 20
368.12856461666672
 30
0.0
 40
40.0
  1
The manufacturer reserves
  7
TITLE3
  0
ENDBLK
  5
22A0
  8
0
  0
BLOCK
  8
0
  2
NEW_BLOCK0
 70
     0
 10
0.0
 20
0.0
 30
0.0
  3
NEW_BLOCK0
  1

  0
INSERT
  5
22A3
  8
DIM
  2
NEW_BLOCK
 10
13.048098169647799
 20
6.0725618626865971
 30
0.0
 41
0.7000000000000455
 42
0.6999999999999993
 43
0.7
  0
ENDBLK
  5
22A4
  8
0
  0
ENDSEC
  0
SECTION
  2
ENTITIES
  0
LINE
  5
24E3
  8
OUTLINE
 10
3186.583212283299
 20
538.36669200110555
 30
0.0
 11
3186.583212283299
 21
775.32319841436959
 31
0.0
  0
LINE
  5
24E4
  8
OUTLINE
 10
3211.583212283299
 20
896.36669200110555
 30
0.0
 11
2116.5832122832999
 21
896.36669200110623
 31
0.0
  0
LINE
  5
24E5
  8
OUTLINE
 10
2141.5832122832999
 20
538.36669200110634
 30
0.0
 11
2141.5832122832999
 21
775.32319841436959
 31
0.0
  0
LINE
  5
24E6
  8
OUTLINE
 10
3196.5832122832981
 20
538.36669200110555
 30
0.0
 11
2131.5832122832981
 21
538.36669200110634
 31
0.0
  0
LINE
  5
24E7
  8
OUTLINE
 10
2216.083212283299
 20
879.86669200110555
 30
0.0
 11
3130.083212283299
 21
879.86669200110578
 31
0.0
  0
LINE
  5
24E8
  8
OUTLINE
 10
2216.083212283299
 20
595.86669200110555
 30
0.0
 11
3130.083212283299
 21
595.86669200110555
 31
0.0
  0
LINE
  5
24E9
  8
OUTLINE
 10
2216.083212283299
 20
879.86669200110555
 30
0.0
 11
2216.083212283299
 21
595.86669200110555
 31
0.0
  0
LINE
  5
24EA
  8
OUTLINE
 10
3130.083212283299
 20
879.86669200110578
 30
0.0
 11
3130.083212283299
 21
595.86669200110555
 31
0.0
  0
LINE
  5
24EB
  8
OUTLINE
 10
3195.583212283299
 20
852.32319841436981
 30
0.0
 11
3195.583212283299
 21
782.3231984143697
 31
0.0
  0
LINE
  5
24EC
  8
OUTLINE
 10
3148.583212283299
 20
852.32319841436981
 30
0.0
 11
3148.583212283299
 21
782.3231984143697
 31
0.0
  0
LINE
  5
24ED
  8
OUTLINE
 10
3148.583212283299
 20
782.3231984143697
 30
0.0
 11
3195.583212283299
 21
782.3231984143697
 31
0.0
  0
LINE
  5
24EE
  8
OUTLINE
 10
3189.583212283299
 20
775.32319841436959
 30
0.0
 11
3154.583212283299
 21
775.32319841436959
 31
0.0
  0
LINE
  5
24EF
  8
OUTLINE
 10
3154.583212283299
 20
775.32319841436924
 30
0.0
 11
3154.583212283299
 21
782.3231984143697
 31
0.0
  0
LINE
  5
24F0
  8
OUTLINE
 10
3189.583212283299
 20
775.32319841436924
 30
0.0
 11
3189.583212283299
 21
782.3231984143697
 31
0.0
  0
LINE
  5
24F1
  8
OUTLINE
 10
3148.583212283299
 20
852.32319841436981
 30
0.0
 11
3195.583212283299
 21
852.32319841436981
 31
0.0
  0
LINE
  5
24F2
  8
OUTLINE
 10
2132.5832122832981
 20
852.32319841436981
 30
0.0
 11
2132.5832122832981
 21
782.3231984143697
 31
0.0
  0
LINE
  5
24F3
  8
OUTLINE
 10
2179.5832122832981
 20
852.32319841436981
 30
0.0
 11
2179.5832122832981
 21
782.3231984143697
 31
0.0
  0
LINE
  5
24F4
  8
OUTLINE
 10
2173.5832122832981
 20
775.32319841436959
 30
0.0
 11
2138.583212283299
 21
775.32319841436959
 31
0.0
  0
LINE
  5
24F5
  8
OUTLINE
 10
2132.5832122832981
 20
782.3231984143697
 30
0.0
 11
2179.5832122832981
 21
782.3231984143697
 31
0.0
  0
LINE
  5
24F6
  8
OUTLINE
 10
2138.583212283299
 20
775.32319841436924
 30
0.0
 11
2138.583212283299
 21
782.3231984143697
 31
0.0
  0
LINE
  5
24F7
  8
OUTLINE
 10
2173.5832122832981
 20
775.32319841436924
 30
0.0
 11
2173.5832122832981
 21
782.3231984143697
 31
0.0
  0
LINE
  5
24F8
  8
OUTLINE
 10
2132.5832122832981
 20
852.32319841436981
 30
0.0
 11
2179.5832122832981
 21
852.32319841436981
 31
0.0
  0
LINE
  5
24F9
  8
OUTLINE
 10
3186.583212283299
 20
852.32319841436981
 30
0.0
 11
3186.583212283299
 21
896.36669200110555
 31
0.0
  0
LINE
  5
24FA
  8
OUTLINE
 10
2141.5832122832999
 20
852.32319841436981
 30
0.0
 11
2141.5832122832999
 21
896.36669200110623
 31
0.0
  0
TEXT
  5
24FB
  8
DIM
 62
    50
 10
3307.6900013772461
 20
678.79526342967711
 30
0.0
 40
30.0
  1
358
 50
90.0
  7
TITLE3
 72
     1
 11
3292.690001377247
 21
717.36669200110555
 31
0.0
 73
     2
  0
LINE
  5
24FC
  8
DIM
 62
    52
 10
3213.7772871539169
 20
538.36669200110555
 30
0.0
 11
3312.6900013772461
 21
538.36669200110555
 31
0.0
  0
LINE
  5
24FD
  8
DIM
 62
    52
 10
3292.690001377247
 20
568.36669200110555
 30
0.0
 11
3292.690001377247
 21
660.10029491768034
 31
0.0
  0
SOLID
  5
24FE
  8
DIM
 62
     7
 10
3287.6900013772461
 20
568.36669200110555
 30
0.0
 11
3297.6900013772461
 21
568.36669200110555
 31
0.0
 12
3292.690001377247
 22
538.36669200110555
 32
0.0
 13
3292.690001377247
 23
538.36669200110555
 33
0.0
  0
SOLID
  5
24FF
  8
DIM
 62
     7
 10
3287.6900013772461
 20
866.36669200110543
 30
0.0
 11
3297.6900013772461
 21
866.36669200110543
 31
0.0
 12
3292.690001377247
 22
896.36669200110555
 32
0.0
 13
3292.690001377247
 23
896.36669200110555
 33
0.0
  0
LINE
  5
2500
  8
DIM
 62
    52
 10
3229.7772871539169
 20
896.36669200110555
 30
0.0
 11
3312.6900013772461
 21
896.36669200110555
 31
0.0
  0
LINE
  5
2501
  8
DIM
 62
    52
 10
3292.690001377247
 20
866.36669200110543
 30
0.0
 11
3292.690001377247
 21
768.45908488612974
 31
0.0
  0
LINE
  5
2502
  8
DIM
 62
    52
 10
2116.5832122832999
 20
916.36669200110646
 30
0.0
 11
2116.5832122832999
 21
1030.696737692414
 31
0.0
  0
LINE
  5
2503
  8
DIM
 62
    52
 10
3211.583212283299
 20
916.36669200110543
 30
0.0
 11
3211.583212283299
 21
1030.696737692414
 31
0.0
  0
LINE
  5
2504
  8
DIM
 62
    52
 10
2146.583212283299
 20
1010.696737692414
 30
0.0
 11
2597.947264020961
 21
1010.696737692414
 31
0.0
  0
LINE
  5
2505
  8
DIM
 62
    52
 10
3181.583212283299
 20
1010.696737692414
 30
0.0
 11
2731.7637157482191
 21
1010.696737692414
 31
0.0
  0
SOLID
  5
2506
  8
DIM
 62
     7
 10
2146.583212283299
 20
1015.696737692415
 30
0.0
 11
2146.583212283299
 21
1005.696737692415
 31
0.0
 12
2116.5832122832999
 22
1010.696737692414
 32
0.0
 13
2116.5832122832999
 23
1010.696737692414
 33
0.0
  0
SOLID
  5
2507
  8
DIM
 62
     7
 10
3181.583212283299
 20
1015.696737692415
 30
0.0
 11
3181.583212283299
 21
1005.696737692415
 31
0.0
 12
3211.583212283299
 22
1010.696737692414
 32
0.0
 13
3211.583212283299
 23
1010.696737692414
 33
0.0
  0
TEXT
  5
2508
  8
DIM
 62
    50
 10
2614.0832122832999
 20
995.69673769241513
 30
0.0
 40
30.0
  1
1095
  7
TITLE3
 72
     1
 11
2664.0832122832999
 21
1010.696737692414
 31
0.0
 73
     2
  0
TEXT
  5
2509
  8
TEXT
 10
2949.8033822684101
 20
110.0
 30
0.0
 40
30.0
  1
16.10.03
 41
0.8888888888888894
  7
TITLE3
 72
     5
 11
3109.8033822684101
 21
110.0
 31
0.0
  0
CIRCLE
  5
250A
  8
OUTLINE
 10
3152.1932122833
 20
1360.146259123283
 30
0.0
 40
4.75
  0
CIRCLE
  5
250B
  8
OUTLINE
 10
2176.993212283302
 20
1360.146259123283
 30
0.0
 40
4.75
  0
LINE
  5
250C
  8
OUTLINE
 10
3161.5832122832999
 20
1347.646259123283
 30
0.0
 11
3211.5832122833021
 21
1397.646259123283
 31
0.0
  0
LINE
  5
250D
  8
OUTLINE
 10
3161.5832122833021
 20
1902.646259123281
 30
0.0
 11
3211.5832122833021
 21
1852.646259123281
 31
0.0
  0
LINE
  5
250E
  8
OUTLINE
 10
2116.5832122833008
 20
1398.6462591232821
 30
0.0
 11
2167.5832122832999
 21
1347.646259123283
 31
0.0
  0
LINE
  5
250F
  8
OUTLINE
 10
2141.5832122832999
 20
1877.646259123281
 30
0.0
 11
2141.5832122832999
 21
1373.6462591232821
 31
0.0
  0
LINE
  5
2510
  8
OUTLINE
 10
2141.5832122832999
 20
1877.646259123281
 30
0.0
 11
3186.5832122832999
 21
1877.646259123281
 31
0.0
  0
LINE
  5
2511
  8
OUTLINE
 10
2166.5832122832999
 20
1902.646259123281
 30
0.0
 11
2116.5832122833008
 21
1852.646259123283
 31
0.0
  0
LINE
  5
2512
  8
OUTLINE
 10
2141.5832122832999
 20
1373.646259123283
 30
0.0
 11
3186.5832122833021
 21
1373.6462591232651
 31
0.0
  0
CIRCLE
  5
2513
  8
OUTLINE
 10
2176.9932122833011
 20
1890.146259123281
 30
0.0
 40
4.75
  0
CIRCLE
  5
2514
  8
OUTLINE
 10
3152.1932122833
 20
1890.146259123281
 30
0.0
 40
4.75
  0
LINE
  5
2515
  8
OUTLINE
 10
2132.5832122833008
 20
1942.646259123281
 30
0.0
 11
2132.5832122833008
 21
1868.646259123283
 31
0.0
  0
LINE
  5
2516
  8
OUTLINE
 10
2179.583212283299
 20
1942.646259123283
 30
0.0
 11
2179.5832122832999
 21
1902.646259123281
 31
0.0
  0
LINE
  5
2517
  8
OUTLINE
 10
2132.5832122833008
 20
1942.646259123281
 30
0.0
 11
2179.583212283299
 21
1942.646259123283
 31
0.0
  0
CIRCLE
  5
2518
  8
OUTLINE
 10
2156.0832122832999
 20
1922.6462591232821
 30
0.0
 40
5.0
  0
LINE
  5
2519
  8
OUTLINE
 10
3195.5832122833021
 20
1942.646259123281
 30
0.0
 11
3148.5832122833008
 21
1942.646259123283
 31
0.0
  0
LINE
  5
251A
  8
OUTLINE
 10
3195.5832122833021
 20
1942.646259123281
 30
0.0
 11
3195.5832122833008
 21
1868.646259123281
 31
0.0
  0
LINE
  5
251B
  8
OUTLINE
 10
3148.5832122833008
 20
1942.646259123283
 30
0.0
 11
3148.5832122833008
 21
1902.646259123281
 31
0.0
  0
CIRCLE
  5
251C
  8
OUTLINE
 10
3172.0832122832999
 20
1922.6462591232821
 30
0.0
 40
5.0
  0
LINE
  5
251D
  8
OUTLINE
 10
2132.5832122833008
 20
1307.646259123283
 30
0.0
 11
2179.583212283299
 21
1307.6462591232821
 31
0.0
  0
LINE
  5
251E
  8
OUTLINE
 10
2132.5832122833008
 20
1307.646259123283
 30
0.0
 11
2132.5832122833008
 21
1382.646259123281
 31
0.0
  0
LINE
  5
251F
  8
OUTLINE
 10
2179.583212283299
 20
1307.6462591232821
 30
0.0
 11
2179.5832122832999
 21
1347.646259123283
 31
0.0
  0
CIRCLE
  5
2520
  8
OUTLINE
 10
2156.0832122832999
 20
1327.646259123283
 30
0.0
 40
5.0
  0
LINE
  5
2521
  8
OUTLINE
 10
3148.5832122833008
 20
1307.6462591232821
 30
0.0
 11
3148.5832122833008
 21
1347.646259123283
 31
0.0
  0
LINE
  5
2522
  8
OUTLINE
 10
3195.5832122833021
 20
1307.646259123283
 30
0.0
 11
3195.5832122833008
 21
1381.646259123281
 31
0.0
  0
CIRCLE
  5
2523
  8
OUTLINE
 10
3172.0832122832999
 20
1327.646259123283
 30
0.0
 40
5.0
  0
LINE
  5
2524
  8
OUTLINE
 10
3195.5832122833021
 20
1307.646259123283
 30
0.0
 11
3148.5832122833008
 21
1307.6462591232821
 31
0.0
  0
LINE
  5
2525
  8
OUTLINE
 10
2473.5866870437362
 20
1938.6462591232821
 30
0.0
 11
2473.5866870437362
 21
1902.646259123281
 31
0.0
  0
LINE
  5
2526
  8
OUTLINE
 10
2873.5866870437371
 20
1938.6462591232821
 30
0.0
 11
2873.5866870437371
 21
1902.646259123281
 31
0.0
  0
LINE
  5
2527
  8
OUTLINE
 10
2873.5866870437371
 20
1938.6462591232821
 30
0.0
 11
2473.5866870437362
 21
1938.6462591232821
 31
0.0
  0
LINE
  5
2528
  8
OUTLINE
 10
2217.0832122832999
 20
1311.646259123283
 30
0.0
 11
2217.0832122832999
 21
1347.646259123283
 31
0.0
  0
LINE
  5
2529
  8
OUTLINE
 10
3130.0832122833008
 20
1311.646259123283
 30
0.0
 11
3130.0832122833008
 21
1347.646259123283
 31
0.0
  0
LINE
  5
252A
  8
OUTLINE
 10
2217.0832122832999
 20
1311.646259123283
 30
0.0
 11
3130.0832122833008
 21
1311.646259123283
 31
0.0
  0
LINE
  5
252B
  8
OUTLINE
 10
3211.5832122833021
 20
1397.646259123283
 30
0.0
 11
3211.5832122833021
 21
1852.646259123281
 31
0.0
  0
LINE
  5
252C
  8
OUTLINE
 10
3186.5832122833021
 20
1373.6462591232651
 30
0.0
 11
3186.5832122832999
 21
1877.646259123281
 31
0.0
  0
LINE
  5
252D
  8
DIM
 62
    52
 10
2156.0832122832999
 20
1942.646259123281
 30
0.0
 11
2156.0832122832999
 21
2134.9847753654822
 31
0.0
  0
LINE
  5
252E
  8
DIM
 62
    52
 10
3172.0832122832999
 20
1942.646259123281
 30
0.0
 11
3172.0832122832999
 21
2134.9847753654822
 31
0.0
  0
LINE
  5
252F
  8
DIM
 62
    52
 10
2186.0832122833008
 20
2114.9847753654822
 30
0.0
 11
2590.0709987125142
 21
2114.9847753654822
 31
0.0
  0
LINE
  5
2530
  8
DIM
 62
    52
 10
3142.0832122833021
 20
2114.9847753654822
 30
0.0
 11
2741.881010307186
 21
2114.9847753654822
 31
0.0
  0
SOLID
  5
2531
  8
DIM
 62
     7
 10
2186.0832122833008
 20
2119.9847753654822
 30
0.0
 11
2186.0832122833008
 21
2109.9847753654822
 31
0.0
 12
2156.0832122832999
 22
2114.9847753654822
 32
0.0
 13
2156.0832122832999
 23
2114.9847753654822
 33
0.0
  0
SOLID
  5
2532
  8
DIM
 62
     7
 10
3142.0832122833021
 20
2119.9847753654822
 30
0.0
 11
3142.0832122833021
 21
2109.9847753654822
 31
0.0
 12
3172.0832122832999
 22
2114.9847753654822
 32
0.0
 13
3172.0832122832999
 23
2114.9847753654822
 33
0.0
  0
TEXT
  5
2533
  8
DIM
 62
    50
 10
2617.6546408547292
 20
2099.9847753654822
 30
0.0
 40
30.0
  1
1016
  7
TITLE3
 72
     4
 11
2664.0832122833008
 21
2114.9847753654822
 31
0.0
  0
LINE
  5
2534
  8
DIM
 62
    52
 10
2151.4832122833009
 20
1360.146259123283
 30
0.0
 11
2010.2285143485381
 21
1360.146259123283
 31
0.0
  0
LINE
  5
2535
  8
DIM
 62
    52
 10
2151.5032122833009
 20
1890.146259123281
 30
0.0
 11
2010.2285143485381
 21
1890.146259123281
 31
0.0
  0
LINE
  5
2536
  8
DIM
 62
    52
 10
2030.228514348536
 20
1390.146259123283
 30
0.0
 11
2030.228514348536
 21
1566.5748305518539
 31
0.0
  0
LINE
  5
2537
  8
DIM
 62
    52
 10
2030.228514348536
 20
1860.1462591232821
 30
0.0
 11
2030.228514348536
 21
1683.717687694711
 31
0.0
  0
SOLID
  5
2538
  8
DIM
 62
     7
 10
2025.228514348536
 20
1390.146259123283
 30
0.0
 11
2035.2285143485381
 21
1390.146259123283
 31
0.0
 12
2030.228514348536
 22
1360.146259123283
 32
0.0
 13
2030.228514348536
 23
1360.146259123283
 33
0.0
  0
SOLID
  5
2539
  8
DIM
 62
     7
 10
2025.228514348536
 20
1860.1462591232821
 30
0.0
 11
2035.2285143485381
 21
1860.1462591232821
 31
0.0
 12
2030.228514348536
 22
1890.146259123281
 32
0.0
 13
2030.228514348536
 23
1890.146259123281
 33
0.0
  0
TEXT
  5
253A
  8
DIM
 62
    50
 10
2045.228514348536
 20
1586.574830551853
 30
0.0
 40
30.0
  1
530
 50
90.0
  7
TITLE3
 72
     1
 11
2030.228514348536
 21
1625.146259123281
 31
0.0
 73
     2
  0
LINE
  5
253B
  8
DIM
 62
    52
 10
2136.0832122832999
 20
1327.646259123283
 30
0.0
 11
1933.9861055380129
 21
1327.646259123283
 31
0.0
  0
LINE
  5
253C
  8
DIM
 62
    52
 10
2136.0832122832999
 20
1922.6462591232821
 30
0.0
 11
1933.9861055380129
 21
1922.6462591232821
 31
0.0
  0
LINE
  5
253D
  8
DIM
 62
    52
 10
1953.986105538014
 20
1357.646259123283
 30
0.0
 11
1953.986105538014
 21
1566.5748305518539
 31
0.0
  0
LINE
  5
253E
  8
DIM
 62
    52
 10
1953.986105538014
 20
1892.646259123281
 30
0.0
 11
1953.986105538014
 21
1683.717687694711
 31
0.0
  0
SOLID
  5
253F
  8
DIM
 62
     7
 10
1948.9861055380129
 20
1357.646259123283
 30
0.0
 11
1958.9861055380129
 21
1357.646259123283
 31
0.0
 12
1953.986105538014
 22
1327.646259123283
 32
0.0
 13
1953.986105538014
 23
1327.646259123283
 33
0.0
  0
SOLID
  5
2540
  8
DIM
 62
     7
 10
1948.9861055380129
 20
1892.646259123281
 30
0.0
 11
1958.9861055380129
 21
1892.646259123281
 31
0.0
 12
1953.986105538014
 22
1922.6462591232821
 32
0.0
 13
1953.986105538014
 23
1922.6462591232821
 33
0.0
  0
TEXT
  5
2541
  8
DIM
 62
    50
 10
1968.986105538014
 20
1586.574830551853
 30
0.0
 40
30.0
  1
595
 50
90.0
  7
TITLE3
 72
     1
 11
1953.986105538014
 21
1625.146259123281
 31
0.0
 73
     2
  0
LINE
  5
2542
  8
DIM
 62
    52
 10
2176.993212283302
 20
1335.7629270573771
 30
0.0
 11
2176.993212283302
 21
1171.8829816811501
 31
0.0
  0
LINE
  5
2543
  8
DIM
 62
    52
 10
3152.1932122833009
 20
1335.7629270573771
 30
0.0
 11
3152.1932122833009
 21
1171.8829816811501
 31
0.0
  0
LINE
  5
2544
  8
DIM
 62
    52
 10
2206.993212283302
 20
1191.8829816811501
 30
0.0
 11
2612.0217837118721
 21
1191.8829816811501
 31
0.0
  0
LINE
  5
2545
  8
DIM
 62
    52
 10
3122.1932122833009
 20
1191.8829816811501
 30
0.0
 11
2729.164640854729
 21
1191.8829816811501
 31
0.0
  0
SOLID
  5
2546
  8
DIM
 62
     7
 10
2206.993212283302
 20
1196.8829816811501
 30
0.0
 11
2206.993212283302
 21
1186.8829816811501
 31
0.0
 12
2176.993212283302
 22
1191.8829816811501
 32
0.0
 13
2176.993212283302
 23
1191.8829816811501
 33
0.0
  0
SOLID
  5
2547
  8
DIM
 62
     7
 10
3122.1932122833009
 20
1196.8829816811501
 30
0.0
 11
3122.1932122833009
 21
1186.8829816811501
 31
0.0
 12
3152.1932122833009
 22
1191.8829816811501
 32
0.0
 13
3152.1932122833009
 23
1191.8829816811501
 33
0.0
  0
TEXT
  5
2548
  8
DIM
 62
    50
 10
2632.021783711873
 20
1176.8829816811501
 30
0.0
 40
30.0
  1
975
  7
TITLE3
 72
     4
 11
2670.593212283301
 21
1191.8829816811501
 31
0.0
  0
LINE
  5
2549
  8
OUTLINE
 10
2074.8332122833008
 20
1575.6462591232821
 30
0.0
 11
2116.5832122833008
 21
1575.6462591232821
 31
0.0
  0
LINE
  5
254A
  8
OUTLINE
 10
2074.8332122833008
 20
1555.6462591232821
 30
0.0
 11
2116.5832122833008
 21
1555.6462591232821
 31
0.0
  0
LINE
  5
254B
  8
OUTLINE
 10
2074.8332122833008
 20
1575.6462591232821
 30
0.0
 11
2074.8332122833008
 21
1555.6462591232821
 31
0.0
  0
LINE
  5
254C
  8
OUTLINE
 10
2074.8332122833008
 20
550.32319841436868
 30
0.0
 11
2141.5832122832999
 21
550.32319841436856
 31
0.0
  0
LINE
  5
254D
  8
OUTLINE
 10
2074.8332122833008
 20
570.32319841436879
 30
0.0
 11
2141.5832122832999
 21
570.32319841436879
 31
0.0
  0
LINE
  5
254E
  8
OUTLINE
 10
2074.8332122833008
 20
570.32319841436879
 30
0.0
 11
2074.8332122833008
 21
550.32319841436868
 31
0.0
  0
LINE
  5
254F
  8
OUTLINE
 10
1854.596012662083
 20
595.86669200110555
 30
0.0
 11
1793.596012662083
 21
595.86669200110555
 31
0.0
  0
LINE
  5
2550
  8
OUTLINE
 10
1854.596012662083
 20
879.86669200110578
 30
0.0
 11
1793.596012662083
 21
879.86669200110555
 31
0.0
  0
LINE
  5
2551
  8
OUTLINE
 10
1806.096012662083
 20
794.8231984143697
 30
0.0
 11
1858.596012662083
 21
794.8231984143697
 31
0.0
  0
LINE
  5
2552
  8
OUTLINE
 10
1821.096012662081
 20
775.32319841436959
 30
0.0
 11
1856.096012662083
 21
775.32319841436959
 31
0.0
  0
LINE
  5
2553
  8
OUTLINE
 10
1793.596012662083
 20
782.3231984143697
 30
0.0
 11
1858.596012662083
 21
782.3231984143697
 31
0.0
  0
LINE
  5
2554
  8
OUTLINE
 10
1287.506323914243
 20
883.366692001106
 30
0.0
 11
1227.5063239142421
 21
883.366692001106
 31
0.0
  0
LINE
  5
2555
  8
OUTLINE
 10
1287.506323914243
 20
658.366692001106
 30
0.0
 11
1227.5063239142421
 21
658.366692001106
 31
0.0
  0
LINE
  5
2556
  8
OUTLINE
 10
1288.506323914243
 20
782.3231984143697
 30
0.0
 11
1223.506323914243
 21
782.3231984143697
 31
0.0
  0
LINE
  5
2557
  8
OUTLINE
 10
1261.006323914243
 20
775.32319841436959
 30
0.0
 11
1226.006323914243
 21
775.32319841436959
 31
0.0
  0
LINE
  5
2558
  8
OUTLINE
 10
1276.006323914243
 20
794.8231984143697
 30
0.0
 11
1223.506323914243
 21
794.8231984143697
 31
0.0
  0
LINE
  5
2559
  8
OUTLINE
 10
1227.5063239142421
 20
883.366692001106
 30
0.0
 11
1227.5063239142421
 21
794.8231984143697
 31
0.0
  0
LINE
  5
255A
  8
OUTLINE
 10
1226.006323914243
 20
775.32319841436924
 30
0.0
 11
1226.006323914243
 21
782.3231984143697
 31
0.0
  0
LINE
  5
255B
  8
OUTLINE
 10
1223.506323914243
 20
782.3231984143697
 30
0.0
 11
1223.506323914243
 21
794.8231984143697
 31
0.0
  0
LINE
  5
255C
  8
OUTLINE
 10
1288.506323914243
 20
538.32319841436936
 30
0.0
 11
1288.506323914243
 21
896.36669200110623
 31
0.0
  0
LINE
  5
255D
  8
OUTLINE
 10
1793.596012662083
 20
538.32319841436936
 30
0.0
 11
1793.596012662083
 21
896.36669200110623
 31
0.0
  0
LINE
  5
255E
  8
OUTLINE
 10
1278.506323914243
 20
538.3231984143697
 30
0.0
 11
1803.596012662083
 21
538.32319841436924
 31
0.0
  0
CIRCLE
  5
255F
  8
OUTLINE
 10
1706.012396927478
 20
637.67124877994797
 30
0.0
 40
16.542141810320611
  0
INSERT
  5
2560
  8
OUTLINE
  2
RO42
 10
1601.0063239142421
 20
560.32319841436879
 30
0.0
 41
-1.0
  0
LINE
  5
2561
  8
OUTLINE
 10
1818.596012662083
 20
896.36669200110623
 30
0.0
 11
1263.506323914243
 21
896.36669200110623
 31
0.0
  0
LINE
  5
2562
  8
OUTLINE
 10
1276.006323914243
 20
794.8231984143697
 30
0.0
 11
1276.006323914243
 21
852.32319841436981
 31
0.0
  0
LINE
  5
2563
  8
OUTLINE
 10
1261.006323914243
 20
775.32319841436924
 30
0.0
 11
1261.006323914243
 21
782.3231984143697
 31
0.0
  0
LINE
  5
2564
  8
OUTLINE
 10
1288.506323914243
 20
852.32319841436981
 30
0.0
 11
1276.006323914243
 21
852.32319841436981
 31
0.0
  0
CIRCLE
  5
2565
  8
OUTLINE
 10
1733.501396927478
 20
811.53278004878894
 30
0.0
 40
16.542141810320611
  0
LINE
  5
2566
  8
OUTLINE
 10
1806.096012662083
 20
794.8231984143697
 30
0.0
 11
1806.096012662083
 21
852.32319841436981
 31
0.0
  0
LINE
  5
2567
  8
OUTLINE
 10
1821.096012662081
 20
775.32319841436924
 30
0.0
 11
1821.096012662081
 21
782.3231984143697
 31
0.0
  0
LINE
  5
2568
  8
OUTLINE
 10
1793.596012662083
 20
852.32319841436981
 30
0.0
 11
1806.096012662083
 21
852.32319841436981
 31
0.0
  0
LINE
  5
2569
  8
OUTLINE
 10
1854.596012662083
 20
595.86669200110555
 30
0.0
 11
1854.596012662083
 21
775.32319841436959
 31
0.0
  0
LINE
  5
256A
  8
OUTLINE
 10
1858.596012662083
 20
782.3231984143697
 30
0.0
 11
1858.596012662083
 21
794.8231984143697
 31
0.0
  0
LINE
  5
256B
  8
OUTLINE
 10
1856.096012662083
 20
775.32319841436924
 30
0.0
 11
1856.096012662083
 21
782.3231984143697
 31
0.0
  0
LINE
  5
256C
  8
OUTLINE
  6
CONTINUOUS
 10
2070.5297362892329
 20
653.31830816514776
 30
0.0
 11
2070.5297362892329
 21
622.02418939474762
 31
0.0
  0
LINE
  5
256D
  8
OUTLINE
 10
2070.5297362892329
 20
622.02418939474762
 30
0.0
 11
2071.378706591534
 21
621.17521909244795
 31
0.0
  0
LINE
  5
256E
  8
OUTLINE
 10
2070.5297362892329
 20
653.31830816514776
 30
0.0
 11
2071.378706591534
 21
654.16727846744811
 31
0.0
  0
LINE
  5
256F
  8
OUTLINE
 10
2096.5234800392341
 20
618.67582065494776
 30
0.0
 11
2141.5832122832999
 21
618.67582065494776
 31
0.0
  0
LINE
  5
2570
  8
OUTLINE
 10
2096.5234800392341
 20
656.66667690494785
 30
0.0
 11
2096.5234800392341
 21
618.67582065494776
 31
0.0
  0
LINE
  5
2571
  8
OUTLINE
 62
   141
 10
2096.5234800392341
 20
618.67582065494776
 30
0.0
 11
2096.5234800392341
 21
624.38452403040969
 31
0.0
  0
LINE
  5
2572
  8
OUTLINE
 10
2096.5234800392341
 20
621.17521909244795
 30
0.0
 11
2071.378706591534
 21
621.17521909244795
 31
0.0
  0
LINE
  5
2573
  8
OUTLINE
 62
   141
 10
2096.5234800392341
 20
656.66667690494785
 30
0.0
 11
2096.5234800392341
 21
650.9579735294858
 31
0.0
  0
LINE
  5
2574
  8
OUTLINE
 10
2096.5234800392341
 20
654.16727846744811
 30
0.0
 11
2071.378706591534
 21
654.16727846744811
 31
0.0
  0
LINE
  5
2575
  8
OUTLINE
 62
   141
 10
2096.5234800392341
 20
618.67582065494776
 30
0.0
 11
2101.5222769142342
 21
618.67582065494753
 31
0.0
  0
LINE
  5
2576
  8
OUTLINE
 10
2096.5234800392341
 20
656.66667690494785
 30
0.0
 11
2141.5832122832999
 21
656.66667690494785
 31
0.0
  0
LINE
  5
2577
  8
OUTLINE
 10
2097.3335169142351
 20
830.49006804878911
 30
0.0
 11
2097.3335169142351
 21
792.57549204878899
 31
0.0
  0
LINE
  5
2578
  8
OUTLINE
  6
CONTINUOUS
 10
2071.391964914234
 20
825.2518700487891
 30
0.0
 11
2071.391964914234
 21
797.81369004878923
 31
0.0
  0
LINE
  5
2579
  8
OUTLINE
 10
2097.3335169142351
 20
795.06987204878919
 30
0.0
 11
2073.387468914234
 21
795.06987204878919
 31
0.0
  0
LINE
  5
257A
  8
OUTLINE
 10
2073.387468914234
 20
795.06987204878919
 30
0.0
 11
2071.391964914234
 21
797.81369004878911
 31
0.0
  0
LINE
  5
257B
  8
OUTLINE
 62
   141
 10
2097.3335169142351
 20
792.57549204878899
 30
0.0
 11
2097.3335169142351
 21
798.27273315770503
 31
0.0
  0
LINE
  5
257C
  8
OUTLINE
 10
2097.3335169142351
 20
792.57549204878899
 30
0.0
 11
2132.5832122832981
 21
792.57549204879012
 31
0.0
  0
LINE
  5
257D
  8
OUTLINE
 10
2097.3335169142351
 20
827.99568804878902
 30
0.0
 11
2073.387468914234
 21
827.99568804878902
 31
0.0
  0
LINE
  5
257E
  8
OUTLINE
 10
2073.387468914234
 20
827.99568804878902
 30
0.0
 11
2071.391964914234
 21
825.2518700487891
 31
0.0
  0
LINE
  5
257F
  8
OUTLINE
 62
   141
 10
2097.3335169142351
 20
830.49006804878911
 30
0.0
 11
2097.3335169142351
 21
824.79282693987295
 31
0.0
  0
LINE
  5
2580
  8
OUTLINE
 10
2097.3335169142351
 20
830.49006804878911
 30
0.0
 11
2132.5832122832981
 21
830.49006804878911
 31
0.0
  0
LINE
  5
2581
  8
OUTLINE
 10
3161.5832122832999
 20
1347.646259123283
 30
0.0
 11
2167.5832122832999
 21
1347.646259123283
 31
0.0
  0
LINE
  5
2582
  8
OUTLINE
 10
2116.5832122833008
 20
1852.646259123283
 30
0.0
 11
2116.5832122833008
 21
1398.6462591232821
 31
0.0
  0
LINE
  5
2583
  8
OUTLINE
 10
2166.5832122832999
 20
1902.646259123281
 30
0.0
 11
3161.5832122833021
 21
1902.646259123281
 31
0.0
  0
TEXT
  5
2584
  8
OVERLAY-A3
 10
2846.388425750617
 20
110.8312138601009
 30
0.0
 40
24.0
  1
Date
  7
SIMPLEX
  0
TEXT
  5
2585
  8
OVERLAY-A3
 10
3746.1111923736021
 20
129.50330202341121
 30
0.0
 40
24.0
  1
Revision
 41
0.7812095035934772
  7
SIMPLEX
 72
     5
 11
3851.4628740010648
 21
129.50330202341121
 31
0.0
  0
LINE
  5
2586
  8
OVERLAY-A3
 10
3734.49134999016
 20
20.842492848317129
 30
0.0
 11
3734.49134999016
 21
168.2686557085465
 31
0.0
  0
LINE
  5
2587
  8
OVERLAY-A3
 10
2819.3515294571471
 20
340.75103923222258
 30
0.0
 11
2819.3515294571471
 21
20.842492848317129
 31
0.0
  0
LINE
  5
2588
  8
OVERLAY-A3
 10
3416.913678013093
 20
20.842492848317129
 30
0.0
 11
3416.913678013093
 21
168.2686557085465
 31
0.0
  0
LINE
  5
2589
  8
OVERLAY-A3
 10
3416.913678013093
 20
93.312599269463774
 30
0.0
 11
2819.3515294571471
 21
93.312599269463774
 31
0.0
  0
LINE
  5
258A
  8
OVERLAY-A3
 10
3861.5754652378419
 20
168.26865570854659
 30
0.0
 11
2819.3515294571471
 21
168.26865570854659
 31
0.0
  0
LINE
  5
258B
  8
OVERLAY-A3
 10
2819.3515294571471
 20
20.842492848317129
 30
0.0
 11
3861.2779580594911
 21
20.842492848317129
 31
0.0
  0
LINE
  5
258C
  8
OVERLAY-A3
 10
3861.2779580594911
 20
20.842492848317129
 30
0.0
 11
3861.2779580594911
 21
340.75103923222258
 31
0.0
  0
LINE
  5
258D
  8
OVERLAY-A3
 10
3861.2779580594911
 20
340.75103923222258
 30
0.0
 11
2819.3515294571471
 21
340.75103923222258
 31
0.0
  0
TEXT
  5
258E
  8
OVERLAY-A3
 10
2844.4832191031091
 20
47.922488065357683
 30
0.0
 40
20.0
  1
Scale
 41
1.3701747965659781
  7
SIMPLEX
 72
     5
 11
2944.9627041846138
 21
47.922488065357683
 31
0.0
  0
TEXT
  5
258F
  8
OVERLAY-A3
 10
3474.8591236007969
 20
128.8934315067097
 30
0.0
 40
20.0
  1
Drawing No.
  7
SIMPLEX
 72
     2
 11
3649.1448378865111
 21
128.8934315067097
 31
0.0
  0
LINE
  5
2590
  8
OVERLAY-A3
 10
1132.302437745928
 20
0.0
 30
0.0
 11
3890.0
 21
0.0
 31
0.0
  0
LINE
  5
2591
  8
OVERLAY-A3
 10
3890.0
 20
0.0
 30
0.0
 11
3890.0
 21
2258.3291732656749
 31
0.0
  0
LINE
  5
2592
  8
OVERLAY-A3
 10
3890.0
 20
2258.3291732656749
 30
0.0
 11
1132.302437745928
 21
2258.3291732656749
 31
0.0
  0
LINE
  5
2593
  8
OVERLAY-A3
 10
1132.302437745928
 20
2258.3291732656749
 30
0.0
 11
1132.302437745928
 21
0.0
 31
0.0
  0
TEXT
  5
2594
  8
TEXT
 10
3484.0516043756761
 20
50.7284137570241
 30
0.0
 40
30.0
  1
IMD170
  7
TITLE3
  0
TEXT
  5
2595
  8
TEXT
 10
3164.7028219451749
 20
225.5230602813252
 30
0.0
 40
60.0
  1
IMD170
  7
TITLE3
  0
TEXT
  5
2596
  8
TEXT
 10
2984.4893886555869
 20
44.107408016071531
 30
0.0
 40
30.0
  1
1:10
  7
TITLE3
  0
LINE
  5
2597
  8
OUTLINE
 10
1227.5063239142421
 20
775.32319841436959
 30
0.0
 11
1227.5063239142421
 21
658.366692001106
 31
0.0
  0
LINE
  5
2598
  8
OUTLINE
 10
1854.596012662083
 20
794.8231984143697
 30
0.0
 11
1854.596012662083
 21
879.86669200110555
 31
0.0
  0
TEXT
  5
2599
  8
TEXT
 10
2515.4587027229081
 20
703.80858876692025
 30
0.0
 40
60.0
  1
IMD170
  7
TITLE3
  0
TEXT
  5
259A
  8
TEXT
 10
2527.9441604392782
 20
1597.9945790915431
 30
0.0
 40
60.0
  1
IMD170
  7
TITLE3
  0
TEXT
  5
259B
  8
TEXT
 10
1350.148735704048
 20
712.1266011588458
 30
0.0
 40
60.0
  1
IMD170
  7
TITLE3
  0
LINE
  5
259C
  8
CLEAR
 10
1641.5832122833001
 20
1877.646259123281
 30
0.0
 11
1641.5832122833001
 21
1373.646259123283
 31
0.0
  0
LINE
  5
259D
  8
CLEAR
 10
3686.5832122833021
 20
1373.6462591232651
 30
0.0
 11
3686.5832122833021
 21
1877.646259123281
 31
0.0
  0
LINE
  5
259E
  8
CLEAR
 10
2141.5832122832999
 20
1877.646259123281
 30
0.0
 11
1641.5832122833001
 21
1877.646259123281
 31
0.0
  0
LINE
  5
259F
  8
CLEAR
 10
2141.5832122832999
 20
1373.646259123283
 30
0.0
 11
1641.5832122833001
 21
1373.646259123283
 31
0.0
  0
LINE
  5
25A0
  8
CLEAR
 10
3186.5832122832999
 20
1877.646259123281
 30
0.0
 11
3686.5832122833021
 21
1877.646259123281
 31
0.0
  0
LINE
  5
25A1
  8
CLEAR
 10
3186.5832122833021
 20
1373.6462591232651
 30
0.0
 11
3686.5832122833021
 21
1373.6462591232651
 31
0.0
  0
INSERT
  5
25A2
  8
OUTLINE
  2
NEW_BLOCK0
 10
1162.7609761575629
 20
14.529057463625559
 30
0.0
  0
LINE
  5
25A3
  8
DIM
 10
2647.8691958550949
 20
1402.049829677361
 30
0.0
 11
2619.2931995034301
 21
1355.045748185041
 31
0.0
  0
LINE
  5
25A4
  8
DIM
 10
2647.8691958550949
 20
1402.049829677361
 30
0.0
 11
2676.4451922067592
 21
1355.045748185041
 31
0.0
  0
LINE
  5
25A5
  8
DIM
 10
2619.2931995034301
 20
1355.045748185041
 30
0.0
 11
2637.0421820570609
 21
1355.045748185041
 31
0.0
  0
LINE
  5
25A6
  8
DIM
 10
2637.0421820570609
 20
1355.045748185041
 30
0.0
 11
2637.0421820570609
 21
1300.0598454774961
 31
0.0
  0
LINE
  5
25A7
  8
DIM
 10
2658.6962096531279
 20
1355.045748185041
 30
0.0
 11
2658.6962096531279
 21
1300.0598454774961
 31
0.0
  0
LINE
  5
25A8
  8
DIM
 10
2637.0421820570609
 20
1300.0598454774961
 30
0.0
 11
2658.6962096531279
 21
1300.0598454774961
 31
0.0
  0
LINE
  5
25A9
  8
DIM
 10
2676.4451922067592
 20
1355.045748185041
 30
0.0
 11
2658.6962096531279
 21
1355.045748185041
 31
0.0
  0
LINE
  5
25AA
  8
DIM
 10
2645.3658261130822
 20
1947.320661090127
 30
0.0
 11
2645.3658261130822
 21
1892.334758382583
 31
0.0
  0
LINE
  5
25AB
  8
DIM
 10
2667.0198537091478
 20
1947.320661090127
 30
0.0
 11
2667.0198537091478
 21
1892.334758382583
 31
0.0
  0
LINE
  5
25AC
  8
DIM
 10
2645.3658261130822
 20
1892.334758382583
 30
0.0
 11
2667.0198537091478
 21
1892.334758382583
 31
0.0
  0
LINE
  5
25AD
  8
DIM
 10
2656.192839911113
 20
1994.3247425824461
 30
0.0
 11
2627.61684355945
 21
1947.320661090127
 31
0.0
  0
LINE
  5
25AE
  8
DIM
 10
2627.61684355945
 20
1947.320661090127
 30
0.0
 11
2645.3658261130822
 21
1947.320661090127
 31
0.0
  0
LINE
  5
25AF
  8
DIM
 10
2684.7688362627791
 20
1947.320661090127
 30
0.0
 11
2667.0198537091478
 21
1947.320661090127
 31
0.0
  0
LINE
  5
25B0
  8
DIM
 10
2656.192839911113
 20
1994.3247425824461
 30
0.0
 11
2684.7688362627791
 21
1947.320661090127
 31
0.0
  0
TEXT
  5
25B1
  8
TEXT
  6
PHANTOM2
 10
3607.9223175593702
 20
1519.687107948492
 30
0.0
 40
30.0
  1
500 min 
 50
90.0
  7
TITLE3
  0
TEXT
  5
25B2
  8
TEXT
  6
PHANTOM2
 10
3659.3508889879431
 20
1498.195575786646
 30
0.0
 40
30.0
  1
CLEARANCE
 50
90.0
  7
TITLE3
  0
TEXT
  5
25B3
  8
TEXT
  6
PHANTOM2
 10
1697.646349777001
 20
1519.687107948492
 30
0.0
 40
30.0
  1
500 min 
 50
90.0
  7
TITLE3
  0
TEXT
  5
25B4
  8
TEXT
  6
PHANTOM2
 10
1749.0749212055739
 20
1498.195575786646
 30
0.0
 40
30.0
  1
CLEARANCE
 50
90.0
  7
TITLE3
  0
ENDSEC
  0
EOF
