  0
SECTION
  2
HEADER
  9
$ACADVER
  1
AC1009
  9
$INSBASE
 10
0.0
 20
0.0
 30
0.0
  9
$EXTMIN
 10
134.0911792524439079
 20
81.219636710357932
 30
0.0
  9
$EXTMAX
 10
3690.8949156554640467
 20
2538.170541809327915
 30
0.0
  9
$LIMMIN
 10
0.0
 20
0.0
  9
$LIMMAX
 10
3890.0
 20
2660.0
  9
$ORTHOMODE
 70
     1
  9
$REGENMODE
 70
     1
  9
$FILLMODE
 70
     1
  9
$QTEXTMODE
 70
     0
  9
$MIRRTEXT
 70
     0
  9
$DRAGMODE
 70
     2
  9
$LTSCALE
 40
60.0
  9
$OSMODE
 70
  4095
  9
$ATTMODE
 70
     1
  9
$TEXTSIZE
 40
30.0
  9
$TRACEWID
 40
0.05
  9
$TEXTSTYLE
  7
TITLE3
  9
$CLAYER
  8
TEXT
  9
$CELTYPE
  6
CONTINUOUS
  9
$CECOLOR
 62
   256
  9
$DIMSCALE
 40
1.0
  9
$DIMASZ
 40
0.12
  9
$DIMEXO
 40
0.05
  9
$DIMDLI
 40
0.5
  9
$DIMRND
 40
0.0
  9
$DIMDLE
 40
0.0
  9
$DIMEXE
 40
0.1
  9
$DIMTP
 40
0.1
  9
$DIMTM
 40
0.1
  9
$DIMTXT
 40
0.12
  9
$DIMCEN
 40
0.0
  9
$DIMTSZ
 40
0.0
  9
$DIMTOL
 70
     0
  9
$DIMLIM
 70
     0
  9
$DIMTIH
 70
     1
  9
$DIMTOH
 70
     1
  9
$DIMSE1
 70
     0
  9
$DIMSE2
 70
     0
  9
$DIMTAD
 70
     0
  9
$DIMZIN
 70
     7
  9
$DIMBLK
  1

  9
$DIMASO
 70
     0
  9
$DIMSHO
 70
     0
  9
$DIMPOST
  1

  9
$DIMAPOST
  1
mm
  9
$DIMALT
 70
     0
  9
$DIMALTD
 70
     2
  9
$DIMALTF
 40
25.3999999999999986
  9
$DIMLFAC
 40
1.0
  9
$DIMTOFL
 70
     0
  9
$DIMTVP
 40
0.0
  9
$DIMTIX
 70
     0
  9
$DIMSOXD
 70
     0
  9
$DIMSAH
 70
     0
  9
$DIMBLK1
  1

  9
$DIMBLK2
  1

  9
$DIMSTYLE
  2
AM_ANSI
  9
$DIMCLRD
 70
   256
  9
$DIMCLRE
 70
   256
  9
$DIMCLRT
 70
     2
  9
$DIMTFAC
 40
0.71
  9
$DIMGAP
 40
0.06
  9
$LUNITS
 70
     2
  9
$LUPREC
 70
     2
  9
$SKETCHINC
 40
0.1
  9
$FILLETRAD
 40
0.0
  9
$AUNITS
 70
     0
  9
$AUPREC
 70
     2
  9
$MENU
  1
CNC
  9
$ELEVATION
 40
0.0
  9
$PELEVATION
 40
0.0
  9
$THICKNESS
 40
0.0
  9
$LIMCHECK
 70
     0
  9
$BLIPMODE
 70
     0
  9
$CHAMFERA
 40
0.0
  9
$CHAMFERB
 40
0.0
  9
$SKPOLY
 70
     0
  9
$TDCREATE
 40
2450694.5501736109144986
  9
$TDUPDATE
 40
2458907.366076388861984
  9
$TDINDWG
 40
2.6638060763999998
  9
$TDUSRTIMER
 40
2.6638025926000002
  9
$USRTIMER
 70
     1
  9
$ANGBASE
 50
0.0
  9
$ANGDIR
 70
     0
  9
$PDMODE
 70
     2
  9
$PDSIZE
 40
10.0
  9
$PLINEWID
 40
0.0
  9
$COORDS
 70
     1
  9
$SPLFRAME
 70
     0
  9
$SPLINETYPE
 70
     6
  9
$SPLINESEGS
 70
     8
  9
$ATTDIA
 70
     1
  9
$ATTREQ
 70
     1
  9
$HANDLING
 70
     1
  9
$HANDSEED
  5
D4CE
  9
$SURFTAB1
 70
     6
  9
$SURFTAB2
 70
     6
  9
$SURFTYPE
 70
     6
  9
$SURFU
 70
     6
  9
$SURFV
 70
     6
  9
$UCSNAME
  2

  9
$UCSORG
 10
0.0
 20
0.0
 30
0.0
  9
$UCSXDIR
 10
1.0
 20
0.0
 30
0.0
  9
$UCSYDIR
 10
0.0
 20
1.0
 30
0.0
  9
$PUCSNAME
  2

  9
$PUCSORG
 10
0.0
 20
0.0
 30
0.0
  9
$PUCSXDIR
 10
1.0
 20
0.0
 30
0.0
  9
$PUCSYDIR
 10
0.0
 20
1.0
 30
0.0
  9
$USERI1
 70
     0
  9
$USERI2
 70
     0
  9
$USERI3
 70
     0
  9
$USERI4
 70
     0
  9
$USERI5
 70
     0
  9
$USERR1
 40
0.0
  9
$USERR2
 40
0.0
  9
$USERR3
 40
0.0
  9
$USERR4
 40
0.0
  9
$USERR5
 40
0.0
  9
$WORLDVIEW
 70
     1
  9
$SHADEDGE
 70
     3
  9
$SHADEDIF
 70
    70
  9
$TILEMODE
 70
     1
  9
$MAXACTVP
 70
    16
  9
$PLIMCHECK
 70
     0
  9
$PEXTMIN
 10
1.0000000000000000E+20
 20
1.0000000000000000E+20
 30
1.0000000000000000E+20
  9
$PEXTMAX
 10
-1.0000000000000000E+20
 20
-1.0000000000000000E+20
 30
-1.0000000000000000E+20
  9
$PLIMMIN
 10
0.0
 20
0.0
  9
$PLIMMAX
 10
12.0
 20
9.0
  9
$UNITMODE
 70
     0
  9
$VISRETAIN
 70
     0
  9
$PLINEGEN
 70
     0
  9
$PSLTSCALE
 70
     0
  0
ENDSEC
  0
SECTION
  2
TABLES
  0
TABLE
  2
VPORT
 70
     1
  0
VPORT
  2
*ACTIVE
 70
     0
 10
0.0
 20
0.0
 11
1.0
 21
1.0
 12
1034.6980240839670842
 22
1189.8851581141789211
 13
0.0
 23
0.0
 14
25.0
 24
25.0
 15
100.0
 25
100.0
 16
0.0
 26
0.0
 36
1.0
 17
0.0
 27
0.0
 37
0.0
 40
3492.8816848261540144
 41
2.296662546353522
 42
50.0
 43
0.0
 44
0.0
 50
0.0
 51
0.0
 71
     0
 72
   100
 73
     1
 74
     0
 75
     0
 76
     0
 77
     0
 78
     0
  0
ENDTAB
  0
TABLE
  2
LTYPE
 70
    16
  0
LTYPE
  2
CONTINUOUS
 70
     0
  3
Solid line
 72
    65
 73
     0
 40
0.0
  0
LTYPE
  2
PHANTOM2
 70
     0
  3
Phantom (.5x) ___ _ _ ___ _ _ ___ _ _ ___ _ _
 72
    65
 73
     6
 40
1.25
 49
0.625
 49
-0.125
 49
0.125
 49
-0.125
 49
0.125
 49
-0.125
  0
LTYPE
  2
HIDDEN
 70
     0
  3
__ __ __ __ __ __ __ __ __ __ __ __ __ __ __ __
 72
    65
 73
     2
 40
0.375
 49
0.25
 49
-0.125
  0
LTYPE
  2
CENTER
 70
     0
  3
Center ____ _ ____ _ ____ _ ____ _ ____ _ ____
 72
    65
 73
     4
 40
2.0
 49
1.25
 49
-0.25
 49
0.25
 49
-0.25
  0
LTYPE
  2
AM_ISO02W050
 70
     0
  3
__ __ __ __ __ __ __ __ __ __ __ __ __ __ __
 72
    65
 73
     2
 40
7.5
 49
6.0
 49
-1.5
  0
LTYPE
  2
AM_ISO08W050
 70
     0
  3
____ . ____ . ____ . ____ . ____ . ____ . ____
 72
    65
 73
     4
 40
18.0
 49
12.0
 49
-1.5
 49
3.0
 49
-1.5
  0
LTYPE
  2
AM_ISO09W050
 70
     0
  3
_____ . . _____ . . _____ . . ____ .. ____
 72
    65
 73
     6
 40
22.5
 49
12.0
 49
-1.5
 49
3.0
 49
-1.5
 49
3.0
 49
-1.5
  0
LTYPE
  2
AMCONSTR
 70
     0
  3
_______________________
 72
    65
 73
     2
 40
9999.0
 49
9999.0
 49
0.0
  0
LTYPE
  2
AM_ISO08W050X2
 70
     0
  3
__ . __ . __ . __ . __ . __
 72
    65
 73
     4
 40
9.0
 49
6.0
 49
-0.75
 49
1.5
 49
-0.75
  0
LTYPE
  2
AM_ISO02W050X2
 70
     0
  3
 _ _ _ _ _ _ _ _ _ _ _ _
 72
    65
 73
     2
 40
3.75
 49
3.0
 49
-0.75
  0
LTYPE
  2
AMZIGZAG
 70
     0
  3
/\/-/\/-/\/-/\/-/\/-/\/
 72
    65
 73
     2
 40
11.0000999999999998
 49
0.0001
 49
-11.0
  0
LTYPE
  2
CENTER2
 70
     0
  3
Center (.5x) ___ _ ___ _ ___ _ ___ _ ___ _ ___
 72
    65
 73
     4
 40
1.125
 49
0.75
 49
-0.125
 49
0.125
 49
-0.125
  0
LTYPE
  2
HIDDEN2
 70
     0
  3
Hidden (.5x) _ _ _ _ _ _ _ _ _ _ _ _ _ _ _ _ _
 72
    65
 73
     2
 40
0.1875
 49
0.125
 49
-0.0625
  0
LTYPE
  2
AMZIGZAG2
 70
     0
  3
/\/-/\/-/\/-/\/-/\/-/\/
 72
    65
 73
     2
 40
0.4401
 49
0.0001
 49
-0.4400000000000003
  0
LTYPE
  2
ACANSTGB
 70
     0
  3
__ . . __ . .
 72
    65
 73
     6
 40
0.35433070866
 49
0.15748031496
 49
-0.03937007874
 49
0.03937007874
 49
-0.03937007874
 49
0.03937007874
 49
-0.03937007874
  0
LTYPE
  2
ACANSTGL
 70
     0
  3
_ _ _ _ _
 72
    65
 73
     2
 40
0.11811023622
 49
0.07874015748
 49
-0.03937007874
  0
ENDTAB
  0
TABLE
  2
LAYER
 70
     5
  0
LAYER
  2
0
 70
     0
 62
     7
  6
CONTINUOUS
  0
LAYER
  2
TEXT
 70
     0
 62
     3
  6
CONTINUOUS
  0
LAYER
  2
DIM
 70
     0
 62
     2
  6
CONTINUOUS
  0
LAYER
  2
OUTLINE
 70
     0
 62
     7
  6
CONTINUOUS
  0
LAYER
  2
OVERLAY-A3
 70
     0
 62
     7
  6
CONTINUOUS
  0
ENDTAB
  0
TABLE
  2
STYLE
 70
     8
  0
STYLE
  2
STANDARD
 70
     0
 40
0.0
 41
1.0
 50
0.0
 71
     0
 42
0.2
  3
txt
  4

  0
STYLE
  2
ANNOTATIVE
 70
     0
 40
0.0
 41
1.0
 50
0.0
 71
     0
 42
0.2
  3
txt
  4

  0
STYLE
  2
TITLE3
 70
     0
 40
30.0
 41
1.0
 50
0.0
 71
     0
 42
30.0
  3
SIMPLEX
  4

  0
STYLE
  2
SIMPLEX
 70
     0
 40
40.0
 41
1.0
 50
0.0
 71
     0
 42
25.0
  3
SIMPLEX
  4

  0
STYLE
  2
TITLE5
 70
     0
 40
50.0
 41
1.0
 50
0.0
 71
     0
 42
50.0
  3
SIMPLEX.shx
  4

  0
STYLE
  2

 70
     1
 40
0.0
 41
1.0
 50
0.0
 71
     0
 42
30.0
  3
genltshp.shx
  4

  0
STYLE
  2
ACANSTS
 70
     0
 40
1.0
 41
1.0
 50
0.0
 71
     0
 42
30.0
  3
romans.shx
  4

  0
STYLE
  2
ACANSGDT
 70
     0
 40
0.0
 41
1.0
 50
0.0
 71
     0
 42
30.0
  3
amgdt.shx
  4

  0
ENDTAB
  0
TABLE
  2
VIEW
 70
     0
  0
ENDTAB
  0
TABLE
  2
UCS
 70
     0
  0
ENDTAB
  0
TABLE
  2
APPID
 70
    20
  0
APPID
  2
ACAD
 70
     0
  0
APPID
  2
ACADANNOTATIVE
 70
     0
  0
APPID
  2
ACAD_MLEADERVER
 70
     0
  0
APPID
  2
ACAD_PSEXT
 70
     0
  0
APPID
  2
ACAD_DSTYLE_DIMJAG
 70
     0
  0
APPID
  2
ACAD_DSTYLE_DIMBREAK
 70
     0
  0
APPID
  2
ACAD_DSTYLE_DIMTALN
 70
     0
  0
APPID
  2
ACADANNOPO
 70
     0
  0
APPID
  2
ACAD_EXEMPT_FROM_CAD_STANDARDS
 70
     0
  0
APPID
  2
ACAD_DSTYLE_DIMRADIAL_EXTENSION
 70
     0
  0
APPID
  2
ACAECLAYERSTANDARD
 70
     0
  0
APPID
  2
MCAD_NO_VIS
 70
     0
  0
APPID
  2
ACAD_TEMP_GRAPHIC
 70
     0
  0
APPID
  2
AD_DRAW
 70
     0
  0
APPID
  2
ACATTRIBSERVICES
 70
     0
  0
APPID
  2
DESIGNERASSEMBLIES
 70
     0
  0
APPID
  2
ACADM_DIM_EDIT
 70
     0
  0
APPID
  2
AMDT_DM_ADJ
 70
     0
  0
APPID
  2
CONTENTBLOCKICON
 70
     0
  0
APPID
  2
ACAD_NAV_VCDISPLAY
 70
     0
  0
ENDTAB
  0
TABLE
  2
DIMSTYLE
 70
     9
  0
DIMSTYLE
  2
STANDARD
 70
     0
  3

  4

  5

  6

  7

 40
1.0
 41
0.18
 42
0.0625
 43
0.38
 44
0.18
 45
0.0
 46
0.0
 47
0.0
 48
0.0
140
0.18
141
0.09
142
0.0
143
25.3999999999999986
144
1.0
145
0.0
146
1.0
147
0.09
 71
     0
 72
     0
 73
     1
 74
     1
 75
     0
 76
     0
 77
     0
 78
     0
170
     0
171
     2
172
     0
173
     0
174
     0
175
     0
176
     0
177
     0
178
     0
  0
DIMSTYLE
  2
ANNOTATIVE
 70
     0
  3

  4

  5

  6

  7

 40
1.0
 41
0.18
 42
0.0625
 43
0.38
 44
0.18
 45
0.0
 46
0.0
 47
0.0
 48
0.0
140
0.18
141
0.09
142
0.0
143
25.3999999999999986
144
1.0
145
0.0
146
1.0
147
0.09
 71
     0
 72
     0
 73
     1
 74
     1
 75
     0
 76
     0
 77
     0
 78
     0
170
     0
171
     2
172
     0
173
     0
174
     0
175
     0
176
     0
177
     0
178
     0
  0
DIMSTYLE
  2
COPY_OF_COPY_OF_STANDARD
 70
     0
  3

  4

  5

  6

  7

 40
1.0
 41
30.0
 42
10.0
 43
0.38
 44
0.18
 45
0.0
 46
0.0
 47
0.0
 48
0.0
140
30.0
141
0.09
142
0.0
143
25.3999999999999986
144
1.0
145
0.0
146
1.0
147
5.0
 71
     0
 72
     0
 73
     0
 74
     0
 75
     0
 76
     0
 77
     0
 78
     0
170
     0
171
     2
172
     0
173
     0
174
     0
175
     0
176
     0
177
     0
178
     0
  0
DIMSTYLE
  2
AM_ANSI
 70
     0
  3

  4
mm
  5

  6

  7

 40
1.0
 41
0.12
 42
0.05
 43
0.5
 44
0.1
 45
0.0
 46
0.0
 47
0.1
 48
0.1
140
0.12
141
0.0
142
0.0
143
25.3999999999999986
144
1.0
145
0.0
146
0.71
147
0.06
 71
     0
 72
     0
 73
     1
 74
     1
 75
     0
 76
     0
 77
     0
 78
     7
170
     0
171
     2
172
     0
173
     0
174
     0
175
     0
176
   256
177
   256
178
     2
  0
DIMSTYLE
  2
AM_ANSI$3
 70
     0
  3

  4
mm
  5

  6

  7

 40
1.0
 41
0.12
 42
0.05
 43
0.5
 44
0.1
 45
0.0
 46
0.0
 47
0.1
 48
0.1
140
0.12
141
0.0
142
0.0
143
25.3999999999999986
144
1.0
145
0.0
146
0.71
147
0.06
 71
     0
 72
     0
 73
     1
 74
     1
 75
     0
 76
     0
 77
     0
 78
     7
170
     0
171
     2
172
     0
173
     0
174
     0
175
     0
176
   256
177
   256
178
     2
  0
DIMSTYLE
  2
AM_ANSI$4
 70
     0
  3

  4
mm
  5

  6

  7

 40
1.0
 41
0.12
 42
0.05
 43
0.5
 44
0.1
 45
0.0
 46
0.0
 47
0.1
 48
0.1
140
0.12
141
0.0
142
0.0
143
25.3999999999999986
144
1.0
145
0.0
146
0.71
147
0.06
 71
     0
 72
     0
 73
     1
 74
     1
 75
     0
 76
     0
 77
     0
 78
     7
170
     0
171
     2
172
     0
173
     0
174
     0
175
     0
176
   256
177
   256
178
     2
  0
DIMSTYLE
  2
AM_ANSI$7
 70
     0
  3

  4
mm
  5

  6

  7

 40
1.0
 41
0.12
 42
0.05
 43
0.5
 44
0.1
 45
0.0
 46
0.0
 47
0.1
 48
0.1
140
0.12
141
0.0
142
0.0
143
25.3999999999999986
144
1.0
145
0.0
146
0.71
147
0.06
 71
     0
 72
     0
 73
     1
 74
     1
 75
     0
 76
     0
 77
     0
 78
     7
170
     0
171
     2
172
     0
173
     0
174
     0
175
     0
176
   256
177
   256
178
     2
  0
DIMSTYLE
  2
AM_ANSI$SF
 70
     0
  3

  4
mm
  5

  6

  7

 40
1.0
 41
0.12
 42
0.05
 43
0.5
 44
0.1
 45
0.0
 46
0.0
 47
0.1
 48
0.1
140
0.12
141
0.0
142
0.0
143
25.3999999999999986
144
1.0
145
0.0
146
0.71
147
0.06
 71
     0
 72
     0
 73
     1
 74
     1
 75
     1
 76
     1
 77
     0
 78
     7
170
     0
171
     2
172
     0
173
     0
174
     0
175
     0
176
   256
177
   256
178
     2
  0
DIMSTYLE
  2
AM_ANSI$SH
 70
     0
  3

  4
mm
  5

  6

  7

 40
1.0
 41
0.12
 42
0.05
 43
0.5
 44
0.1
 45
0.0
 46
0.0
 47
0.1
 48
0.1
140
0.12
141
0.0
142
0.0
143
25.3999999999999986
144
1.0
145
0.0
146
0.71
147
0.06
 71
     0
 72
     0
 73
     1
 74
     1
 75
     1
 76
     1
 77
     0
 78
     7
170
     0
171
     2
172
     0
173
     1
174
     0
175
     0
176
   256
177
   256
178
     2
  0
ENDTAB
  0
ENDSEC
  0
SECTION
  2
BLOCKS
  0
BLOCK
  8
0
  2
$MODEL_SPACE
 70
     0
 10
0.0
 20
0.0
 30
0.0
  3
$MODEL_SPACE
  1

  0
ENDBLK
  5
D3AB
  8
0
  0
BLOCK
 67
     1
  8
0
  2
$PAPER_SPACE
 70
     0
 10
0.0
 20
0.0
 30
0.0
  3
$PAPER_SPACE
  1

  0
ENDBLK
  5
D3A7
 67
     1
  8
0
  0
BLOCK
  8
0
  2
NEW_BLOCK
 70
     0
 10
0.0
 20
0.0
 30
0.0
  3
NEW_BLOCK
  1

  0
TEXT
  5
7FFE
  8
TEXT
 10
27.2859468218030017
 20
25.2714217595241699
 30
0.0
 40
40.0
  1
available on request
  7
TITLE3
  0
TEXT
  5
7FFF
  8
TEXT
 10
27.2859468218030017
 20
93.8428503309527144
 30
0.0
 40
40.0
  1
Certified dimensions
  7
TITLE3
  0
TEXT
  5
8000
  8
TEXT
 10
27.2859468218030017
 20
162.4142789023811986
 30
0.0
 40
40.0
  1
without notice or obligation.
  7
TITLE3
  0
TEXT
  5
8001
  8
TEXT
 10
27.2859468218030017
 20
230.9857074738096969
 30
0.0
 40
40.0
  1
specifications at any time
  7
TITLE3
  0
TEXT
  5
8002
  8
TEXT
 10
27.2859468218030017
 20
299.5571360452383942
 30
0.0
 40
40.0
  1
the right to change 
  7
TITLE3
  0
TEXT
  5
8003
  8
TEXT
 10
27.2859468218030017
 20
436.6999931880948793
 30
0.0
 40
40.0
  1
NOTE
  7
TITLE3
  0
TEXT
  5
8004
  8
TEXT
 10
27.2859468218030017
 20
368.1285646166667789
 30
0.0
 40
40.0
  1
The manufacturer reserves
  7
TITLE3
  0
ENDBLK
  5
8005
  8
0
  0
BLOCK
  8
0
  2
A$C70722A8B
 70
     0
 10
0.0
 20
0.0
 30
0.0
  3
A$C70722A8B
  1

  0
TEXT
  5
8C35
  8
OVERLAY-A3
 10
-1013.9894139153700507
 20
-226.511419594267295
 30
0.0
 40
24.0
  1
Date
  7
SIMPLEX
  0
TEXT
  5
8C36
  8
OVERLAY-A3
 10
-115.1667656858907947
 20
-207.839331430957003
 30
0.0
 40
24.0
  1
Revision
 41
0.7812095035934737
  7
SIMPLEX
 72
     5
 11
-9.8150840584280576
 21
-207.839331430957003
 31
0.0
  0
LINE
  5
8C37
  8
OVERLAY-A3
 10
-126.786608069330498
 20
-316.5001406060512181
 30
0.0
 11
-126.786608069330498
 21
-169.0739777458217077
 31
0.0
  0
LINE
  5
8C38
  8
OVERLAY-A3
 10
-1041.9264286023430941
 20
0.0
 30
0.0
 11
-1041.9264286023430941
 21
-316.5001406060512181
 31
0.0
  0
LINE
  5
8C39
  8
OVERLAY-A3
 10
-444.364280046398278
 20
-316.5001406060512181
 30
0.0
 11
-444.364280046398278
 21
-169.0739777458217077
 31
0.0
  0
LINE
  5
8C3A
  8
OVERLAY-A3
 10
-444.364280046398278
 20
-244.0300341849043946
 30
0.0
 11
-1041.9264286023430941
 21
-244.0300341849043946
 31
0.0
  0
LINE
  5
8C3B
  8
OVERLAY-A3
 10
0.2975071783494059
 20
-169.0739777458217077
 30
0.0
 11
-1041.9264286023430941
 21
-169.0739777458217077
 31
0.0
  0
LINE
  5
8C3C
  8
OVERLAY-A3
 10
-1041.9264286023430941
 20
-316.5001406060512181
 30
0.0
 11
0.0
 21
-316.5001406060512181
 31
0.0
  0
LINE
  5
8C3D
  8
OVERLAY-A3
 10
0.0
 20
0.0
 30
0.0
 11
-1041.9264286023430941
 21
0.0
 31
0.0
  0
TEXT
  5
8C3E
  8
OVERLAY-A3
 10
-1016.7947389563820479
 20
-289.4201453890104858
 30
0.0
 40
20.0
  1
Scale
 41
1.370174796565963
  7
SIMPLEX
 72
     5
 11
-916.3152538748779534
 21
-289.4201453890104858
 31
0.0
  0
TEXT
  5
8C3F
  8
OVERLAY-A3
 10
-386.4188344586942776
 20
-208.4492019476583948
 30
0.0
 40
20.0
  1
Drawing No.
  7
SIMPLEX
 72
     2
 11
-212.13312017298
 21
-208.4492019476583948
 31
0.0
  0
LINE
  5
8C40
  8
OVERLAY-A3
  6
CONTINUOUS
 10
0.0
 20
0.0
 30
0.0
 11
0.0
 21
-316.5001406060512181
 31
0.0
  0
ENDBLK
  5
8C42
  8
0
  0
BLOCK
  8
0
  2
*U4
 70
     1
 10
0.0
 20
0.0
 30
0.0
  3
*U4
  1

  0
TEXT
  5
CBD8
  8
OUTLINE
  6
CONTINUOUS
 62
    50
 10
2138.5757614107410518
 20
1247.6035179975149276
 30
0.0
 40
30.0
  1
975
  7
TITLE3
  0
ENDBLK
  5
CBDA
  8
0
  0
BLOCK
  8
0
  2
*U5
 70
     1
 10
0.0
 20
0.0
 30
0.0
  3
*U5
  1

  0
TEXT
  5
CBDC
  8
OUTLINE
  6
CONTINUOUS
 62
    50
 10
1524.5289111365509598
 20
1469.7766066125539055
 30
0.0
 40
30.0
  1
119
 50
90.0
  7
TITLE3
  0
ENDBLK
  5
CBDE
  8
0
  0
BLOCK
  8
0
  2
*U6
 70
     1
 10
0.0
 20
0.0
 30
0.0
  3
*U6
  1

  0
TEXT
  5
CBE0
  8
OUTLINE
  6
CONTINUOUS
 62
    50
 10
3639.3774101144590531
 20
1829.7754331293410814
 30
0.0
 40
30.0
  1
613
 50
90.0
  7
TITLE3
  0
ENDBLK
  5
CBE2
  8
0
  0
BLOCK
  8
0
  2
*U7
 70
     1
 10
0.0
 20
0.0
 30
0.0
  3
*U7
  1

  0
TEXT
  5
CBE4
  8
OUTLINE
  6
CONTINUOUS
 62
    50
 10
4448.5423070659880977
 20
845.6214873616819432
 30
0.0
 40
30.0
  1
673
  7
TITLE3
  0
ENDBLK
  5
CBE6
  8
0
  0
BLOCK
  8
0
  2
*U8
 70
     1
 10
0.0
 20
0.0
 30
0.0
  3
*U8
  1

  0
TEXT
  5
CBE8
  8
OUTLINE
  6
CONTINUOUS
 62
    50
 10
3954.0259315589792095
 20
391.941145930942298
 30
0.0
 40
30.0
  1
300
 50
90.0
  7
TITLE3
  0
ENDBLK
  5
CBEA
  8
0
  0
BLOCK
  8
0
  2
*U9
 70
     1
 10
0.0
 20
0.0
 30
0.0
  3
*U9
  1

  0
TEXT
  5
CBEC
  8
OUTLINE
  6
CONTINUOUS
 62
    50
 10
3877.7408987293160862
 20
364.6840030738208043
 30
0.0
 40
30.0
  1
614
 50
90.0
  7
TITLE3
  0
ENDBLK
  5
CBEE
  8
0
  0
BLOCK
  8
0
  2
*U10
 70
     1
 10
0.0
 20
0.0
 30
0.0
  3
*U10
  1

  0
TEXT
  5
CBF0
  8
OUTLINE
  6
CONTINUOUS
 62
    50
 10
1446.2172168791819331
 20
343.7813027666999801
 30
0.0
 40
30.0
  1
655
 50
90.0
  7
TITLE3
  0
ENDBLK
  5
CBF2
  8
0
  0
BLOCK
  8
0
  2
*U11
 70
     1
 10
0.0
 20
0.0
 30
0.0
  3
*U11
  1

  0
TEXT
  5
CBF4
  8
OUTLINE
  6
CONTINUOUS
 62
    50
 10
3201.8388785244860628
 20
829.8071076599371736
 30
0.0
 40
30.0
  1
410
  7
TITLE3
  0
ENDBLK
  5
CBF6
  8
0
  0
BLOCK
  8
0
  2
*U12
 70
     1
 10
0.0
 20
0.0
 30
0.0
  3
*U12
  1

  0
TEXT
  5
CBF8
  8
OUTLINE
  6
CONTINUOUS
 62
    50
 10
3595.6749807072928888
 20
354.2731662879065198
 30
0.0
 40
30.0
  1
635
 50
90.0
  7
TITLE3
  0
ENDBLK
  5
CBFA
  8
0
  0
BLOCK
  8
0
  2
*U13
 70
     1
 10
0.0
 20
0.0
 30
0.0
  3
*U13
  1

  0
TEXT
  5
CBFC
  8
OUTLINE
  6
CONTINUOUS
 62
    50
 10
1591.7858913961949838
 20
1247.6035179975149276
 30
0.0
 40
30.0
  1
123
  7
TITLE3
  0
ENDBLK
  5
CBFE
  8
0
  0
BLOCK
  8
0
  2
*U14
 70
     1
 10
0.0
 20
0.0
 30
0.0
  3
*U14
  1

  0
TEXT
  5
CC00
  8
OUTLINE
  6
CONTINUOUS
 62
    50
 10
2118.7402490842559928
 20
976.4125562913643535
 30
0.0
 40
30.0
  1
1405 MTG CENTERS
  7
TITLE3
  0
TEXT
  5
CC01
  8
OUTLINE
  6
CONTINUOUS
 62
    50
 10
2136.5973919413982003
 20
923.555413434222146
 30
0.0
 40
30.0
  1
(SOLID & SPRING)
  7
TITLE3
  0
ENDBLK
  5
CC03
  8
0
  0
BLOCK
  8
0
  2
*U15
 70
     1
 10
0.0
 20
0.0
 30
0.0
  3
*U15
  1

  0
TEXT
  5
CC05
  8
OUTLINE
  6
CONTINUOUS
 62
    50
 10
3053.8960213816249052
 20
1008.5554134342220323
 30
0.0
 40
30.0
  1
357 MTG CTRS
  7
TITLE3
  0
ENDBLK
  5
CC07
  8
0
  0
BLOCK
  8
0
  2
*U16
 70
     1
 10
0.0
 20
0.0
 30
0.0
  3
*U16
  1

  0
TEXT
  5
CC09
  8
OUTLINE
  6
CONTINUOUS
 62
    50
 10
2118.8603576270670601
 20
2502.925141218609042
 30
0.0
 40
30.0
  1
1483 MTG CENTRES
  7
TITLE3
  0
ENDBLK
  5
CC0B
  8
0
  0
BLOCK
  8
0
  2
*U17
 70
     1
 10
0.0
 20
0.0
 30
0.0
  3
*U17
  1

  0
TEXT
  5
CC0D
  8
OUTLINE
  6
CONTINUOUS
 62
    50
 10
3075.6859295383819699
 20
2551.4740602129008948
 30
0.0
 40
30.0
  1
319 MTG CTRS
  7
TITLE3
  0
ENDBLK
  5
CC0F
  8
0
  0
BLOCK
  8
0
  2
*U18
 70
     1
 10
0.0
 20
0.0
 30
0.0
  3
*U18
  1

  0
TEXT
  5
CC21
  8
DIM
  6
CONTINUOUS
 10
4200.1595768149882133
 20
2245.4473467577058727
 30
0.0
 40
21.5654400000017183
  1
PUSH TUBE INTO RUBBER CONNECTOR
  7
TITLE3
  0
TEXT
  5
CC22
  8
DIM
  6
CONTINUOUS
 10
4200.1595768149882133
 20
2209.5049467577018731
 30
0.0
 40
21.5654400000017183
  1
UNTIL FLUSH WITH END
  7
TITLE3
  0
ENDBLK
  5
CC24
  8
0
  0
BLOCK
  8
0
  2
*U19
 70
     1
 10
0.0
 20
0.0
 30
0.0
  3
*U19
  1

  0
TEXT
  5
CC26
  8
DIM
  6
CONTINUOUS
 62
    50
 10
828.3075702456308136
 20
118.5918527965772995
 30
0.0
 40
30.0
  1
FIT PLASTIC BUNG
  7
TITLE3
  0
ENDBLK
  5
CC28
  8
0
  0
BLOCK
  8
0
  2
*U20
 70
     1
 10
0.0
 20
0.0
 30
0.0
  3
*U20
  1

  0
SOLID
  5
CC2A
  8
OUTLINE
 62
    52
 10
499.0509919793224753
 20
356.927462904163292
 30
0.0
 11
478.899991811011887
 21
379.7076558843984913
 31
0.0
 12
505.3499194232734908
 22
364.6942842009253809
 32
0.0
 13
505.3499194232734908
 23
364.6942842009253809
 33
0.0
  0
POLYLINE
  5
CC2B
  8
OUTLINE
 62
    52
 66
     1
 10
0.0
 20
0.0
 30
0.0
  0
VERTEX
  5
D482
  8
OUTLINE
 62
    52
 10
502.2004557012983241
 20
360.8108735525444217
 30
0.0
  0
VERTEX
  5
D483
  8
OUTLINE
 62
    52
 10
783.8929545245663348
 20
132.3569741004156981
 30
0.0
  0
VERTEX
  5
D484
  8
OUTLINE
 62
    52
 10
807.9641165979301149
 20
132.3569741004156981
 30
0.0
  0
SEQEND
  5
D485
  8
OUTLINE
 62
    52
  0
ENDBLK
  5
CC31
  8
0
  0
BLOCK
  8
0
  2
*U21
 70
     1
 10
0.0
 20
0.0
 30
0.0
  3
*U21
  1

  0
TEXT
  5
CC33
  8
TEXT
  6
CONTINUOUS
 62
    52
 10
410.3285632395832749
 20
791.319986212596632
 30
0.0
 40
30.0
  1
707
  7
TITLE3
  0
ENDBLK
  5
CC35
  8
0
  0
BLOCK
  8
0
  2
*U22
 70
     1
 10
0.0
 20
0.0
 30
0.0
  3
*U22
  1

  0
TEXT
  5
CC37
  8
TEXT
  6
CONTINUOUS
 62
    52
 10
337.4714203824407832
 20
751.8590732005377504
 30
0.0
 40
30.0
  1
MTG CTRS
  7
TITLE3
  0
ENDBLK
  5
CC39
  8
0
  0
BLOCK
  8
0
  2
*U23
 70
     1
 10
0.0
 20
0.0
 30
0.0
  3
*U23
  1

  0
TEXT
  5
CC3B
  8
OUTLINE
  6
CONTINUOUS
 62
    50
 10
4432.2354146871475677
 20
592.6268602166769597
 30
0.0
 40
30.0
  1
90
 50
90.0
  7
TITLE3
  0
ENDBLK
  5
CC3D
  8
0
  0
BLOCK
  8
0
  2
*U24
 70
     1
 10
0.0
 20
0.0
 30
0.0
  3
*U24
  1

  0
TEXT
  5
CC3F
  8
OUTLINE
  6
CONTINUOUS
 62
    50
 10
4529.3217461500125864
 20
738.965236316821688
 30
0.0
 40
30.0
  1
45
 50
90.0
  7
TITLE3
  0
ENDBLK
  5
CC41
  8
0
  0
BLOCK
  8
0
  2
*U25
 70
     1
 10
0.0
 20
0.0
 30
0.0
  3
*U25
  1

  0
TEXT
  5
CC43
  8
OUTLINE
  6
CONTINUOUS
 62
    50
 10
3954.025931558980119
 20
607.9982887880952376
 30
0.0
 40
30.0
  1
127
 50
90.0
  7
TITLE3
  0
ENDBLK
  5
CC45
  8
0
  0
BLOCK
  8
0
  2
*U26
 70
     1
 10
0.0
 20
0.0
 30
0.0
  3
*U26
  1

  0
SOLID
  5
CC47
  8
OUTLINE
 10
4895.2723305961289952
 20
102.6836211067110014
 30
0.0
 11
4884.2137356374159936
 21
131.0157138204367016
 31
0.0
 12
4903.8633555325432098
 22
107.8016569156839068
 32
0.0
 13
4903.8633555325432098
 23
107.8016569156839068
 33
0.0
  0
POLYLINE
  5
CC48
  8
OUTLINE
 66
     1
 10
0.0
 20
0.0
 30
0.0
  0
VERTEX
  5
D486
  8
OUTLINE
 10
4899.5678430643347383
 20
105.2426390111973973
 30
0.0
  0
VERTEX
  5
D487
  8
OUTLINE
 10
4962.2653210346916239
 20
-0.0000003132918209
 30
0.0
  0
VERTEX
  5
D488
  8
OUTLINE
 10
5007.3842996721996315
 20
-0.0000003132918209
 30
0.0
  0
SEQEND
  5
D489
  8
OUTLINE
  0
ENDBLK
  5
CC4E
  8
0
  0
BLOCK
  8
0
  2
*U27
 70
     1
 10
0.0
 20
0.0
 30
0.0
  3
*U27
  1

  0
TEXT
  5
CC50
  8
OUTLINE
  6
CONTINUOUS
 62
    50
 10
5027.3842996722032694
 20
9.9999996867081755
 30
0.0
 40
30.0
  1
OPTIONAL
  7
TITLE3
  0
TEXT
  5
CC51
  8
OUTLINE
  6
CONTINUOUS
 62
    50
 10
5027.3842996722032694
 20
-40.0000003132918067
 30
0.0
 40
30.0
  1
FILTER
  7
TITLE3
  0
ENDBLK
  5
CC53
  8
0
  0
BLOCK
  8
0
  2
*U28
 70
     1
 10
0.0
 20
0.0
 30
0.0
  3
*U28
  1

  0
TEXT
  5
CC55
  8
OUTLINE
  6
CONTINUOUS
 62
    50
 10
399.4428489538697136
 20
878.8492178320339008
 30
0.0
 40
30.0
  1
876
  7
TITLE3
  0
ENDBLK
  5
CC57
  8
0
  0
BLOCK
  8
0
  2
*U29
 70
     1
 10
0.0
 20
0.0
 30
0.0
  3
*U29
  1

  0
TEXT
  5
CC59
  8
OUTLINE
  6
CONTINUOUS
 62
    50
 10
5046.7851543081569616
 20
635.7784298757006809
 30
0.0
 40
30.0
  1
92
 50
90.0
  7
TITLE3
  0
ENDBLK
  5
CC5B
  8
0
  0
BLOCK
  8
0
  2
*U30
 70
     1
 10
0.0
 20
0.0
 30
0.0
  3
*U30
  1

  0
TEXT
  5
CC5D
  8
OUTLINE
  6
CONTINUOUS
 62
    50
 10
5046.7851543081569616
 20
327.1442852490096129
 30
0.0
 40
30.0
  1
500
 50
90.0
  7
TITLE3
  0
ENDBLK
  5
CC5F
  8
0
  0
BLOCK
  8
0
  2
*U31
 70
     1
 10
0.0
 20
0.0
 30
0.0
  3
*U31
  1

  0
TEXT
  5
CC61
  8
OUTLINE
  6
CONTINUOUS
 62
    50
 10
1417.8599725826341
 20
2401.0281010326129945
 30
0.0
 40
30.0
  1
86
  7
TITLE3
  0
ENDBLK
  5
CC63
  8
0
  0
BLOCK
  8
0
  2
*U32
 70
     1
 10
0.0
 20
0.0
 30
0.0
  3
*U32
  1

  0
TEXT
  5
CC65
  8
OUTLINE
  6
CONTINUOUS
 62
    50
 10
2287.9231642387921966
 20
2397.4992385494479095
 30
0.0
 40
30.0
  1
1432
  7
TITLE3
  0
ENDBLK
  5
CC67
  8
0
  0
BLOCK
  8
0
  2
*U33
 70
     1
 10
0.0
 20
0.0
 30
0.0
  3
*U33
  1

  0
SOLID
  5
CC69
  8
TEXT
 10
3508.7007761924728584
 20
1929.861547704809027
 30
0.0
 11
3495.843115735225183
 21
1902.2992443256268871
 31
0.0
 12
3499.0666420988341088
 22
1932.5417455082849756
 32
0.0
 13
3499.0666420988341088
 23
1932.5417455082849756
 33
0.0
  0
POLYLINE
  5
CC6A
  8
TEXT
 66
     1
 10
0.0
 20
0.0
 30
0.0
  0
VERTEX
  5
D48A
  8
TEXT
 10
3503.8837091456530288
 20
1931.2016466065470013
 30
0.0
  0
VERTEX
  5
D48B
  8
TEXT
 10
3607.9566472712690484
 20
2305.298155498847791
 30
0.0
  0
VERTEX
  5
D48C
  8
TEXT
 10
3635.6722494097971321
 20
2305.298155498847791
 30
0.0
  0
SEQEND
  5
D48D
  8
TEXT
  0
ENDBLK
  5
CC70
  8
0
  0
BLOCK
  8
0
  2
*U34
 70
     1
 10
0.0
 20
0.0
 30
0.0
  3
*U34
  1

  0
TEXT
  5
CC72
  8
TEXT
  6
CONTINUOUS
 62
    50
 10
3655.6722494097962226
 20
2290.2981554988468815
 30
0.0
 40
30.0
  1
1 
  7
TITLE3
  0
TEXT
  5
CC73
  8
TEXT
  6
CONTINUOUS
 62
    50
 10
3710.6722494097971321
 20
2308.7981554988468815
 30
0.0
 40
21.0
  1
1
  7
TITLE3
  0
LINE
  5
CC74
  8
TEXT
  6
CONTINUOUS
 62
    50
 10
3705.6722494097971321
 20
2305.298155498847791
 30
0.0
 11
3720.6722494097971321
 21
2305.298155498847791
 31
0.0
  0
TEXT
  5
CC75
  8
TEXT
  6
CONTINUOUS
 62
    50
 10
3705.6722494097971321
 20
2280.7981554988468815
 30
0.0
 40
21.0
  1
4
  7
TITLE3
  0
TEXT
  5
CC76
  8
TEXT
  6
CONTINUOUS
 62
    50
 10
3726.6722494097971321
 20
2290.2981554988468815
 30
0.0
 40
30.0
  1
" BSP NIPPLE
  7
TITLE3
  0
ENDBLK
  5
CC78
  8
0
  0
BLOCK
  8
0
  2
*U35
 70
     1
 10
0.0
 20
0.0
 30
0.0
  3
*U35
  1

  0
TEXT
  5
CC7A
  8
OUTLINE
  6
CONTINUOUS
 62
    50
 10
4280.7423070659870064
 20
785.9946847143054356
 30
0.0
 40
30.0
  1
335
  7
TITLE3
  0
ENDBLK
  5
CC7C
  8
0
  0
BLOCK
  8
0
  2
*U36
 70
     1
 10
0.0
 20
0.0
 30
0.0
  3
*U36
  1

  0
TEXT
  5
CC7E
  8
OUTLINE
  6
CONTINUOUS
 62
    50
 10
886.2324628415161669
 20
1326.3193597332428908
 30
0.0
 40
30.0
  1
975
  7
TITLE3
  0
ENDBLK
  5
CC80
  8
0
  0
BLOCK
  8
0
  2
*U37
 70
     1
 10
0.0
 20
0.0
 30
0.0
  3
*U37
  1

  0
TEXT
  5
CC82
  8
OUTLINE
  6
CONTINUOUS
 62
    50
 10
2540.3952125744758632
 20
815.5733021553475055
 30
0.0
 40
30.0
  1
300
 50
90.0
  7
TITLE3
  0
ENDBLK
  5
CC84
  8
0
  0
BLOCK
  8
0
  2
*U38
 70
     1
 10
0.0
 20
0.0
 30
0.0
  3
*U38
  1

  0
TEXT
  5
CC86
  8
OUTLINE
  6
CONTINUOUS
 62
    50
 10
2464.1101797448131947
 20
788.3161592982261254
 30
0.0
 40
30.0
  1
614
 50
90.0
  7
TITLE3
  0
ENDBLK
  5
CC88
  8
0
  0
BLOCK
  8
0
  2
*U39
 70
     1
 10
0.0
 20
0.0
 30
0.0
  3
*U39
  1

  0
TEXT
  5
CC8A
  8
OUTLINE
  6
CONTINUOUS
 62
    50
 10
215.9230567193799004
 20
767.4183776091049367
 30
0.0
 40
30.0
  1
655
 50
90.0
  7
TITLE3
  0
ENDBLK
  5
CC8C
  8
0
  0
BLOCK
  8
0
  2
*U40
 70
     1
 10
0.0
 20
0.0
 30
0.0
  3
*U40
  1

  0
TEXT
  5
CC8E
  8
OUTLINE
  6
CONTINUOUS
 62
    50
 10
2310.2579745239349904
 20
777.9102411303114195
 30
0.0
 40
30.0
  1
635
 50
90.0
  7
TITLE3
  0
ENDBLK
  5
CC90
  8
0
  0
BLOCK
  8
0
  2
*U41
 70
     1
 10
0.0
 20
0.0
 30
0.0
  3
*U41
  1

  0
TEXT
  5
CC92
  8
OUTLINE
  6
CONTINUOUS
 62
    50
 10
339.4425928269707242
 20
1326.3193597332428908
 30
0.0
 40
30.0
  1
123
  7
TITLE3
  0
ENDBLK
  5
CC94
  8
0
  0
BLOCK
  8
0
  2
*U42
 70
     1
 10
0.0
 20
0.0
 30
0.0
  3
*U42
  1

  0
TEXT
  5
CC96
  8
OUTLINE
  6
CONTINUOUS
 62
    50
 10
859.2540933721734291
 20
366.0845451368638805
 30
0.0
 40
30.0
  1
1405 MTG. CENTERS
  7
TITLE3
  0
TEXT
  5
CC97
  8
OUTLINE
  6
CONTINUOUS
 62
    50
 10
884.2540933721734291
 20
313.2274022797211046
 30
0.0
 40
30.0
  1
(SOLID & SPRING)
  7
TITLE3
  0
ENDBLK
  5
CC99
  8
0
  0
BLOCK
  8
0
  2
*U43
 70
     1
 10
0.0
 20
0.0
 30
0.0
  3
*U43
  1

  0
TEXT
  5
CC9B
  8
OUTLINE
  6
CONTINUOUS
 62
    50
 10
1866.5527228123999066
 20
360.7917575534539765
 30
0.0
 40
30.0
  1
357 MTG.
  7
TITLE3
  0
TEXT
  5
CC9C
  8
OUTLINE
  6
CONTINUOUS
 62
    50
 10
1910.8384370981150369
 20
310.7917575534539765
 30
0.0
 40
30.0
  1
CTRS.
  7
TITLE3
  0
ENDBLK
  5
CC9E
  8
0
  0
BLOCK
  8
0
  2
*U44
 70
     1
 10
0.0
 20
0.0
 30
0.0
  3
*U44
  1

  0
TEXT
  5
CCA0
  8
OUTLINE
  6
CONTINUOUS
 62
    50
 10
859.374201914984269
 20
2425.8419110951590483
 30
0.0
 40
30.0
  1
1483 MTG. CENTRES
  7
TITLE3
  0
ENDBLK
  5
CCA2
  8
0
  0
BLOCK
  8
0
  2
*U45
 70
     1
 10
0.0
 20
0.0
 30
0.0
  3
*U45
  1

  0
TEXT
  5
CCA4
  8
OUTLINE
  6
CONTINUOUS
 62
    50
 10
1898.0793025148789184
 20
2451.1507126678529858
 30
0.0
 40
30.0
  1
319 MTG
  7
TITLE3
  0
TEXT
  5
CCA5
  8
OUTLINE
  6
CONTINUOUS
 62
    50
 10
1939.5078739434500221
 20
2401.1507126678529858
 30
0.0
 40
30.0
  1
CTRS
  7
TITLE3
  0
ENDBLK
  5
CCA7
  8
0
  0
BLOCK
  8
0
  2
*U46
 70
     1
 10
0.0
 20
0.0
 30
0.0
  3
*U46
  1

  0
TEXT
  5
CCA9
  8
OUTLINE
  6
CONTINUOUS
 62
    50
 10
2995.2457425651391532
 20
1016.2590164410820535
 30
0.0
 40
30.0
  1
90
 50
90.0
  7
TITLE3
  0
ENDBLK
  5
CCAB
  8
0
  0
BLOCK
  8
0
  2
*U47
 70
     1
 10
0.0
 20
0.0
 30
0.0
  3
*U47
  1

  0
TEXT
  5
CCAD
  8
OUTLINE
  6
CONTINUOUS
 62
    50
 10
3092.3320740280059908
 20
1162.5973925412270091
 30
0.0
 40
30.0
  1
45
 50
90.0
  7
TITLE3
  0
ENDBLK
  5
CCAF
  8
0
  0
BLOCK
  8
0
  2
*U48
 70
     1
 10
0.0
 20
0.0
 30
0.0
  3
*U48
  1

  0
TEXT
  5
CCB1
  8
OUTLINE
  6
CONTINUOUS
 62
    50
 10
2540.3952125744767727
 20
1031.6304450125010135
 30
0.0
 40
30.0
  1
127
 50
90.0
  7
TITLE3
  0
ENDBLK
  5
CCB3
  8
0
  0
BLOCK
  8
0
  2
*U49
 70
     1
 10
0.0
 20
0.0
 30
0.0
  3
*U49
  1

  0
TEXT
  5
CCB5
  8
OUTLINE
  6
CONTINUOUS
 62
    50
 10
3609.7954821861508208
 20
1059.410586100106002
 30
0.0
 40
30.0
  1
92
 50
90.0
  7
TITLE3
  0
ENDBLK
  5
CCB7
  8
0
  0
BLOCK
  8
0
  2
*U50
 70
     1
 10
0.0
 20
0.0
 30
0.0
  3
*U50
  1

  0
TEXT
  5
CCB9
  8
OUTLINE
  6
CONTINUOUS
 62
    50
 10
3609.7954821861508208
 20
750.7764414734150478
 30
0.0
 40
30.0
  1
500
 50
90.0
  7
TITLE3
  0
ENDBLK
  5
CCBB
  8
0
  0
BLOCK
  8
0
  2
*U51
 70
     1
 10
0.0
 20
0.0
 30
0.0
  3
*U51
  1

  0
TEXT
  5
CCBD
  8
OUTLINE
  6
CONTINUOUS
 62
    50
 10
165.5166740134089878
 20
2340.024911973971939
 30
0.0
 40
30.0
  1
86
  7
TITLE3
  0
ENDBLK
  5
CCBF
  8
0
  0
BLOCK
  8
0
  2
*U52
 70
     1
 10
0.0
 20
0.0
 30
0.0
  3
*U52
  1

  0
TEXT
  5
CCC1
  8
OUTLINE
  6
CONTINUOUS
 62
    50
 10
1035.5798656695660611
 20
2336.4960494908059445
 30
0.0
 40
30.0
  1
1432
  7
TITLE3
  0
ENDBLK
  5
CCC3
  8
0
  0
BLOCK
  8
0
  2
*U53
 70
     1
 10
0.0
 20
0.0
 30
0.0
  3
*U53
  1

  0
TEXT
  5
CCC5
  8
OUTLINE
  6
CONTINUOUS
 62
    50
 10
2843.752634943981775
 20
1209.6268409387100746
 30
0.0
 40
30.0
  1
335
  7
TITLE3
  0
ENDBLK
  5
CCC7
  8
0
  0
BLOCK
  8
0
  2
*U54
 70
     1
 10
0.0
 20
0.0
 30
0.0
  3
*U54
  1

  0
TEXT
  5
CCC9
  8
OUTLINE
  6
CONTINUOUS
 62
    52
 10
222.6658912620218018
 20
1746.1822984266650565
 30
0.0
 40
30.0
  1
876 O/A
 50
90.0
  7
TITLE3
  0
ENDBLK
  5
CCCB
  8
0
  0
BLOCK
  8
0
  2
*U55
 70
     1
 10
0.0
 20
0.0
 30
0.0
  3
*U55
  1

  0
TEXT
  5
CCCD
  8
OUTLINE
  6
CONTINUOUS
 62
    52
 10
2316.6514460683838479
 20
1794.1965841409510176
 30
0.0
 40
30.0
  1
670
 50
90.0
  7
TITLE3
  0
ENDBLK
  5
CCCF
  8
0
  0
BLOCK
  8
0
  2
*U56
 70
     1
 10
0.0
 20
0.0
 30
0.0
  3
*U56
  1

  0
TEXT
  5
CCD1
  8
OUTLINE
  6
CONTINUOUS
 62
    52
 10
1201.4098656695668979
 20
1253.8571919069158866
 30
0.0
 40
30.0
  1
1930
  7
TITLE3
  0
ENDBLK
  5
CCD3
  8
0
  0
BLOCK
  8
0
  2
*U57
 70
     1
 10
0.0
 20
0.0
 30
0.0
  3
*U57
  1

  0
TEXT
  5
CCD5
  8
OUTLINE
  6
CONTINUOUS
 62
    52
 10
2947.8669206582680999
 20
1340.9819590608369708
 30
0.0
 40
30.0
  1
707 MTG.
  7
TITLE3
  0
ENDBLK
  5
CCD7
  8
0
  0
BLOCK
  8
0
  2
*U58
 70
     1
 10
0.0
 20
0.0
 30
0.0
  3
*U58
  1

  0
TEXT
  5
CCD9
  8
OUTLINE
  6
CONTINUOUS
 62
    52
 10
2992.1526349439841397
 20
1289.2657855944819403
 30
0.0
 40
30.0
  1
CTRS.
  7
TITLE3
  0
ENDBLK
  5
CCDB
  8
0
  0
BLOCK
  8
0
  2
*U59
 70
     1
 10
0.0
 20
0.0
 30
0.0
  3
*U59
  1

  0
TEXT
  5
CCDD
  8
OUTLINE
  6
CONTINUOUS
 62
    52
 10
267.4554490053740778
 20
968.7012037237685718
 30
0.0
 40
30.0
  1
98
 50
90.0
  7
TITLE3
  0
ENDBLK
  5
CCDF
  8
0
  0
BLOCK
  8
0
  2
*U60
 70
     1
 10
0.0
 20
0.0
 30
0.0
  3
*U60
  1

  0
TEXT
  5
CCE1
  8
OUTLINE
  6
CONTINUOUS
 62
    52
 10
1732.1223869816949446
 20
1011.1947307268419536
 30
0.0
 40
30.0
  1
169
 50
90.0
  7
TITLE3
  0
ENDBLK
  5
CCE3
  8
0
  0
BLOCK
  8
0
  2
GENAXEH
 70
     0
 10
0.0
 20
0.0
 30
0.0
  3
GENAXEH
  1

  0
LINE
  5
D04F
  8
0
 10
-1.0
 20
0.0
 30
0.0
 11
1.0
 21
0.0
 31
0.0
  0
ENDBLK
  5
D051
  8
0
  0
BLOCK
  8
0
  2
*U62
 70
     1
 10
0.0
 20
0.0
 30
0.0
  3
*U62
  1

  0
TEXT
  5
D32D
  8
DIM
  6
CONTINUOUS
 62
     2
 10
3012.0114808556540993
 20
1426.4394718524170003
 30
0.0
 40
30.0
  1
876 O/A
  7
TITLE3
  0
ENDBLK
  5
D32F
  8
0
  0
BLOCK
  8
0
  2
*U63
 70
     1
 10
0.0
 20
0.0
 30
0.0
  3
*U63
  1

  0
TEXT
  5
D334
  8
DIM
  6
CONTINUOUS
 62
     2
 10
3670.2457857123208669
 20
765.5439313540695139
 30
0.0
 40
30.0
  1
653
 50
90.0
  7
TITLE3
  0
ENDBLK
  5
D336
  8
0
  0
BLOCK
  8
0
  2
*U64
 70
     1
 10
0.0
 20
0.0
 30
0.0
  3
*U64
  1

  0
TEXT
  5
D338
  8
DIM
  6
CONTINUOUS
 62
     2
 10
3599.8634112088470829
 20
1044.9893166496390222
 30
0.0
 40
30.0
  1
110
 50
90.0
  7
TITLE3
  0
ENDBLK
  5
D33A
  8
0
  0
ENDSEC
  0
SECTION
  2
ENTITIES
  0
INSERT
  5
8022
  8
TEXT
  2
NEW_BLOCK
 10
2879.532133843677002
 20
2078.549828028947104
 30
0.0
 41
0.8399999999996905
 42
0.8399999999996905
 43
0.8399999999996905
  0
TEXT
  5
8023
  8
TEXT
 10
2674.8886151958649862
 20
348.4363829409304003
 30
0.0
 40
50.0
  1
temperzone HWP 370K
  7
TITLE5
 72
     1
 11
3108.2219485291989258
 21
348.4363829409304003
 31
0.0
  0
TEXT
  5
8024
  8
TEXT
 10
3207.4611127410039444
 20
157.463360811800186
 30
0.0
 40
30.0
  1
HWP 370K
 41
1.159155215268912
  7
TITLE3
 72
     5
 11
3472.4108762310411294
 21
157.463360811800186
 31
0.0
  0
TEXT
  5
8030
  8
TEXT
 10
2714.5390906198531411
 20
204.827733660230308
 30
0.0
 40
25.0
  1
12.05.08
 41
1.033846153846153
  7
TITLE3
 72
     5
 11
2874.5390906198531411
 21
204.827733660230308
 31
0.0
  0
TEXT
  5
8031
  8
TEXT
 10
2764.8790347331278099
 20
142.3263463930398132
 30
0.0
 40
25.0
  1
1:10
  7
TITLE3
  0
LINE
  5
8BF4
  8
OVERLAY-A3
 10
134.0911792524439079
 20
81.219636710357932
 30
0.0
 11
3690.8949156554640467
 21
81.219636710357932
 31
0.0
  0
LINE
  5
8BF5
  8
OVERLAY-A3
 10
3690.8949156554640467
 20
81.219636710357932
 30
0.0
 11
3690.8949156554640467
 21
2538.170541809327915
 31
0.0
  0
LINE
  5
8BF6
  8
OVERLAY-A3
 10
3690.8949156554640467
 20
2538.170541809327915
 30
0.0
 11
134.0911792524439079
 21
2538.170541809327915
 31
0.0
  0
LINE
  5
8BF7
  8
OVERLAY-A3
 10
134.0911792524439079
 20
2538.170541809327915
 30
0.0
 11
134.0911792524439079
 21
81.219636710357932
 31
0.0
  0
INSERT
  5
8C43
  8
DIM
  6
CONTINUOUS
  2
A$C70722A8B
 10
3625.1135480174289114
 20
432.6763978473143197
 30
0.0
  0
LINE
  5
B61D
  8
OUTLINE
  6
CONTINUOUS
 10
317.6098656695448881
 20
516.5447307267984343
 30
0.0
 11
317.6098656695431828
 21
1130.5447307267979795
 31
0.0
  0
LINE
  5
B622
  8
OUTLINE
  6
CONTINUOUS
 10
2309.009865669544979
 20
1130.5447307269118937
 30
0.0
 11
287.6098656695194222
 21
1130.54473072679707
 31
0.0
  0
LINE
  5
B624
  8
OUTLINE
  6
CONTINUOUS
 10
287.6098656695194222
 20
1121.344730726797934
 30
0.0
 11
287.6098656695194222
 21
1130.54473072679707
 31
0.0
  0
LINE
  5
B728
  8
OUTLINE
  6
CONTINUOUS
 10
1533.2993751476080888
 20
702.9447307267777205
 30
0.0
 11
558.2993751476085436
 21
702.9447307267777205
 31
0.0
  0
LINE
  5
B72B
  8
OUTLINE
  6
CONTINUOUS
 10
558.2993751476076341
 20
1002.9447307267779479
 30
0.0
 11
1533.2993751476080888
 21
1002.9447307267770384
 31
0.0
  0
LINE
  5
B72E
  8
OUTLINE
  6
CONTINUOUS
 10
558.2993751476085436
 20
702.9447307267777205
 30
0.0
 11
558.2993751476076341
 21
1002.9447307267779479
 31
0.0
  0
LINE
  5
B73E
  8
OUTLINE
  6
CONTINUOUS
 10
1533.2993751476080888
 20
1002.9447307267770384
 30
0.0
 11
1533.2993751476080888
 21
702.9447307267777205
 31
0.0
  0
LINE
  5
B76B
  8
OUTLINE
  6
CONTINUOUS
 10
291.2060776249118135
 20
516.5447307267977521
 30
0.0
 11
2336.82156353183791
 21
516.5447307267974111
 31
0.0
  0
LINE
  5
B7D3
  8
OUTLINE
  6
CONTINUOUS
 10
1928.8162250894260978
 20
944.9935216906917503
 30
0.0
 11
1928.8162250894240515
 21
564.9935216906920914
 31
0.0
  0
LINE
  5
B7E5
  8
OUTLINE
  6
CONTINUOUS
 10
1928.816225089766931
 20
564.0952902877960469
 30
0.0
 11
1928.816225089766931
 21
946.4952902877961378
 31
0.0
  0
LINE
  5
B7E6
  8
OUTLINE
  6
CONTINUOUS
 10
1928.8162250897680678
 20
946.4952902877952283
 30
0.0
 11
2279.4146890785468713
 21
946.4952902877961378
 31
0.0
  0
LINE
  5
B7E7
  8
OUTLINE
  6
CONTINUOUS
 10
1928.816225089766931
 20
946.4952902877961378
 30
0.0
 11
2293.8162250898280945
 21
946.4952902877961378
 31
0.0
  0
LINE
  5
B7F8
  8
OUTLINE
  6
CONTINUOUS
 10
2309.0098656695440695
 20
516.5447307267984343
 30
0.0
 11
2309.009865669544979
 21
1130.5447307267979795
 31
0.0
  0
LINE
  5
B7FD
  8
OUTLINE
  6
CONTINUOUS
 10
2337.8098656695678983
 20
1121.344730726797934
 30
0.0
 11
2337.8098656695678983
 21
1130.54473072679707
 31
0.0
  0
LINE
  5
B800
  8
OUTLINE
  6
CONTINUOUS
 10
2309.009865669544979
 20
1130.5447307267979795
 30
0.0
 11
2337.8098656695678983
 21
1130.54473072679707
 31
0.0
  0
LINE
  5
B803
  8
OUTLINE
  6
CONTINUOUS
 10
2309.0098656695440695
 20
497.374283876917616
 30
0.0
 11
314.4950595181044264
 21
476.4348816342700275
 31
0.0
  0
LINE
  5
B80E
  8
OUTLINE
  6
CONTINUOUS
 10
2335.9205788295248567
 20
507.6752038750655061
 30
0.0
 11
2336.9205164445261289
 21
507.6863737499953118
 31
0.0
  0
LINE
  5
B810
  8
OUTLINE
  6
CONTINUOUS
 10
2336.9205164445261289
 20
507.6863737499953118
 30
0.0
 11
2336.82156353183791
 21
516.5447307267974111
 31
0.0
  0
LINE
  5
B814
  8
OUTLINE
  6
CONTINUOUS
 10
291.2060776249118135
 20
507.1763525009217801
 30
0.0
 11
2335.9205788295248567
 21
507.6752038750655061
 31
0.0
  0
LINE
  5
B8F7
  8
OUTLINE
  6
CONTINUOUS
 10
2314.609865669564897
 20
2142.1680127123800048
 30
0.0
 11
2314.6098656695671707
 21
1523.3680127123789134
 31
0.0
  0
LINE
  5
B911
  8
OUTLINE
  6
CONTINUOUS
 10
2271.8098656695678983
 20
1503.0680127123550847
 30
0.0
 11
2263.8098656695678983
 21
1503.0680127123550847
 31
0.0
  0
ARC
  5
B912
  8
OUTLINE
  6
CONTINUOUS
 10
2263.8098656695678983
 20
1509.0680127123539478
 30
0.0
 40
6.0
 50
90.0
 51
270.0
  0
ARC
  5
B913
  8
OUTLINE
  6
CONTINUOUS
 10
2271.8098656695678983
 20
1509.0680127123539478
 30
0.0
 40
6.0
 50
270.0
 51
90.0
  0
LINE
  5
B915
  8
OUTLINE
  6
CONTINUOUS
 10
1915.0098656695670343
 20
1503.0680127123550847
 30
0.0
 11
1907.0098656695670343
 21
1503.0680127123550847
 31
0.0
  0
ARC
  5
B916
  8
OUTLINE
  6
CONTINUOUS
 10
1915.0098656695670343
 20
1509.0680127123539478
 30
0.0
 40
6.0
 50
270.0
 51
90.0
  0
ARC
  5
B917
  8
OUTLINE
  6
CONTINUOUS
 10
1907.0098656695670343
 20
1509.0680127123539478
 30
0.0
 40
6.0
 50
90.0
 51
270.0
  0
ARC
  5
B91C
  8
OUTLINE
  6
CONTINUOUS
 10
385.4097496462759977
 20
1509.0680127123539478
 30
0.0
 40
6.0
 50
90.0
 51
270.0
  0
ARC
  5
B91D
  8
OUTLINE
  6
CONTINUOUS
 10
393.4097496462759977
 20
1509.0680127123539478
 30
0.0
 40
6.0
 50
270.0
 51
90.0
  0
LINE
  5
B91E
  8
OUTLINE
  6
CONTINUOUS
 10
385.4097496462759977
 20
1503.0680127123550847
 30
0.0
 11
393.4097496462759977
 21
1503.0680127123550847
 31
0.0
  0
LINE
  5
B91F
  8
OUTLINE
  6
CONTINUOUS
 10
393.4097496462759977
 20
1515.0680127123550847
 30
0.0
 11
385.4097496462759977
 21
1515.0680127123550847
 31
0.0
  0
ARC
  5
B92B
  8
OUTLINE
  6
CONTINUOUS
 10
345.2744361326509193
 20
2155.2680127124058345
 30
0.0
 40
6.0
 50
90.0
 51
270.0
  0
ARC
  5
B92C
  8
OUTLINE
  6
CONTINUOUS
 10
353.2744361326509193
 20
2155.2680127124058345
 30
0.0
 40
6.0
 50
270.0
 51
90.0
  0
LINE
  5
B92D
  8
OUTLINE
  6
CONTINUOUS
 10
345.2744361326509193
 20
2161.268012712404925
 30
0.0
 11
353.2744361326509193
 21
2161.268012712404925
 31
0.0
  0
LINE
  5
B92E
  8
OUTLINE
  6
CONTINUOUS
 10
353.2744361326509193
 20
2149.268012712404925
 30
0.0
 11
345.2744361326509193
 21
2149.268012712404925
 31
0.0
  0
LINE
  5
B931
  8
OUTLINE
  6
CONTINUOUS
 10
2265.0098656695718091
 20
2149.268012712404925
 30
0.0
 11
2273.0098656695718091
 21
2149.268012712404925
 31
0.0
  0
LINE
  5
B932
  8
OUTLINE
  6
CONTINUOUS
 10
2273.0098656695718091
 20
2161.268012712404925
 30
0.0
 11
2265.0098656695718091
 21
2161.268012712404925
 31
0.0
  0
ARC
  5
B933
  8
OUTLINE
  6
CONTINUOUS
 10
2265.0098656695718091
 20
2155.2680127124058345
 30
0.0
 40
6.0
 50
90.0
 51
270.0
  0
ARC
  5
B934
  8
OUTLINE
  6
CONTINUOUS
 10
2273.0098656695718091
 20
2155.2680127124058345
 30
0.0
 40
6.0
 50
270.0
 51
90.0
  0
LINE
  5
B949
  8
OUTLINE
 10
288.6098656695684781
 20
1522.7680127123790044
 30
0.0
 11
313.6098656695668865
 21
1522.7680127123790044
 31
0.0
  0
LINE
  5
B94F
  8
OUTLINE
  6
CONTINUOUS
 10
288.6098656695684781
 20
1522.7680127123790044
 30
0.0
 11
288.6098656695704108
 21
2142.7680127123808234
 31
0.0
  0
LINE
  5
B950
  8
OUTLINE
  6
CONTINUOUS
 10
312.6098656695676254
 20
1522.7680127123790044
 30
0.0
 11
312.6098656695676254
 21
2142.7680127123799139
 31
0.0
  0
LINE
  5
B951
  8
OUTLINE
  6
CONTINUOUS
 10
2338.6098656695658065
 20
2142.7680127123799139
 30
0.0
 11
288.6098656695704108
 21
2142.7680127123808234
 31
0.0
  0
LINE
  5
B952
  8
OUTLINE
  6
CONTINUOUS
 10
2314.6098656695671707
 20
2142.7680127123799139
 30
0.0
 11
2314.6098656695671707
 21
1522.7680127123790044
 31
0.0
  0
LINE
  5
B954
  8
OUTLINE
  6
CONTINUOUS
 10
312.6098656695676254
 20
1522.7680127123799139
 30
0.0
 11
312.6098656695667728
 21
2142.7680127123799139
 31
0.0
  0
LINE
  5
B956
  8
OUTLINE
  6
CONTINUOUS
 10
2314.609865669564897
 20
1497.7680127123799139
 30
0.0
 11
313.6098656695668865
 21
1497.7680127123799139
 31
0.0
  0
LINE
  5
B959
  8
OUTLINE
  6
CONTINUOUS
 10
2314.6098656695671707
 20
1522.7680127123799139
 30
0.0
 11
2314.6098656695671707
 21
1497.7680127123799139
 31
0.0
  0
LINE
  5
B95A
  8
OUTLINE
 10
313.6098656695668865
 20
1497.7680127123790044
 30
0.0
 11
313.6098656695668865
 21
1522.7680127123799139
 31
0.0
  0
LINE
  5
B95C
  8
OUTLINE
  6
CONTINUOUS
 10
2338.6098656695658065
 20
1522.7680127123799139
 30
0.0
 11
2338.6098656695658065
 21
2142.7680127123799139
 31
0.0
  0
LINE
  5
B95F
  8
OUTLINE
  6
CONTINUOUS
 10
2314.609865669564897
 20
1497.7680127123799139
 30
0.0
 11
2314.6098656695671707
 21
2167.7680127123780949
 31
0.0
  0
LINE
  5
B961
  8
OUTLINE
  6
CONTINUOUS
 10
2314.6098656695671707
 20
2167.7680127123780949
 30
0.0
 11
313.6098656695668865
 21
2167.7680127123799139
 31
0.0
  0
LINE
  5
B968
  8
OUTLINE
 10
2314.6098656695671707
 20
2142.7680127123780949
 30
0.0
 11
2314.6098656695671707
 21
2167.7680127123790044
 31
0.0
  0
LINE
  5
B969
  8
OUTLINE
  6
CONTINUOUS
 10
313.6098656695668865
 20
2167.7680127123799139
 30
0.0
 11
313.6098656695668865
 21
2142.7680127123799139
 31
0.0
  0
LINE
  5
B9F1
  8
OUTLINE
  6
CONTINUOUS
 10
559.213891412945145
 20
1409.1680127123779585
 30
0.0
 11
1535.5038914129440855
 21
1409.1680127123779585
 31
0.0
  0
LINE
  5
B9F4
  8
OUTLINE
  6
CONTINUOUS
 10
559.213891412945145
 20
1409.1680127123779585
 30
0.0
 11
559.2138914129446903
 21
1497.7680127123790044
 31
0.0
  0
LINE
  5
B9FB
  8
OUTLINE
  6
CONTINUOUS
 10
1535.5038914129440855
 20
1497.7680127123799139
 30
0.0
 11
1535.5038914129440855
 21
1409.1680127123779585
 31
0.0
  0
LINE
  5
BAA8
  8
OUTLINE
  6
CONTINUOUS
 10
1928.8162250894279168
 20
1430.5680127123800958
 30
0.0
 11
2293.8162250894270073
 21
1430.5680127123800958
 31
0.0
  0
LINE
  5
BAAB
  8
OUTLINE
  6
CONTINUOUS
 10
1928.8162250894079079
 20
1457.7680127123790044
 30
0.0
 11
1928.8162250894279168
 21
1430.5680127123800958
 31
0.0
  0
LINE
  5
BAAF
  8
OUTLINE
  6
CONTINUOUS
 10
2291.8098656695451609
 20
2167.7680127123780949
 30
0.0
 11
2291.8098656695451609
 21
2207.7680127123799139
 31
0.0
  0
LINE
  5
BAB0
  8
OUTLINE
  6
CONTINUOUS
 10
2243.8098656695451609
 20
2167.7680127123790044
 30
0.0
 11
2243.8098656695451609
 21
2207.7680127123808234
 31
0.0
  0
LINE
  5
BAB1
  8
OUTLINE
  6
CONTINUOUS
 10
2291.8098656695451609
 20
2207.7680127123799139
 30
0.0
 11
2243.8098656695451609
 21
2207.7680127123808234
 31
0.0
  0
CIRCLE
  5
BAB2
  8
OUTLINE
  6
CONTINUOUS
 10
2267.8098656695451609
 20
2187.7680127123799139
 30
0.0
 40
9.5
  0
LINE
  5
BAB3
  8
OUTLINE
  6
CONTINUOUS
 10
374.874436132627693
 20
2167.7680127123799139
 30
0.0
 11
374.874436132627693
 21
2207.7680127123799139
 31
0.0
  0
LINE
  5
BAB4
  8
OUTLINE
  6
CONTINUOUS
 10
326.8744361326278067
 20
2167.7680127123808234
 30
0.0
 11
326.8744361326278067
 21
2207.7680127123808234
 31
0.0
  0
LINE
  5
BAB5
  8
OUTLINE
  6
CONTINUOUS
 10
374.874436132627693
 20
2207.7680127123799139
 30
0.0
 11
326.8744361326278067
 21
2207.7680127123808234
 31
0.0
  0
CIRCLE
  5
BAB6
  8
OUTLINE
  6
CONTINUOUS
 10
350.874436132627693
 20
2187.7680127123799139
 30
0.0
 40
9.5
  0
LINE
  5
BAB7
  8
OUTLINE
  6
CONTINUOUS
 10
2291.8098656695451609
 20
1497.7680127123799139
 30
0.0
 11
2291.8098656695451609
 21
1457.7680127123799139
 31
0.0
  0
LINE
  5
BAB8
  8
OUTLINE
  6
CONTINUOUS
 10
2243.8098656695451609
 20
1497.7680127123799139
 30
0.0
 11
2243.8098656695451609
 21
1457.7680127123790044
 31
0.0
  0
LINE
  5
BAB9
  8
OUTLINE
  6
CONTINUOUS
 10
2291.8098656695451609
 20
1457.7680127123799139
 30
0.0
 11
2243.8098656695451609
 21
1457.7680127123790044
 31
0.0
  0
CIRCLE
  5
BABA
  8
OUTLINE
  6
CONTINUOUS
 10
2267.8098656695451609
 20
1477.7680127123799139
 30
0.0
 40
9.5
  0
LINE
  5
BABB
  8
OUTLINE
  6
CONTINUOUS
 10
1935.0098656695420232
 20
1497.7680127123799139
 30
0.0
 11
1935.0098656695420232
 21
1457.7680127123799139
 31
0.0
  0
LINE
  5
BABC
  8
OUTLINE
  6
CONTINUOUS
 10
1887.0098656695420232
 20
1497.7680127123799139
 30
0.0
 11
1887.0098656695420232
 21
1457.7680127123790044
 31
0.0
  0
LINE
  5
BABD
  8
OUTLINE
  6
CONTINUOUS
 10
1935.0098656695420232
 20
1457.7680127123799139
 30
0.0
 11
1887.0098656695420232
 21
1457.7680127123790044
 31
0.0
  0
CIRCLE
  5
BABE
  8
OUTLINE
  6
CONTINUOUS
 10
1911.0098656695429327
 20
1477.7680127123799139
 30
0.0
 40
9.5
  0
LINE
  5
BABF
  8
OUTLINE
  6
CONTINUOUS
 10
415.0097496462307163
 20
1497.7680127123790044
 30
0.0
 11
415.0097496462307163
 21
1457.7680127123799139
 31
0.0
  0
LINE
  5
BAC0
  8
OUTLINE
  6
CONTINUOUS
 10
367.0097496462307731
 20
1497.7680127123790044
 30
0.0
 11
367.0097496462307731
 21
1457.7680127123790044
 31
0.0
  0
LINE
  5
BAC1
  8
OUTLINE
  6
CONTINUOUS
 10
415.0097496462307163
 20
1457.7680127123799139
 30
0.0
 11
367.0097496462307731
 21
1457.7680127123790044
 31
0.0
  0
CIRCLE
  5
BAC2
  8
OUTLINE
  6
CONTINUOUS
 10
391.0097496462307731
 20
1477.7680127123799139
 30
0.0
 40
9.5
  0
LINE
  5
BAC3
  8
OUTLINE
 62
    52
 10
1535.5038914129440855
 20
1386.968012712377913
 30
0.0
 11
1535.5038914129440855
 21
1321.3193597332428908
 31
0.0
  0
LINE
  5
BAC4
  8
OUTLINE
 62
    52
 10
590.4138914129440536
 20
1341.3193597332428908
 30
0.0
 11
990.0324628415161214
 21
1341.3193597332428908
 31
0.0
  0
LINE
  5
BAC5
  8
OUTLINE
 62
    52
 10
1505.5038914129440855
 20
1341.3193597332428908
 30
0.0
 11
1107.1753199843728908
 21
1341.3193597332428908
 31
0.0
  0
SOLID
  5
BAC6
  8
OUTLINE
 62
    52
 10
590.4138914129440536
 20
1346.3193597332428908
 30
0.0
 11
590.4138914129440536
 21
1336.3193597332428908
 31
0.0
 12
560.4138914129440536
 22
1341.3193597332428908
 32
0.0
 13
560.4138914129440536
 23
1341.3193597332428908
 33
0.0
  0
SOLID
  5
BAC7
  8
OUTLINE
 62
    52
 10
1505.5038914129440855
 20
1346.3193597332428908
 30
0.0
 11
1505.5038914129440855
 21
1336.3193597332428908
 31
0.0
 12
1535.5038914129440855
 22
1341.3193597332428908
 32
0.0
 13
1535.5038914129440855
 23
1341.3193597332428908
 33
0.0
  0
INSERT
  5
BAC8
  8
TEXT
  6
CONTINUOUS
  2
*U36
 10
117.7008697213373978
 20
0.0
 30
0.0
  0
LINE
  5
BB32
  8
OUTLINE
  6
CONTINUOUS
 10
2791.3971951413677743
 20
516.5447307267977521
 30
0.0
 11
3404.3971951413677743
 21
516.5447307267977521
 31
0.0
  0
LINE
  5
BB33
  8
OUTLINE
  6
CONTINUOUS
 10
3433.1971951413688657
 20
1130.5447307267959332
 30
0.0
 11
2762.5971951413671377
 21
1130.5447307267959332
 31
0.0
  0
LINE
  5
BB36
  8
OUTLINE
  6
CONTINUOUS
 10
2791.3971951413677743
 20
477.4459891241999117
 30
0.0
 11
2791.3971951413659554
 21
1130.5447307267959332
 31
0.0
  0
LINE
  5
BB38
  8
OUTLINE
  6
CONTINUOUS
 10
2762.597195141364864
 20
1122.5447307267959332
 30
0.0
 11
2762.5971951413671377
 21
1130.5447307267959332
 31
0.0
  0
LINE
  5
BB3A
  8
OUTLINE
  6
CONTINUOUS
 10
3404.3971951413677743
 20
1130.5447307267959332
 30
0.0
 11
3404.3971951413677743
 21
477.4459891241987179
 31
0.0
  0
LINE
  5
BB3C
  8
OUTLINE
  6
CONTINUOUS
 10
3433.1971951413688657
 20
1130.5447307267959332
 30
0.0
 11
3433.1971951413688657
 21
1122.5447307267959332
 31
0.0
  0
LINE
  5
BB4F
  8
OUTLINE
  6
CONTINUOUS
 10
2791.3971951413677743
 20
516.5447307267977521
 30
0.0
 11
2767.9676993528100866
 21
516.5447307267977521
 31
0.0
  0
LINE
  5
BB50
  8
OUTLINE
  6
CONTINUOUS
 10
3404.3971951413677743
 20
516.5447307267977521
 30
0.0
 11
3416.3971951413691386
 21
516.5447307267977521
 31
0.0
  0
CIRCLE
  5
BB51
  8
OUTLINE
  6
CONTINUOUS
 10
3097.5971951413671377
 20
1085.5447307267959332
 30
0.0
 40
24.0
  0
CIRCLE
  5
BB52
  8
OUTLINE
  6
CONTINUOUS
 10
3097.5971951413671377
 20
995.5447307267958195
 30
0.0
 40
24.0
  0
LINE
  5
BB5F
  8
OUTLINE
  6
CONTINUOUS
 10
2673.3971951413668648
 20
1004.144730726775947
 30
0.0
 11
2673.3971951413659554
 21
704.1447307267768565
 31
0.0
  0
LINE
  5
BB63
  8
OUTLINE
  6
CONTINUOUS
 10
2673.3971951413668648
 20
1004.144730726775947
 30
0.0
 11
2791.3971951413677743
 21
1004.144730726775947
 31
0.0
  0
LINE
  5
BB67
  8
OUTLINE
  6
HIDDEN
 10
2791.3971951413677743
 20
704.1447307267758333
 30
0.0
 11
2698.9971951413667739
 21
704.1447307267768565
 31
0.0
  0
LINE
  5
BB7F
  8
OUTLINE
  6
CONTINUOUS
 10
2698.9971951413667739
 20
946.4952902877952283
 30
0.0
 11
2791.3971951413659554
 21
946.4952902877952283
 31
0.0
  0
LINE
  5
BB80
  8
OUTLINE
  6
CONTINUOUS
 10
2698.9971951413658644
 20
564.0952902877953647
 30
0.0
 11
2791.3971951413677743
 21
564.0952902877953647
 31
0.0
  0
LINE
  5
BB84
  8
OUTLINE
  6
CONTINUOUS
 10
2768.0682282271741315
 20
507.5452921917894855
 30
0.0
 11
2767.9676993528100866
 21
516.5447307267977521
 31
0.0
  0
LINE
  5
BB87
  8
OUTLINE
  6
CONTINUOUS
 10
3404.3971951413677743
 20
516.5447307267977521
 30
0.0
 11
3429.4266909299280996
 21
516.5447307267977521
 31
0.0
  0
LINE
  5
BB8C
  8
OUTLINE
  6
CONTINUOUS
 10
3429.3261620555631453
 20
507.5452921917894855
 30
0.0
 11
3429.4266909299280996
 21
516.5447307267977521
 31
0.0
  0
LINE
  5
BB8E
  8
OUTLINE
  6
CONTINUOUS
 10
2791.3971951413677743
 20
477.4459891241999117
 30
0.0
 11
3404.3971951413677743
 21
477.4459891241987179
 31
0.0
  0
LINE
  5
BB98
  8
OUTLINE
 62
    52
 10
2658.3360344606571743
 20
704.1447307267768565
 30
0.0
 11
2553.1683442004327844
 21
704.1447307267768565
 31
0.0
  0
LINE
  5
BB99
  8
OUTLINE
 62
    52
 10
2573.1683442004341487
 20
974.1447307267758333
 30
0.0
 11
2573.1683442004341487
 21
912.7161592982046159
 31
0.0
  0
LINE
  5
BB9A
  8
OUTLINE
 62
    52
 10
2573.1683442004341487
 20
734.1447307267766291
 30
0.0
 11
2573.1683442004341487
 21
795.5733021553473918
 31
0.0
  0
SOLID
  5
BB9B
  8
OUTLINE
 62
    52
 10
2568.1683442004341487
 20
974.1447307267758333
 30
0.0
 11
2578.1683442004327844
 21
974.1447307267758333
 31
0.0
 12
2573.1683442004341487
 22
1004.144730726775947
 32
0.0
 13
2573.1683442004341487
 23
1004.144730726775947
 33
0.0
  0
SOLID
  5
BB9C
  8
OUTLINE
 62
    52
 10
2568.1683442004341487
 20
734.1447307267766291
 30
0.0
 11
2578.1683442004327844
 21
734.1447307267766291
 31
0.0
 12
2573.1683442004341487
 22
704.1447307267768565
 32
0.0
 13
2573.1683442004341487
 23
704.1447307267768565
 33
0.0
  0
INSERT
  5
BB9D
  8
TEXT
  6
CONTINUOUS
  2
*U37
 10
47.7731316259559975
 20
0.0
 30
0.0
  0
LINE
  5
BB9E
  8
OUTLINE
 62
    52
 10
2742.5971951413671377
 20
1130.54473072679707
 30
0.0
 11
2476.8833113707678422
 21
1130.54473072679707
 31
0.0
  0
LINE
  5
BB9F
  8
OUTLINE
 62
    52
 10
2759.0306967369251652
 20
516.5447307267977521
 30
0.0
 11
2476.8833113707678422
 21
516.5447307267977521
 31
0.0
  0
LINE
  5
BBA0
  8
OUTLINE
 62
    52
 10
2496.8833113707701159
 20
1100.54473072679707
 30
0.0
 11
2496.8833113707701159
 21
881.173302155368674
 31
0.0
  0
LINE
  5
BBA1
  8
OUTLINE
 62
    52
 10
2496.8833113707701159
 20
546.5447307267977521
 30
0.0
 11
2496.8833113707701159
 21
768.3161592982256707
 31
0.0
  0
SOLID
  5
BBA2
  8
OUTLINE
 62
    52
 10
2491.8833113707692064
 20
1100.54473072679707
 30
0.0
 11
2501.8833113707692064
 21
1100.54473072679707
 31
0.0
 12
2496.8833113707701159
 22
1130.54473072679707
 32
0.0
 13
2496.8833113707701159
 23
1130.54473072679707
 33
0.0
  0
SOLID
  5
BBA3
  8
OUTLINE
 62
    52
 10
2491.8833113707692064
 20
546.5447307267977521
 30
0.0
 11
2501.8833113707692064
 21
546.5447307267977521
 31
0.0
 12
2496.8833113707701159
 22
516.5447307267977521
 32
0.0
 13
2496.8833113707701159
 23
516.5447307267977521
 33
0.0
  0
INSERT
  5
BBA4
  8
TEXT
  6
CONTINUOUS
  2
*U38
 10
47.7731316259559975
 20
0.0
 30
0.0
  0
LINE
  5
BC45
  8
OUTLINE
 62
    52
 10
267.6098656695194222
 20
1130.54473072679707
 30
0.0
 11
180.9230567193799004
 21
1130.54473072679707
 31
0.0
  0
LINE
  5
BC46
  8
OUTLINE
 62
    52
 10
280.7132814752002901
 20
476.4348816342700275
 30
0.0
 11
180.9230567193799004
 21
476.4348816342700275
 31
0.0
  0
LINE
  5
BC47
  8
OUTLINE
 62
    52
 10
200.9230567193799004
 20
1100.54473072679707
 30
0.0
 11
200.9230567193799004
 21
863.8469490376760405
 31
0.0
  0
LINE
  5
BC48
  8
OUTLINE
 62
    52
 10
200.9230567193799004
 20
476.4348816342700275
 30
0.0
 11
200.9230567193799004
 21
748.1326633233904886
 31
0.0
  0
SOLID
  5
BC49
  8
OUTLINE
 62
    52
 10
195.9230567193799004
 20
1100.54473072679707
 30
0.0
 11
205.9230567193799004
 21
1100.54473072679707
 31
0.0
 12
200.9230567193799004
 22
1130.54473072679707
 32
0.0
 13
200.9230567193799004
 23
1130.54473072679707
 33
0.0
  0
SOLID
  5
BC4A
  8
OUTLINE
 62
    52
 10
195.9230567193799004
 20
506.4348816342699138
 30
0.0
 11
205.9230567193799004
 21
506.4348816342699138
 31
0.0
 12
200.9230567193799004
 22
476.4348816342700275
 32
0.0
 13
200.9230567193799004
 23
476.4348816342700275
 33
0.0
  0
INSERT
  5
BC4B
  8
TEXT
  6
CONTINUOUS
  2
*U39
 10
0.0
 20
0.0
 30
0.0
  0
LINE
  5
BC53
  8
OUTLINE
 62
    52
 10
2357.8098656695678983
 20
1130.54473072679707
 30
0.0
 11
2435.2579745239358999
 21
1130.54473072679707
 31
0.0
  0
LINE
  5
BC54
  8
OUTLINE
 62
    52
 10
2332.9778630591490582
 20
497.418608676681913
 30
0.0
 11
2435.2579745239358999
 21
497.418608676681913
 31
0.0
  0
LINE
  5
BC55
  8
OUTLINE
 62
    52
 10
2415.2579745239358999
 20
1100.54473072679707
 30
0.0
 11
2415.2579745239358999
 21
874.3388125588824096
 31
0.0
  0
LINE
  5
BC56
  8
OUTLINE
 62
    52
 10
2415.2579745239358999
 20
497.418608676681913
 30
0.0
 11
2415.2579745239358999
 21
758.624526844596403
 31
0.0
  0
SOLID
  5
BC57
  8
OUTLINE
 62
    52
 10
2410.2579745239349904
 20
1100.54473072679707
 30
0.0
 11
2420.2579745239349904
 21
1100.54473072679707
 31
0.0
 12
2415.2579745239358999
 22
1130.54473072679707
 32
0.0
 13
2415.2579745239358999
 23
1130.54473072679707
 33
0.0
  0
SOLID
  5
BC58
  8
OUTLINE
 62
    52
 10
2410.2579745239349904
 20
527.4186086766819699
 30
0.0
 11
2420.2579745239349904
 21
527.4186086766819699
 31
0.0
 12
2415.2579745239358999
 22
497.418608676681913
 32
0.0
 13
2415.2579745239358999
 23
497.418608676681913
 33
0.0
  0
INSERT
  5
BC59
  8
TEXT
  6
CONTINUOUS
  2
*U40
 10
113.9205402157203935
 20
0.0
 30
0.0
  0
LINE
  5
BC5A
  8
OUTLINE
  6
CONTINUOUS
 10
314.4947974572331759
 20
477.4459891241991727
 30
0.0
 11
291.2060776249118135
 21
477.4459891241991727
 31
0.0
  0
LINE
  5
BC5B
  8
OUTLINE
  6
CONTINUOUS
 10
314.4873848517316901
 20
506.0459891241991954
 30
0.0
 11
291.2060776249118135
 21
506.0459891241991954
 31
0.0
  0
LINE
  5
BC5C
  8
OUTLINE
  6
CONTINUOUS
 10
291.2060776249118135
 20
516.5447307267977521
 30
0.0
 11
291.2060776249118135
 21
477.4459891241991727
 31
0.0
  0
LINE
  5
BC5D
  8
OUTLINE
 62
    52
 10
313.6098656695668865
 20
1477.7680127123790044
 30
0.0
 11
313.6098656695668865
 21
1321.3193597332428908
 31
0.0
  0
LINE
  5
BC5E
  8
OUTLINE
 62
    52
 10
559.213891412945145
 20
1394.4820454864939165
 30
0.0
 11
559.213891412945145
 21
1321.3193597332428908
 31
0.0
  0
LINE
  5
BC60
  8
OUTLINE
 62
    52
 10
313.6098656695668865
 20
1341.3193597332428908
 30
0.0
 11
384.5829910523244166
 21
1341.3193597332428908
 31
0.0
  0
SOLID
  5
BC61
  8
OUTLINE
 62
    52
 10
529.213891412945145
 20
1346.3193597332428908
 30
0.0
 11
529.213891412945145
 21
1336.3193597332428908
 31
0.0
 12
559.213891412945145
 22
1341.3193597332428908
 32
0.0
 13
559.213891412945145
 23
1341.3193597332428908
 33
0.0
  0
SOLID
  5
BC62
  8
OUTLINE
 62
    52
 10
589.2138914129452587
 20
1346.3193597332428908
 30
0.0
 11
589.2138914129452587
 21
1336.3193597332428908
 31
0.0
 12
559.213891412945145
 22
1341.3193597332428908
 32
0.0
 13
559.213891412945145
 23
1341.3193597332428908
 33
0.0
  0
LINE
  5
BC69
  8
OUTLINE
 62
    52
 10
391.0097496462316826
 20
314.0103813294801967
 30
0.0
 11
391.0097496462316826
 21
1010.9472900825020361
 31
0.0
  0
LINE
  5
BC6B
  8
OUTLINE
 62
    52
 10
391.0097496462316826
 20
348.2274022797208772
 30
0.0
 11
966.39695051502963
 21
348.2274022797208772
 31
0.0
  0
LINE
  5
BC6C
  8
OUTLINE
 62
    52
 10
1881.0098656695429327
 20
348.2274022797208772
 30
0.0
 11
1450.6826648007449876
 21
348.2274022797208772
 31
0.0
  0
SOLID
  5
BC6D
  8
OUTLINE
 62
    52
 10
421.0097496462315121
 20
353.2274022797209909
 30
0.0
 11
421.0097496462315121
 21
343.2274022797208772
 31
0.0
 12
391.0097496462316826
 22
348.2274022797208772
 32
0.0
 13
391.0097496462316826
 23
348.2274022797208772
 33
0.0
  0
SOLID
  5
BC6E
  8
OUTLINE
 62
    52
 10
1881.0098656695429327
 20
353.2274022797209909
 30
0.0
 11
1881.0098656695429327
 21
343.2274022797208772
 31
0.0
 12
1911.0098656695429327
 22
348.2274022797208772
 32
0.0
 13
1911.0098656695429327
 23
348.2274022797208772
 33
0.0
  0
LINE
  5
BC70
  8
OUTLINE
 62
    52
 10
2267.8098656695451609
 20
314.0103813294801967
 30
0.0
 11
2267.8098656695451609
 21
1010.9472900825020361
 31
0.0
  0
LINE
  5
BC72
  8
OUTLINE
 62
    52
 10
2237.8098656695451609
 20
348.2274022797208772
 30
0.0
 11
1941.0098656695429327
 21
348.2274022797208772
 31
0.0
  0
INSERT
  5
BC73
  8
TEXT
  6
CONTINUOUS
  2
*U43
 10
121.2702490812353062
 20
0.0
 30
0.0
  0
SOLID
  5
BC74
  8
OUTLINE
 62
    52
 10
2237.8098656695451609
 20
353.2274022797209909
 30
0.0
 11
2237.8098656695451609
 21
343.2274022797208772
 31
0.0
 12
2267.8098656695451609
 22
348.2274022797208772
 32
0.0
 13
2267.8098656695451609
 23
348.2274022797208772
 33
0.0
  0
SOLID
  5
BC75
  8
OUTLINE
 62
    52
 10
1941.0098656695429327
 20
353.2274022797209909
 30
0.0
 11
1941.0098656695429327
 21
343.2274022797208772
 31
0.0
 12
1911.0098656695429327
 22
348.2274022797208772
 32
0.0
 13
1911.0098656695429327
 23
348.2274022797208772
 33
0.0
  0
LINE
  5
BC77
  8
OUTLINE
  6
CONTINUOUS
 10
1972.8753962687680996
 20
2167.7680127123780949
 30
0.0
 11
1972.8753962687680996
 21
2207.7680127123799139
 31
0.0
  0
LINE
  5
BC78
  8
OUTLINE
  6
CONTINUOUS
 10
1924.8753962687680996
 20
2167.7680127123790044
 30
0.0
 11
1924.8753962687680996
 21
2207.7680127123808234
 31
0.0
  0
LINE
  5
BC79
  8
OUTLINE
  6
CONTINUOUS
 10
1972.8753962687680996
 20
2207.7680127123799139
 30
0.0
 11
1924.8753962687680996
 21
2207.7680127123808234
 31
0.0
  0
CIRCLE
  5
BC7A
  8
OUTLINE
  6
CONTINUOUS
 10
1948.8753962687680996
 20
2187.7680127123799139
 30
0.0
 40
9.5
  0
LINE
  5
BC7B
  8
OUTLINE
 62
    52
 10
350.874436132627693
 20
2227.7680127123799139
 30
0.0
 11
350.874436132627693
 21
2460.8419110951590483
 31
0.0
  0
LINE
  5
BC7C
  8
OUTLINE
 62
    52
 10
1948.8753962687680996
 20
2227.7680127123799139
 30
0.0
 11
1948.8753962687680996
 21
2460.8419110951590483
 31
0.0
  0
LINE
  5
BC7D
  8
OUTLINE
 62
    52
 10
350.874436132627693
 20
2440.8419110951590483
 30
0.0
 11
966.5170590578409247
 21
2440.8419110951590483
 31
0.0
  0
LINE
  5
BC7E
  8
OUTLINE
 62
    52
 10
1918.8753962687669627
 20
2440.8419110951590483
 30
0.0
 11
1450.802773343554918
 21
2440.8419110951590483
 31
0.0
  0
SOLID
  5
BC80
  8
OUTLINE
 62
    52
 10
1918.8753962687669627
 20
2445.8419110951590483
 30
0.0
 11
1918.8753962687669627
 21
2435.8419110951590483
 31
0.0
 12
1948.8753962687680996
 22
2440.8419110951590483
 32
0.0
 13
1948.8753962687680996
 23
2440.8419110951590483
 33
0.0
  0
LINE
  5
BC82
  8
OUTLINE
 62
    52
 10
1948.8753962687680996
 20
2227.7680127123799139
 30
0.0
 11
1948.8753962687680996
 21
2460.8419110951590483
 31
0.0
  0
LINE
  5
BC83
  8
OUTLINE
 62
    52
 10
2267.8098656695451609
 20
2227.7680127123808234
 30
0.0
 11
2267.8098656695451609
 21
2460.8419110951590483
 31
0.0
  0
LINE
  5
BC84
  8
OUTLINE
 62
    52
 10
1978.8753962687680996
 20
2440.8419110951590483
 30
0.0
 11
2237.8098656695451609
 21
2440.8419110951590483
 31
0.0
  0
SOLID
  5
BC85
  8
OUTLINE
 62
    52
 10
1978.8753962687680996
 20
2445.8419110951590483
 30
0.0
 11
1978.8753962687680996
 21
2435.8419110951590483
 31
0.0
 12
1948.8753962687680996
 22
2440.8419110951590483
 32
0.0
 13
1948.8753962687680996
 23
2440.8419110951590483
 33
0.0
  0
SOLID
  5
BC86
  8
OUTLINE
 62
    52
 10
2237.8098656695451609
 20
2445.8419110951590483
 30
0.0
 11
2237.8098656695451609
 21
2435.8419110951590483
 31
0.0
 12
2267.8098656695451609
 22
2440.8419110951590483
 32
0.0
 13
2267.8098656695451609
 23
2440.8419110951590483
 33
0.0
  0
INSERT
  5
BC87
  8
TEXT
  6
CONTINUOUS
  2
*U45
 10
103.7311569248285963
 20
0.0
 30
0.0
  0
LINE
  5
BCD4
  8
OUTLINE
  6
CONTINUOUS
 10
3433.6971951413670467
 20
1042.344730726797934
 30
0.0
 11
3470.6971951413688657
 21
1042.344730726797934
 31
0.0
  0
LINE
  5
BCD7
  8
OUTLINE
  6
CONTINUOUS
 10
3494.9971951413649549
 20
1021.1478700448419659
 30
0.0
 11
3494.9971951413649549
 21
553.5478700448423979
 31
0.0
  0
LINE
  5
BCD8
  8
OUTLINE
  6
CONTINUOUS
 10
3509.9971951413667739
 20
1021.1478700448419659
 30
0.0
 11
3509.9971951413667739
 21
553.5478700448423979
 31
0.0
  0
LINE
  5
BCD9
  8
OUTLINE
  6
CONTINUOUS
 10
3404.3971951413668648
 20
1021.1478700448419659
 30
0.0
 11
3549.1971951413670467
 21
1021.1478700448419659
 31
0.0
  0
LINE
  5
BCDF
  8
OUTLINE
  6
CONTINUOUS
 10
3404.3971951413677743
 20
553.5478700448423979
 30
0.0
 11
3549.1971951413670467
 21
553.5478700448423979
 31
0.0
  0
LINE
  5
BCE6
  8
OUTLINE
  6
CONTINUOUS
 10
3549.1971951413670467
 20
1021.1478700448419659
 30
0.0
 11
3549.1971951413670467
 21
553.5478700448423979
 31
0.0
  0
LINE
  5
BD00
  8
OUTLINE
 62
    52
 10
3077.5971951413671377
 20
995.5447307267958195
 30
0.0
 11
3010.105205653961093
 21
995.5447307267958195
 31
0.0
  0
LINE
  5
BD01
  8
OUTLINE
 62
    52
 10
3077.5971951413671377
 20
1085.5447307267959332
 30
0.0
 11
3010.105205653961093
 21
1085.5447307267959332
 31
0.0
  0
LINE
  5
BD02
  8
OUTLINE
 62
    52
 10
3030.105205653962912
 20
965.5447307267954784
 30
0.0
 11
3030.105205653962912
 21
935.5447307267955921
 31
0.0
  0
LINE
  5
BD03
  8
OUTLINE
 62
    52
 10
3030.105205653962912
 20
1120.54473072679707
 30
0.0
 11
3030.105205653962912
 21
1150.5447307267959332
 31
0.0
  0
INSERT
  5
BD04
  8
TEXT
  6
CONTINUOUS
  2
*U46
 10
47.7731316259559975
 20
0.0
 30
0.0
  0
SOLID
  5
BD05
  8
OUTLINE
 62
    52
 10
3025.105205653961093
 20
965.5447307267954784
 30
0.0
 11
3035.105205653961093
 21
965.5447307267954784
 31
0.0
 12
3030.105205653962912
 22
995.5447307267958195
 32
0.0
 13
3030.105205653962912
 23
995.5447307267958195
 33
0.0
  0
SOLID
  5
BD06
  8
OUTLINE
 62
    52
 10
3025.105205653961093
 20
1115.5447307267959332
 30
0.0
 11
3035.105205653961093
 21
1115.5447307267959332
 31
0.0
 12
3030.105205653962912
 22
1085.5447307267959332
 32
0.0
 13
3030.105205653962912
 23
1085.5447307267959332
 33
0.0
  0
LINE
  5
BD07
  8
OUTLINE
 62
    52
 10
3117.5971951413671377
 20
1085.5447307267959332
 30
0.0
 11
3171.7383126665317832
 21
1085.5447307267959332
 31
0.0
  0
LINE
  5
BD09
  8
OUTLINE
 62
    52
 10
3151.7383126665331474
 20
1055.5447307267959332
 30
0.0
 11
3151.7383126665331474
 21
1025.5447307267959332
 31
0.0
  0
LINE
  5
BD0A
  8
OUTLINE
 62
    52
 10
3151.7383126665331474
 20
1160.5447307267959332
 30
0.0
 11
3151.7383126665331474
 21
1190.5447307267959332
 31
0.0
  0
INSERT
  5
BD0B
  8
TEXT
  6
CONTINUOUS
  2
*U47
 10
47.7731316259559975
 20
0.0
 30
0.0
  0
SOLID
  5
BD0C
  8
OUTLINE
 62
    52
 10
3146.7383126665317832
 20
1055.5447307267959332
 30
0.0
 11
3156.7383126665317832
 21
1055.5447307267959332
 31
0.0
 12
3151.7383126665331474
 22
1085.5447307267959332
 32
0.0
 13
3151.7383126665331474
 23
1085.5447307267959332
 33
0.0
  0
SOLID
  5
BD0D
  8
OUTLINE
 62
    52
 10
3146.7383126665317832
 20
1160.5447307267959332
 30
0.0
 11
3156.7383126665317832
 21
1160.5447307267959332
 31
0.0
 12
3151.7383126665331474
 22
1130.5447307267959332
 32
0.0
 13
3151.7383126665331474
 23
1130.5447307267959332
 33
0.0
  0
LINE
  5
BD0E
  8
OUTLINE
 62
    52
 10
2661.7284493158608711
 20
1004.1447307267750375
 30
0.0
 11
2553.1683442004327844
 21
1004.144730726775947
 31
0.0
  0
LINE
  5
BD10
  8
OUTLINE
 62
    52
 10
2573.1683442004341487
 20
974.1447307267758333
 30
0.0
 11
2573.1683442004341487
 21
944.1447307267758333
 31
0.0
  0
LINE
  5
BD11
  8
OUTLINE
 62
    52
 10
2573.1683442004341487
 20
1160.54473072679707
 30
0.0
 11
2573.1683442004341487
 21
1190.54473072679707
 31
0.0
  0
SOLID
  5
BD12
  8
OUTLINE
 62
    52
 10
2568.1683442004341487
 20
974.1447307267758333
 30
0.0
 11
2578.1683442004327844
 21
974.1447307267758333
 31
0.0
 12
2573.1683442004341487
 22
1004.144730726775947
 32
0.0
 13
2573.1683442004341487
 23
1004.144730726775947
 33
0.0
  0
SOLID
  5
BD13
  8
OUTLINE
 62
    52
 10
2568.1683442004341487
 20
1160.54473072679707
 30
0.0
 11
2578.1683442004327844
 21
1160.54473072679707
 31
0.0
 12
2573.1683442004341487
 22
1130.54473072679707
 32
0.0
 13
2573.1683442004341487
 23
1130.54473072679707
 33
0.0
  0
INSERT
  5
BD14
  8
TEXT
  6
CONTINUOUS
  2
*U48
 10
47.7731316259559975
 20
0.0
 30
0.0
  0
LINE
  5
BD1E
  8
OUTLINE
  6
CONTINUOUS
 10
2673.3971951413659554
 20
704.1447307267768565
 30
0.0
 11
2698.9971951413667739
 21
704.1447307267768565
 31
0.0
  0
LINE
  5
BD22
  8
OUTLINE
 62
    52
 10
3585.1484918108772035
 20
1008.0478700448429663
 30
0.0
 11
3585.1484918108772035
 21
978.0478700448431937
 31
0.0
  0
LINE
  5
BD28
  8
OUTLINE
 62
    52
 10
3585.1484918108772035
 20
568.0478700448423979
 30
0.0
 11
3585.1484918108772035
 21
730.776441473414252
 31
0.0
  0
LINE
  5
BD29
  8
OUTLINE
 62
    52
 10
3585.1484918108772035
 20
1008.0478700448429663
 30
0.0
 11
3585.1484918108772035
 21
847.9192986162707939
 31
0.0
  0
SOLID
  5
BD2A
  8
OUTLINE
 62
    52
 10
3579.8544028139940565
 20
583.9204586214758592
 30
0.0
 11
3589.854402813993147
 21
583.9204586214758592
 31
0.0
 12
3584.8544028139940565
 22
553.9204586214756318
 32
0.0
 13
3584.8544028139940565
 23
553.9204586214756318
 33
0.0
  0
SOLID
  5
BD2B
  8
OUTLINE
 62
    52
 10
3580.4416725195401341
 20
991.6386078473324233
 30
0.0
 11
3590.4416725195410436
 21
991.6386078473324233
 31
0.0
 12
3585.4416725195401341
 22
1021.6386078473319685
 32
0.0
 13
3585.4416725195401341
 23
1021.6386078473319685
 33
0.0
  0
LINE
  5
BD2D
  8
OUTLINE
  6
CONTINUOUS
 10
389.3798656695666978
 20
2285.1680127123809143
 30
0.0
 11
1906.3798656695669251
 21
2285.1680127123809143
 31
0.0
  0
LINE
  5
BD31
  8
OUTLINE
 10
389.3798656695666978
 20
2285.1680127123809143
 30
0.0
 11
389.3798656695666978
 21
2167.7680127123799139
 31
0.0
  0
LINE
  5
BD33
  8
OUTLINE
 10
1906.3798656695669251
 20
2285.1680127123809143
 30
0.0
 11
1906.3798656695669251
 21
2167.7680127123790044
 31
0.0
  0
LINE
  5
BD38
  8
OUTLINE
 62
    52
 10
285.2098656695642944
 20
2156.5324704684198878
 30
0.0
 11
285.2098656695642944
 21
2371.496049490806854
 31
0.0
  0
LINE
  5
BD39
  8
OUTLINE
 62
    52
 10
404.3798656695666978
 20
2351.496049490806854
 30
0.0
 11
429.7798656695666182
 21
2351.496049490806854
 31
0.0
  0
LINE
  5
BD3A
  8
OUTLINE
 62
    52
 10
255.2098656695644081
 20
2351.496049490806854
 30
0.0
 11
225.2098656695642944
 21
2351.496049490806854
 31
0.0
  0
INSERT
  5
BD3B
  8
TEXT
  6
CONTINUOUS
  2
*U51
 10
0.0
 20
0.0
 30
0.0
  0
SOLID
  5
BD3D
  8
OUTLINE
 62
    52
 10
255.2098656695644081
 20
2356.4960494908059445
 30
0.0
 11
255.2098656695644081
 21
2346.4960494908082183
 31
0.0
 12
285.2098656695642944
 22
2351.496049490806854
 32
0.0
 13
285.2098656695642944
 23
2351.496049490806854
 33
0.0
  0
LINE
  5
BD40
  8
OUTLINE
 62
    52
 10
404.3798656695666978
 20
2351.496049490806854
 30
0.0
 11
1060.3239237750628945
 21
2351.496049490806854
 31
0.0
  0
LINE
  5
BD41
  8
OUTLINE
 62
    52
 10
1891.3798656695669251
 20
2351.496049490806854
 30
0.0
 11
1186.0863162599009684
 21
2351.496049490806854
 31
0.0
  0
SOLID
  5
BD42
  8
OUTLINE
 62
    52
 10
419.6306017819056819
 20
2357.0712387969838346
 30
0.0
 11
419.6306017819056819
 21
2347.0712387969851989
 31
0.0
 12
389.6306017819056819
 22
2352.0712387969838346
 32
0.0
 13
389.6306017819056819
 23
2352.0712387969838346
 33
0.0
  0
SOLID
  5
BD43
  8
OUTLINE
 62
    52
 10
1876.0815426189599293
 20
2356.4960494908059445
 30
0.0
 11
1876.0815426189599293
 21
2346.4960494908082183
 31
0.0
 12
1906.0815426189599293
 22
2351.496049490806854
 32
0.0
 13
1906.0815426189599293
 23
2351.496049490806854
 33
0.0
  0
LINE
  5
BD47
  8
OUTLINE
 62
    52
 10
2762.5971951413671377
 20
1150.54473072679707
 30
0.0
 11
2762.5971951413671377
 21
1244.6268409387109841
 31
0.0
  0
LINE
  5
BD48
  8
OUTLINE
 62
    52
 10
3097.5971951413671377
 20
1105.5447307267959332
 30
0.0
 11
3097.5971951413671377
 21
1244.6268409387109841
 31
0.0
  0
LINE
  5
BD49
  8
OUTLINE
 62
    52
 10
2792.5971951413671377
 20
1224.6268409387109841
 30
0.0
 11
2871.5257665699368772
 21
1224.6268409387109841
 31
0.0
  0
LINE
  5
BD4A
  8
OUTLINE
 62
    52
 10
3067.5971951413671377
 20
1224.6268409387109841
 30
0.0
 11
2988.6686237127969434
 21
1224.6268409387109841
 31
0.0
  0
SOLID
  5
BD4B
  8
OUTLINE
 62
    52
 10
2792.5971951413671377
 20
1229.6268409387109841
 30
0.0
 11
2792.5971951413671377
 21
1219.6268409387100746
 31
0.0
 12
2762.5971951413671377
 22
1224.6268409387109841
 32
0.0
 13
2762.5971951413671377
 23
1224.6268409387109841
 33
0.0
  0
SOLID
  5
BD4C
  8
OUTLINE
 62
    52
 10
3067.5971951413671377
 20
1229.6268409387109841
 30
0.0
 11
3067.5971951413671377
 21
1219.6268409387100746
 31
0.0
 12
3097.5971951413671377
 22
1224.6268409387109841
 32
0.0
 13
3097.5971951413671377
 23
1224.6268409387109841
 33
0.0
  0
INSERT
  5
BD4D
  8
TEXT
  6
CONTINUOUS
  2
*U53
 10
47.7731316259559975
 20
0.0
 30
0.0
  0
LINE
  5
BD50
  8
DIM
 10
3460.4790850695280824
 20
786.9006245550488075
 30
0.0
 11
3480.3232638623339881
 21
786.9006245550488075
 31
0.0
  0
LINE
  5
BD51
  8
DIM
 10
3460.4790850695280824
 20
770.5640733718662432
 30
0.0
 11
3460.4790850695280824
 21
786.9006245550488075
 31
0.0
  0
LINE
  5
BD52
  8
DIM
 10
3423.6222933441040368
 20
794.4990204542013998
 30
0.0
 11
3460.4790850695280824
 21
770.5640733718662432
 31
0.0
  0
LINE
  5
BD53
  8
DIM
 10
3480.3232638623339881
 20
802.0974163533561523
 30
0.0
 11
3480.3232638623339881
 21
786.9006245550488075
 31
0.0
  0
LINE
  5
BD54
  8
DIM
 10
3460.4790850695280824
 20
802.0974163533561523
 30
0.0
 11
3480.3232638623339881
 21
802.0974163533561523
 31
0.0
  0
LINE
  5
BD55
  8
DIM
 10
3460.4790850695280824
 20
818.433967536535647
 30
0.0
 11
3460.4790850695280824
 21
802.0974163533561523
 31
0.0
  0
LINE
  5
BD56
  8
DIM
 10
3423.6222933441040368
 20
794.4990204542013998
 30
0.0
 11
3460.4790850695280824
 21
818.433967536535647
 31
0.0
  0
LINE
  5
BD57
  8
DIM
 10
2747.3200932803579235
 20
841.8098235694114919
 30
0.0
 11
2767.1642720731629197
 21
841.8098235694114919
 31
0.0
  0
LINE
  5
BD58
  8
DIM
 10
2747.3200932803579235
 20
825.4732723862305193
 30
0.0
 11
2747.3200932803579235
 21
841.8098235694114919
 31
0.0
  0
LINE
  5
BD59
  8
DIM
 10
2710.4633015549347874
 20
849.408219468564198
 30
0.0
 11
2747.3200932803579235
 21
825.4732723862305193
 31
0.0
  0
LINE
  5
BD5A
  8
DIM
 10
2767.1642720731629197
 20
857.0066153677187231
 30
0.0
 11
2767.1642720731629197
 21
841.8098235694114919
 31
0.0
  0
LINE
  5
BD5B
  8
DIM
 10
2747.3200932803579235
 20
857.0066153677187231
 30
0.0
 11
2767.1642720731629197
 21
857.0066153677187231
 31
0.0
  0
LINE
  5
BD5C
  8
DIM
 10
2747.3200932803579235
 20
873.3431665508991273
 30
0.0
 11
2747.3200932803579235
 21
857.0066153677187231
 31
0.0
  0
LINE
  5
BD5D
  8
DIM
 10
2710.4633015549347874
 20
849.408219468564198
 30
0.0
 11
2747.3200932803579235
 21
873.3431665508991273
 31
0.0
  0
LINE
  5
BD60
  8
OUTLINE
  6
CONTINUOUS
 10
2779.7971951413660463
 20
1038.339812108795968
 30
0.0
 11
2724.7971951413660463
 21
1038.339812108795968
 31
0.0
  0
LINE
  5
BD61
  8
OUTLINE
  6
CONTINUOUS
 10
2779.7971951413660463
 20
1030.339812108795968
 30
0.0
 11
2724.7971951413660463
 21
1030.339812108795968
 31
0.0
  0
ARC
  5
BD62
  8
OUTLINE
  6
CONTINUOUS
 10
2760.2971951413660463
 20
1027.339812108795968
 30
0.0
 40
3.0
 50
0.0
 51
90.0
  0
LINE
  5
BD63
  8
OUTLINE
  6
CONTINUOUS
 10
2744.7971951413660463
 20
1030.339812108795968
 30
0.0
 11
2744.7971951413660463
 21
1023.339812108795968
 31
0.0
  0
ARC
  5
BD64
  8
OUTLINE
  6
CONTINUOUS
 10
2729.2971951413660463
 20
1027.339812108795968
 30
0.0
 40
3.0
 50
90.0
 51
180.0
  0
LINE
  5
BD65
  8
OUTLINE
  6
CONTINUOUS
 10
2724.7971951413660463
 20
1038.339812108795968
 30
0.0
 11
2724.7971951413660463
 21
1030.339812108795968
 31
0.0
  0
LINE
  5
BD66
  8
OUTLINE
  6
CONTINUOUS
 10
2729.2971951413660463
 20
1030.339812108795968
 30
0.0
 11
2760.2971951413660463
 21
1030.339812108795968
 31
0.0
  0
LINE
  5
BD67
  8
OUTLINE
  6
CONTINUOUS
 10
2763.2971951413660463
 20
1027.339812108795968
 30
0.0
 11
2763.2971951413660463
 21
1023.339812108795968
 31
0.0
  0
LINE
  5
BD68
  8
OUTLINE
  6
CONTINUOUS
 10
2726.2971951413660463
 20
1027.339812108795968
 30
0.0
 11
2726.2971951413660463
 21
1023.339812108795968
 31
0.0
  0
LINE
  5
BD69
  8
OUTLINE
  6
CONTINUOUS
 10
2763.2971951413660463
 20
1023.339812108795968
 30
0.0
 11
2726.2971951413660463
 21
1023.339812108795968
 31
0.0
  0
LINE
  5
BD6A
  8
OUTLINE
  6
CONTINUOUS
 10
2781.7971951413660463
 20
1100.339812108795968
 30
0.0
 11
2781.7971951413660463
 21
1040.339812108795968
 31
0.0
  0
LINE
  5
BD6B
  8
OUTLINE
  6
CONTINUOUS
 10
2789.7971951413660463
 20
1100.339812108795968
 30
0.0
 11
2789.7971951413660463
 21
1040.339812108795968
 31
0.0
  0
ARC
  5
BD6D
  8
OUTLINE
  6
CONTINUOUS
 10
2779.7971951413660463
 20
1040.339812108795968
 30
0.0
 40
10.0
 50
270.0
 51
0.0
  0
ARC
  5
BD6E
  8
OUTLINE
  6
CONTINUOUS
 10
2779.7971951413660463
 20
1040.339812108795968
 30
0.0
 40
2.0
 50
270.0
 51
0.0
  0
LINE
  5
BD6F
  8
OUTLINE
  6
CONTINUOUS
 10
3417.1971951413688657
 20
1057.344730726797934
 30
0.0
 11
3472.1971951413688657
 21
1057.344730726797934
 31
0.0
  0
LINE
  5
BD70
  8
OUTLINE
  6
CONTINUOUS
 10
3417.1971951413688657
 20
1049.344730726797934
 30
0.0
 11
3472.1971951413688657
 21
1049.344730726797934
 31
0.0
  0
ARC
  5
BD71
  8
OUTLINE
  6
CONTINUOUS
 10
3436.6971951413679562
 20
1046.344730726797934
 30
0.0
 40
3.0
 50
90.0
 51
180.0
  0
LINE
  5
BD72
  8
OUTLINE
  6
CONTINUOUS
 10
3452.1971951413679562
 20
1049.344730726797934
 30
0.0
 11
3452.1971951413679562
 21
1042.344730726797934
 31
0.0
  0
ARC
  5
BD73
  8
OUTLINE
  6
CONTINUOUS
 10
3467.6971951413688657
 20
1046.344730726797934
 30
0.0
 40
3.0
 50
0.0
 51
90.0
  0
LINE
  5
BD74
  8
OUTLINE
  6
CONTINUOUS
 10
3472.1971951413688657
 20
1057.344730726797934
 30
0.0
 11
3472.1971951413688657
 21
1049.344730726797934
 31
0.0
  0
LINE
  5
BD75
  8
OUTLINE
  6
CONTINUOUS
 10
3467.6971951413688657
 20
1049.344730726797934
 30
0.0
 11
3436.6971951413679562
 21
1049.344730726797934
 31
0.0
  0
LINE
  5
BD76
  8
OUTLINE
  6
CONTINUOUS
 10
3433.6971951413697752
 20
1046.344730726797934
 30
0.0
 11
3433.6971951413697752
 21
1042.344730726797934
 31
0.0
  0
LINE
  5
BD77
  8
OUTLINE
  6
CONTINUOUS
 10
3470.6971951413688657
 20
1046.344730726797934
 30
0.0
 11
3470.6971951413688657
 21
1042.344730726797934
 31
0.0
  0
LINE
  5
BD78
  8
OUTLINE
  6
CONTINUOUS
 10
3433.6971951413697752
 20
1042.344730726797934
 30
0.0
 11
3470.6971951413688657
 21
1042.344730726797934
 31
0.0
  0
LINE
  5
BD79
  8
OUTLINE
  6
CONTINUOUS
 10
3415.1971951413688657
 20
1119.344730726797934
 30
0.0
 11
3415.1971951413688657
 21
1059.344730726797934
 31
0.0
  0
LINE
  5
BD7A
  8
OUTLINE
  6
CONTINUOUS
 10
3407.1971951413688657
 20
1119.344730726797934
 30
0.0
 11
3407.1971951413688657
 21
1059.344730726797934
 31
0.0
  0
ARC
  5
BD7C
  8
OUTLINE
  6
CONTINUOUS
 10
3417.1971951413688657
 20
1059.344730726797934
 30
0.0
 40
10.0
 50
180.0
 51
270.0
  0
ARC
  5
BD7D
  8
OUTLINE
  6
CONTINUOUS
 10
3417.1971951413688657
 20
1059.344730726797934
 30
0.0
 40
2.0
 50
180.0
 51
270.0
  0
LINE
  5
BD7E
  8
OUTLINE
  6
CONTINUOUS
 10
2914.8971951413677743
 20
955.1447307267967517
 30
0.0
 11
3280.8971951413668648
 21
955.1447307267967517
 31
0.0
  0
LINE
  5
BD7F
  8
OUTLINE
  6
CONTINUOUS
 10
3280.8971951413668648
 20
955.1447307267967517
 30
0.0
 11
3280.8971951413668648
 21
589.1447307267967517
 31
0.0
  0
LINE
  5
BD80
  8
OUTLINE
  6
CONTINUOUS
 10
3280.8971951413668648
 20
589.1447307267967517
 30
0.0
 11
2914.8971951413677743
 21
589.1447307267967517
 31
0.0
  0
LINE
  5
BD81
  8
OUTLINE
  6
CONTINUOUS
 10
2914.8971951413677743
 20
589.1447307267967517
 30
0.0
 11
2914.8971951413677743
 21
955.1447307267967517
 31
0.0
  0
ARC
  5
BF0C
  8
OUTLINE
  6
CONTINUOUS
 10
1943.2753962687900184
 20
2155.2680127124058345
 30
0.0
 40
6.0
 50
90.0
 51
270.0
  0
ARC
  5
BF0D
  8
OUTLINE
  6
CONTINUOUS
 10
1951.2753962687900184
 20
2155.2680127124058345
 30
0.0
 40
6.0
 50
270.0
 51
90.0
  0
LINE
  5
BF0E
  8
OUTLINE
  6
CONTINUOUS
 10
1943.2753962687900184
 20
2161.268012712404925
 30
0.0
 11
1951.2753962687900184
 21
2161.268012712404925
 31
0.0
  0
LINE
  5
BF0F
  8
OUTLINE
  6
CONTINUOUS
 10
1951.2753962687900184
 20
2149.268012712404925
 30
0.0
 11
1943.2753962687900184
 21
2149.268012712404925
 31
0.0
  0
LINE
  5
BF10
  8
OUTLINE
  6
CONTINUOUS
 10
1913.4098656695880436
 20
1515.0680127123550847
 30
0.0
 11
1905.4098656695880436
 21
1515.0680127123550847
 31
0.0
  0
LINE
  5
BF11
  8
OUTLINE
  6
CONTINUOUS
 10
2270.2098656695898171
 20
1515.0680127123550847
 30
0.0
 11
2262.2098656695889076
 21
1515.0680127123550847
 31
0.0
  0
LINE
  5
BF12
  8
OUTLINE
  6
CONTINUOUS
 10
2293.8162250894270073
 20
1430.5680127123800958
 30
0.0
 11
2293.8162250894270073
 21
1497.7680127123799139
 31
0.0
  0
LINE
  5
BF13
  8
OUTLINE
  6
CONTINUOUS
 10
2338.6098656695658065
 20
1522.7680127123799139
 30
0.0
 11
288.6098656695704108
 21
1522.7680127123780949
 31
0.0
  0
LINE
  5
BF14
  8
DIM
 10
1389.2686130689180573
 20
2043.4395323464589183
 30
0.0
 11
1389.2686130689180573
 21
2063.2837111392609586
 31
0.0
  0
LINE
  5
BF15
  8
DIM
 10
1405.6051642521010763
 20
2043.4395323464589183
 30
0.0
 11
1389.2686130689180573
 21
2043.4395323464589183
 31
0.0
  0
LINE
  5
BF16
  8
DIM
 10
1381.670217169767966
 20
2004.8827406210339177
 30
0.0
 11
1405.6051642521010763
 21
2043.4395323464589183
 31
0.0
  0
LINE
  5
BF17
  8
DIM
 10
1374.0718212706130998
 20
2063.2837111392609586
 30
0.0
 11
1389.2686130689180573
 21
2063.2837111392609586
 31
0.0
  0
LINE
  5
BF18
  8
DIM
 10
1374.0718212706130998
 20
2043.4395323464589183
 30
0.0
 11
1374.0718212706130998
 21
2063.2837111392609586
 31
0.0
  0
LINE
  5
BF19
  8
DIM
 10
1357.7352700874318998
 20
2043.4395323464589183
 30
0.0
 11
1374.0718212706130998
 21
2043.4395323464589183
 31
0.0
  0
LINE
  5
BF1A
  8
DIM
 10
1381.670217169767966
 20
2004.8827406210339177
 30
0.0
 11
1357.7352700874318998
 21
2043.4395323464589183
 31
0.0
  0
LINE
  5
BF1B
  8
DIM
 10
823.6960554792512994
 20
2043.4395323464589183
 30
0.0
 11
823.6960554792512994
 21
2063.2837111392609586
 31
0.0
  0
LINE
  5
BF1C
  8
DIM
 10
840.0326066624320447
 20
2043.4395323464589183
 30
0.0
 11
823.6960554792512994
 21
2043.4395323464589183
 31
0.0
  0
LINE
  5
BF1D
  8
DIM
 10
816.0976595800979112
 20
2004.8827406210339177
 30
0.0
 11
840.0326066624320447
 21
2043.4395323464589183
 31
0.0
  0
LINE
  5
BF1E
  8
DIM
 10
808.4992636809430451
 20
2063.2837111392609586
 30
0.0
 11
823.6960554792512994
 21
2063.2837111392609586
 31
0.0
  0
LINE
  5
BF1F
  8
DIM
 10
808.4992636809430451
 20
2043.4395323464589183
 30
0.0
 11
808.4992636809430451
 21
2063.2837111392609586
 31
0.0
  0
LINE
  5
BF20
  8
DIM
 10
792.1627124977628682
 20
2043.4395323464589183
 30
0.0
 11
808.4992636809430451
 21
2043.4395323464589183
 31
0.0
  0
LINE
  5
BF21
  8
DIM
 10
816.0976595800979112
 20
2004.8827406210339177
 30
0.0
 11
792.1627124977628682
 21
2043.4395323464589183
 31
0.0
  0
LINE
  5
BF22
  8
DIM
 10
1389.2686130689180573
 20
1600.4032030727100846
 30
0.0
 11
1389.2686130689180573
 21
1620.2473818655130344
 31
0.0
  0
LINE
  5
BF23
  8
DIM
 10
1405.6051642521010763
 20
1600.4032030727100846
 30
0.0
 11
1389.2686130689180573
 21
1600.4032030727100846
 31
0.0
  0
LINE
  5
BF24
  8
DIM
 10
1381.670217169767966
 20
1563.5464113472830832
 30
0.0
 11
1405.6051642521010763
 21
1600.4032030727100846
 31
0.0
  0
LINE
  5
BF25
  8
DIM
 10
1374.0718212706130998
 20
1620.2473818655130344
 30
0.0
 11
1389.2686130689180573
 21
1620.2473818655130344
 31
0.0
  0
LINE
  5
BF26
  8
DIM
 10
1374.0718212706130998
 20
1600.4032030727100846
 30
0.0
 11
1374.0718212706130998
 21
1620.2473818655130344
 31
0.0
  0
LINE
  5
BF27
  8
DIM
 10
1357.7352700874318998
 20
1600.4032030727100846
 30
0.0
 11
1374.0718212706130998
 21
1600.4032030727100846
 31
0.0
  0
LINE
  5
BF28
  8
DIM
 10
1381.670217169767966
 20
1563.5464113472830832
 30
0.0
 11
1357.7352700874318998
 21
1600.4032030727100846
 31
0.0
  0
LINE
  5
BF29
  8
DIM
 10
823.6960554792512994
 20
1600.4032030727100846
 30
0.0
 11
823.6960554792512994
 21
1620.2473818655130344
 31
0.0
  0
LINE
  5
BF2A
  8
DIM
 10
840.0326066624320447
 20
1600.4032030727100846
 30
0.0
 11
823.6960554792512994
 21
1600.4032030727100846
 31
0.0
  0
LINE
  5
BF2B
  8
DIM
 10
816.0976595800979112
 20
1563.5464113472830832
 30
0.0
 11
840.0326066624320447
 21
1600.4032030727100846
 31
0.0
  0
LINE
  5
BF2C
  8
DIM
 10
808.4992636809430451
 20
1620.2473818655130344
 30
0.0
 11
823.6960554792512994
 21
1620.2473818655130344
 31
0.0
  0
LINE
  5
BF2D
  8
DIM
 10
808.4992636809430451
 20
1600.4032030727100846
 30
0.0
 11
808.4992636809430451
 21
1620.2473818655130344
 31
0.0
  0
LINE
  5
BF2E
  8
DIM
 10
792.1627124977628682
 20
1600.4032030727100846
 30
0.0
 11
808.4992636809430451
 21
1600.4032030727100846
 31
0.0
  0
LINE
  5
BF2F
  8
DIM
 10
816.0976595800979112
 20
1563.5464113472830832
 30
0.0
 11
792.1627124977628682
 21
1600.4032030727100846
 31
0.0
  0
LINE
  5
BF3A
  8
OUTLINE
 62
    52
 10
359.7798656695667887
 20
2285.1680127123809143
 30
0.0
 11
194.301147485223197
 21
2285.1680127123809143
 31
0.0
  0
LINE
  5
BF3B
  8
OUTLINE
 62
    52
 10
545.4138914129448494
 20
1409.1680127123779585
 30
0.0
 11
194.3011474852229128
 21
1409.1680127123779585
 31
0.0
  0
LINE
  5
BF3C
  8
OUTLINE
 62
    52
 10
212.6658912620225124
 20
2255.1680127123809143
 30
0.0
 11
212.6658912620223987
 21
1950.4680127123790498
 31
0.0
  0
LINE
  5
BF3D
  8
OUTLINE
 62
    52
 10
212.6658912620223134
 20
1439.1680127123779585
 30
0.0
 11
212.6658912620223134
 21
1740.4680127123790498
 31
0.0
  0
SOLID
  5
BF3E
  8
OUTLINE
 62
    52
 10
207.6658912620223987
 20
2255.1680127123809143
 30
0.0
 11
217.6658912620223987
 21
2255.1680127123809143
 31
0.0
 12
212.6658912620225124
 22
2285.1680127123809143
 32
0.0
 13
212.6658912620225124
 23
2285.1680127123809143
 33
0.0
  0
SOLID
  5
BF3F
  8
OUTLINE
 62
    52
 10
207.6658912620223134
 20
1439.1680127123779585
 30
0.0
 11
217.6658912620223987
 21
1439.1680127123779585
 31
0.0
 12
212.6658912620223134
 22
1409.1680127123779585
 32
0.0
 13
212.6658912620223134
 23
1409.1680127123779585
 33
0.0
  0
INSERT
  5
BF40
  8
TEXT
  6
CONTINUOUS
  2
*U54
 10
0.0
 20
0.0
 30
0.0
  0
LINE
  5
BF41
  8
OUTLINE
 62
    52
 10
2324.6098656695671707
 20
2167.7680127123790044
 30
0.0
 11
2438.1384229212171704
 21
2167.7680127123790044
 31
0.0
  0
LINE
  5
BF42
  8
OUTLINE
 62
    52
 10
2324.6098656695671707
 20
1497.7680127123799139
 30
0.0
 11
2438.1384229212171704
 21
1497.7680127123799139
 31
0.0
  0
LINE
  5
BF43
  8
OUTLINE
 62
    52
 10
2421.6514460683861216
 20
2137.7680127123790044
 30
0.0
 11
2421.6514460683861216
 21
1884.9762652771350986
 31
0.0
  0
LINE
  5
BF44
  8
OUTLINE
 62
    52
 10
2421.6514460683861216
 20
1527.7680127123799139
 30
0.0
 11
2421.6514460683861216
 21
1783.3391268951399979
 31
0.0
  0
SOLID
  5
BF45
  8
OUTLINE
 62
    52
 10
2416.6514460683861216
 20
2137.7680127123790044
 30
0.0
 11
2426.6514460683852121
 21
2137.7680127123790044
 31
0.0
 12
2421.6514460683861216
 22
2167.7680127123790044
 32
0.0
 13
2421.6514460683861216
 23
2167.7680127123790044
 33
0.0
  0
SOLID
  5
BF46
  8
OUTLINE
 62
    52
 10
2416.6514460683861216
 20
1527.7680127123799139
 30
0.0
 11
2426.6514460683852121
 21
1527.7680127123799139
 31
0.0
 12
2421.6514460683861216
 22
1497.7680127123799139
 32
0.0
 13
2421.6514460683861216
 23
1497.7680127123799139
 33
0.0
  0
INSERT
  5
BF47
  8
TEXT
  6
CONTINUOUS
  2
*U55
 10
120.002716599337802
 20
0.0
 30
0.0
  0
LINE
  5
BF48
  8
OUTLINE
 62
    52
 10
288.6098656695684781
 20
1512.7680127123790044
 30
0.0
 11
288.6098656695684781
 21
1257.0221285071979764
 31
0.0
  0
LINE
  5
BF49
  8
OUTLINE
 62
    52
 10
2338.6098656695658065
 20
1512.7680127123790044
 30
0.0
 11
2338.6098656695658065
 21
1257.0221285071979764
 31
0.0
  0
LINE
  5
BF4A
  8
OUTLINE
 62
    52
 10
318.6098656695684781
 20
1268.8571919069158866
 30
0.0
 11
1255.8575887309220889
 21
1268.8571919069158866
 31
0.0
  0
LINE
  5
BF4B
  8
OUTLINE
 62
    52
 10
2304.209865669564806
 20
1268.8571919069158866
 30
0.0
 11
1502.7557770904400058
 21
1268.8571919069158866
 31
0.0
  0
SOLID
  5
BF4C
  8
OUTLINE
 62
    52
 10
318.6098656695684781
 20
1273.8571919069158866
 30
0.0
 11
318.6098656695684781
 21
1263.8571919069158866
 31
0.0
 12
288.6098656695684781
 22
1268.8571919069158866
 32
0.0
 13
288.6098656695684781
 23
1268.8571919069158866
 33
0.0
  0
SOLID
  5
BF4D
  8
OUTLINE
 62
    52
 10
2308.609865669564897
 20
1273.8571919069158866
 30
0.0
 11
2308.609865669564897
 21
1263.8571919069158866
 31
0.0
 12
2338.6098656695658065
 22
1268.8571919069158866
 32
0.0
 13
2338.6098656695658065
 23
1268.8571919069158866
 33
0.0
  0
LINE
  5
C0C1
  8
OUTLINE
 62
    52
 10
2744.7971951413660463
 20
1040.339812108795968
 30
0.0
 11
2744.7971951413660463
 21
1351.7436028397330574
 31
0.0
  0
LINE
  5
C0C2
  8
OUTLINE
 62
    52
 10
3452.1971951413679562
 20
1059.344730726797934
 30
0.0
 11
3452.1971951413679562
 21
1351.7436028397330574
 31
0.0
  0
LINE
  5
C0C3
  8
OUTLINE
 62
    52
 10
2774.7971951413660463
 20
1337.2642626080789796
 30
0.0
 11
3422.1971951413679562
 21
1337.2642626080789796
 31
0.0
  0
SOLID
  5
C0C5
  8
OUTLINE
 62
    52
 10
2774.7971951413660463
 20
1342.2642626080798891
 30
0.0
 11
2774.7971951413660463
 21
1332.2642626080780701
 31
0.0
 12
2744.7971951413660463
 22
1337.2642626080789796
 32
0.0
 13
2744.7971951413660463
 23
1337.2642626080789796
 33
0.0
  0
SOLID
  5
C0C6
  8
OUTLINE
 62
    52
 10
3422.1971951413679562
 20
1342.2642626080798891
 30
0.0
 11
3422.1971951413679562
 21
1332.2642626080780701
 31
0.0
 12
3452.1971951413679562
 22
1337.2642626080789796
 32
0.0
 13
3452.1971951413679562
 23
1337.2642626080789796
 33
0.0
  0
INSERT
  5
C0C7
  8
TEXT
  6
CONTINUOUS
  2
*U57
 10
47.7731316259559975
 20
6.098228302919777
 30
0.0
  0
INSERT
  5
C0C8
  8
TEXT
  6
CONTINUOUS
  2
*U58
 10
47.7731316259559975
 20
6.098228302919777
 30
0.0
  0
LINE
  5
C232
  8
OUTLINE
  6
CONTINUOUS
 10
366.0097496462316826
 20
1030.3447307267940687
 30
0.0
 11
416.0097496462316258
 21
1030.3447307267940687
 31
0.0
  0
LINE
  5
C233
  8
OUTLINE
  6
CONTINUOUS
 10
368.5097496462316826
 20
1032.8447307267949782
 30
0.0
 11
413.5097496462316258
 21
1032.8447307267949782
 31
0.0
  0
LINE
  5
C234
  8
OUTLINE
  6
CONTINUOUS
 10
409.5097496462316258
 20
1023.3447307267949782
 30
0.0
 11
372.5097496462316826
 21
1023.3447307267949782
 31
0.0
  0
LINE
  5
C235
  8
OUTLINE
  6
CONTINUOUS
 10
375.5097496462317963
 20
1030.3447307267940687
 30
0.0
 11
406.5097496462316826
 21
1030.3447307267940687
 31
0.0
  0
LINE
  5
C236
  8
OUTLINE
  6
CONTINUOUS
 10
366.0097496462316826
 20
1100.3447307267949782
 30
0.0
 11
416.0097496462316258
 21
1100.3447307267949782
 31
0.0
  0
LINE
  5
C237
  8
OUTLINE
  6
CONTINUOUS
 10
368.5097496462316826
 20
1100.3447307267949782
 30
0.0
 11
368.5097496462316826
 21
1032.8447307267949782
 31
0.0
  0
LINE
  5
C238
  8
OUTLINE
  6
CONTINUOUS
 10
366.0097496462316826
 20
1100.3447307267949782
 30
0.0
 11
366.0097496462316826
 21
1030.3447307267940687
 31
0.0
  0
ARC
  5
C239
  8
OUTLINE
  6
CONTINUOUS
 10
375.5097496462317963
 20
1027.3447307267940687
 30
0.0
 40
3.0
 50
90.0
 51
180.0
  0
LINE
  5
C23A
  8
OUTLINE
  6
CONTINUOUS
 10
372.5097496462316826
 20
1027.3447307267940687
 30
0.0
 11
372.5097496462316826
 21
1023.3447307267949782
 31
0.0
  0
LINE
  5
C23B
  8
OUTLINE
  6
CONTINUOUS
 10
413.5097496462316258
 20
1032.8447307267949782
 30
0.0
 11
413.5097496462316258
 21
1100.3447307267949782
 31
0.0
  0
LINE
  5
C23C
  8
OUTLINE
  6
CONTINUOUS
 10
416.0097496462316258
 20
1030.3447307267940687
 30
0.0
 11
416.0097496462316258
 21
1100.3447307267949782
 31
0.0
  0
LINE
  5
C23D
  8
OUTLINE
  6
CONTINUOUS
 10
409.5097496462316258
 20
1027.3447307267940687
 30
0.0
 11
409.5097496462316258
 21
1023.3447307267949782
 31
0.0
  0
ARC
  5
C23E
  8
OUTLINE
  6
CONTINUOUS
 10
406.5097496462316826
 20
1027.3447307267940687
 30
0.0
 40
3.0
 50
0.0
 51
90.0
  0
LINE
  5
C23F
  8
OUTLINE
  6
CONTINUOUS
 10
391.0097496462316826
 20
1030.3447307267940687
 30
0.0
 11
391.0097496462316826
 21
1023.3447307267949782
 31
0.0
  0
CIRCLE
  5
C240
  8
OUTLINE
  6
CONTINUOUS
 10
391.0097496462316826
 20
1090.3447307267949782
 30
0.0
 40
4.75
  0
CIRCLE
  5
C241
  8
OUTLINE
  6
CONTINUOUS
 10
391.0097496462316826
 20
1060.3447307267949782
 30
0.0
 40
4.75
  0
CIRCLE
  5
C242
  8
OUTLINE
  6
CONTINUOUS
 10
391.0097496462316826
 20
1060.3447307267949782
 30
0.0
 40
4.75
  0
CIRCLE
  5
C243
  8
OUTLINE
  6
CONTINUOUS
 10
391.0097496462316826
 20
1090.3447307267949782
 30
0.0
 40
4.75
  0
LINE
  5
C244
  8
OUTLINE
  6
CONTINUOUS
 10
314.4950595181044264
 20
476.4348816342700275
 30
0.0
 11
314.4870903179689208
 21
507.182386520598925
 31
0.0
  0
LINE
  5
C245
  8
OUTLINE
  6
CONTINUOUS
 10
1886.0098656695420232
 20
959.3447307267974793
 30
0.0
 11
1936.0098656695429327
 21
959.3447307267974793
 31
0.0
  0
LINE
  5
C246
  8
OUTLINE
  6
CONTINUOUS
 10
1888.5098656695440695
 20
961.8447307267977067
 30
0.0
 11
1933.5098656695440695
 21
961.8447307267977067
 31
0.0
  0
LINE
  5
C247
  8
OUTLINE
  6
CONTINUOUS
 10
1929.5098656695440695
 20
952.3447307267974793
 30
0.0
 11
1892.5098656695429327
 21
952.3447307267974793
 31
0.0
  0
LINE
  5
C248
  8
OUTLINE
  6
CONTINUOUS
 10
1895.5098656695429327
 20
959.3447307267974793
 30
0.0
 11
1926.5098656695440695
 21
959.3447307267974793
 31
0.0
  0
LINE
  5
C249
  8
OUTLINE
  6
CONTINUOUS
 10
1886.0098656695420232
 20
1029.3447307267970245
 30
0.0
 11
1936.0098656695429327
 21
1029.3447307267970245
 31
0.0
  0
LINE
  5
C24A
  8
OUTLINE
  6
CONTINUOUS
 10
1888.5098656695440695
 20
1029.3447307267970245
 30
0.0
 11
1888.5098656695440695
 21
961.8447307267977067
 31
0.0
  0
LINE
  5
C24B
  8
OUTLINE
  6
CONTINUOUS
 10
1886.0098656695420232
 20
1029.3447307267970245
 30
0.0
 11
1886.0098656695420232
 21
959.3447307267974793
 31
0.0
  0
ARC
  5
C24C
  8
OUTLINE
  6
CONTINUOUS
 10
1895.5098656695429327
 20
956.344730726797593
 30
0.0
 40
3.0
 50
90.0
 51
180.0
  0
LINE
  5
C24D
  8
OUTLINE
  6
CONTINUOUS
 10
1892.5098656695429327
 20
956.344730726797593
 30
0.0
 11
1892.5098656695429327
 21
952.3447307267974793
 31
0.0
  0
LINE
  5
C24E
  8
OUTLINE
  6
CONTINUOUS
 10
1933.5098656695440695
 20
961.8447307267977067
 30
0.0
 11
1933.5098656695440695
 21
1029.3447307267970245
 31
0.0
  0
LINE
  5
C24F
  8
OUTLINE
  6
CONTINUOUS
 10
1936.0098656695429327
 20
959.3447307267974793
 30
0.0
 11
1936.0098656695429327
 21
1029.3447307267970245
 31
0.0
  0
LINE
  5
C250
  8
OUTLINE
  6
CONTINUOUS
 10
1929.5098656695440695
 20
956.344730726797593
 30
0.0
 11
1929.5098656695440695
 21
952.3447307267974793
 31
0.0
  0
ARC
  5
C251
  8
OUTLINE
  6
CONTINUOUS
 10
1926.5098656695440695
 20
956.344730726797593
 30
0.0
 40
3.0
 50
0.0
 51
90.0
  0
LINE
  5
C252
  8
OUTLINE
  6
CONTINUOUS
 10
1911.0098656695429327
 20
959.3447307267974793
 30
0.0
 11
1911.0098656695429327
 21
952.3447307267974793
 31
0.0
  0
CIRCLE
  5
C253
  8
OUTLINE
  6
CONTINUOUS
 10
1911.0098656695429327
 20
1019.3447307267970245
 30
0.0
 40
4.75
  0
CIRCLE
  5
C254
  8
OUTLINE
  6
CONTINUOUS
 10
1911.0098656695429327
 20
989.344730726797593
 30
0.0
 40
4.75
  0
CIRCLE
  5
C255
  8
OUTLINE
  6
CONTINUOUS
 10
1911.0098656695429327
 20
989.344730726797593
 30
0.0
 40
4.75
  0
CIRCLE
  5
C256
  8
OUTLINE
  6
CONTINUOUS
 10
1911.0098656695429327
 20
1019.3447307267970245
 30
0.0
 40
4.75
  0
LINE
  5
C257
  8
OUTLINE
  6
CONTINUOUS
 10
2242.8098656695451609
 20
1030.3447307267940687
 30
0.0
 11
2292.8098656695451609
 21
1030.3447307267940687
 31
0.0
  0
LINE
  5
C258
  8
OUTLINE
  6
CONTINUOUS
 10
2245.3098656695451609
 20
1032.8447307267949782
 30
0.0
 11
2290.3098656695451609
 21
1032.8447307267949782
 31
0.0
  0
LINE
  5
C259
  8
OUTLINE
  6
CONTINUOUS
 10
2286.3098656695437967
 20
1023.3447307267949782
 30
0.0
 11
2249.3098656695451609
 21
1023.3447307267949782
 31
0.0
  0
LINE
  5
C25A
  8
OUTLINE
  6
CONTINUOUS
 10
2252.3098656695451609
 20
1030.3447307267940687
 30
0.0
 11
2283.3098656695451609
 21
1030.3447307267940687
 31
0.0
  0
LINE
  5
C25B
  8
OUTLINE
  6
CONTINUOUS
 10
2242.8098656695451609
 20
1100.3447307267949782
 30
0.0
 11
2292.8098656695451609
 21
1100.3447307267949782
 31
0.0
  0
LINE
  5
C25C
  8
OUTLINE
  6
CONTINUOUS
 10
2245.3098656695451609
 20
1100.3447307267949782
 30
0.0
 11
2245.3098656695451609
 21
1032.8447307267949782
 31
0.0
  0
LINE
  5
C25D
  8
OUTLINE
  6
CONTINUOUS
 10
2242.8098656695451609
 20
1100.3447307267949782
 30
0.0
 11
2242.8098656695451609
 21
1030.3447307267940687
 31
0.0
  0
ARC
  5
C25E
  8
OUTLINE
  6
CONTINUOUS
 10
2252.3098656695451609
 20
1027.3447307267940687
 30
0.0
 40
3.0
 50
90.0
 51
180.0
  0
LINE
  5
C25F
  8
OUTLINE
  6
CONTINUOUS
 10
2249.3098656695451609
 20
1027.3447307267940687
 30
0.0
 11
2249.3098656695451609
 21
1023.3447307267949782
 31
0.0
  0
LINE
  5
C260
  8
OUTLINE
  6
CONTINUOUS
 10
2290.3098656695451609
 20
1032.8447307267949782
 30
0.0
 11
2290.3098656695451609
 21
1100.3447307267949782
 31
0.0
  0
LINE
  5
C261
  8
OUTLINE
  6
CONTINUOUS
 10
2292.8098656695451609
 20
1030.3447307267940687
 30
0.0
 11
2292.8098656695451609
 21
1100.3447307267949782
 31
0.0
  0
LINE
  5
C262
  8
OUTLINE
  6
CONTINUOUS
 10
2286.3098656695437967
 20
1027.3447307267940687
 30
0.0
 11
2286.3098656695437967
 21
1023.3447307267949782
 31
0.0
  0
ARC
  5
C263
  8
OUTLINE
  6
CONTINUOUS
 10
2283.3098656695451609
 20
1027.3447307267940687
 30
0.0
 40
3.0
 50
0.0
 51
90.0
  0
LINE
  5
C264
  8
OUTLINE
  6
CONTINUOUS
 10
2267.8098656695451609
 20
1030.3447307267940687
 30
0.0
 11
2267.8098656695451609
 21
1023.3447307267949782
 31
0.0
  0
CIRCLE
  5
C265
  8
OUTLINE
  6
CONTINUOUS
 10
2267.8098656695451609
 20
1090.3447307267949782
 30
0.0
 40
4.75
  0
CIRCLE
  5
C266
  8
OUTLINE
  6
CONTINUOUS
 10
2267.8098656695451609
 20
1060.3447307267949782
 30
0.0
 40
4.75
  0
CIRCLE
  5
C267
  8
OUTLINE
  6
CONTINUOUS
 10
2267.8098656695451609
 20
1060.3447307267949782
 30
0.0
 40
4.75
  0
CIRCLE
  5
C268
  8
OUTLINE
  6
CONTINUOUS
 10
2267.8098656695451609
 20
1090.3447307267949782
 30
0.0
 40
4.75
  0
LINE
  5
C26A
  8
OUTLINE
  6
CONTINUOUS
 10
2309.0098656695440695
 20
516.5447307267984343
 30
0.0
 11
2309.0098656695440695
 21
497.374283876917616
 31
0.0
  0
LINE
  5
C270
  8
OUTLINE
 62
    52
 10
1911.0098656695429327
 20
314.0103813294801967
 30
0.0
 11
1911.0098656695429327
 21
941.2242877998935455
 31
0.0
  0
LINE
  5
C3BD
  8
OUTLINE
  6
CONTINUOUS
 10
1928.816225089766931
 20
564.0952902877960469
 30
0.0
 11
2279.4146890785459618
 21
564.0952902877968427
 31
0.0
  0
LINE
  5
C3BE
  8
OUTLINE
  6
CONTINUOUS
 10
1928.8162250897639751
 20
564.0952902877968427
 30
0.0
 11
2293.8162250898280945
 21
564.0952902877968427
 31
0.0
  0
LINE
  5
C3BF
  8
OUTLINE
  6
CONTINUOUS
 10
2293.8162250898280945
 20
564.0952902877960469
 30
0.0
 11
2293.8162250898280945
 21
946.4952902877961378
 31
0.0
  0
LINE
  5
C3C0
  8
OUTLINE
  6
CONTINUOUS
 10
2698.9971951413658644
 20
564.0952902877953647
 30
0.0
 11
2698.9971951413667739
 21
946.4952902877952283
 31
0.0
  0
LINE
  5
C8E4
  8
OUTLINE
 62
    52
 10
355.188091609154128
 20
1032.8447307267949782
 30
0.0
 11
240.2709215074121971
 21
1032.8447307267949782
 31
0.0
  0
LINE
  5
C8E5
  8
OUTLINE
 62
    52
 10
277.6098656695194222
 20
1130.54473072679707
 30
0.0
 11
252.2754490053742984
 21
1130.54473072679707
 31
0.0
  0
LINE
  5
C8E6
  8
OUTLINE
 62
    52
 10
256.4569613718304026
 20
1062.8447307267940687
 30
0.0
 11
256.4569613718304026
 21
1100.54473072679707
 31
0.0
  0
SOLID
  5
C8E8
  8
OUTLINE
 62
    52
 10
251.4569613718304026
 20
1062.8447307267940687
 30
0.0
 11
261.4569613718304026
 21
1062.8447307267940687
 31
0.0
 12
256.4569613718304026
 22
1032.8447307267949782
 32
0.0
 13
256.4569613718304026
 23
1032.8447307267949782
 33
0.0
  0
SOLID
  5
C8E9
  8
OUTLINE
 62
    52
 10
251.4569613718304026
 20
1100.54473072679707
 30
0.0
 11
261.4569613718304026
 21
1100.54473072679707
 31
0.0
 12
256.4569613718304026
 22
1130.54473072679707
 32
0.0
 13
256.4569613718304026
 23
1130.54473072679707
 33
0.0
  0
INSERT
  5
C8EA
  8
TEXT
  6
CONTINUOUS
  2
*U59
 10
0.0
 20
0.0
 30
0.0
  0
LINE
  5
C8EB
  8
OUTLINE
 62
    52
 10
1872.581100712837042
 20
961.8447307267977067
 30
0.0
 11
1831.0136220249880807
 21
961.8447307267977067
 31
0.0
  0
LINE
  5
C8ED
  8
OUTLINE
 62
    52
 10
1837.1223869816949446
 20
991.844730726797593
 30
0.0
 11
1837.1223869816949446
 21
1006.1947307268419536
 31
0.0
  0
LINE
  5
C8EE
  8
OUTLINE
 62
    52
 10
1837.1223869816949446
 20
1100.5447307268859731
 30
0.0
 11
1837.1223869816949446
 21
1086.1947307268419536
 31
0.0
  0
SOLID
  5
C8EF
  8
OUTLINE
 62
    52
 10
1832.1223869816940351
 20
991.844730726797593
 30
0.0
 11
1842.1223869816949446
 21
991.844730726797593
 31
0.0
 12
1837.1223869816949446
 22
961.8447307267977067
 32
0.0
 13
1837.1223869816949446
 23
961.8447307267977067
 33
0.0
  0
SOLID
  5
C8F0
  8
OUTLINE
 62
    52
 10
1832.1223869816940351
 20
1100.5447307268859731
 30
0.0
 11
1842.1223869816949446
 21
1100.5447307268859731
 31
0.0
 12
1837.1223869816949446
 22
1130.5447307268859731
 32
0.0
 13
1837.1223869816949446
 23
1130.5447307268859731
 33
0.0
  0
INSERT
  5
C8F1
  8
TEXT
  6
CONTINUOUS
  2
*U60
 10
113.9205306156763982
 20
0.0
 30
0.0
  0
TEXT
  5
CE32
  8
OUTLINE
  6
CONTINUOUS
 62
    52
 10
1262.4281808488181014
 20
1253.8571919069158866
 30
0.0
 40
30.0
  1
2050 O/A
  7
TITLE3
  0
TEXT
  5
CE36
  8
OUTLINE
  6
CONTINUOUS
 62
    50
 10
386.2233100911057022
 20
1326.3193597332428908
 30
0.0
 40
30.0
  1
238
  7
TITLE3
  0
SOLID
  5
CE37
  8
OUTLINE
 62
    52
 10
343.6098656695668865
 20
1346.3193597332428908
 30
0.0
 11
343.6098656695668865
 21
1336.3193597332428908
 31
0.0
 12
313.6098656695668865
 22
1341.3193597332428908
 32
0.0
 13
313.6098656695668865
 23
1341.3193597332428908
 33
0.0
  0
LINE
  5
CE38
  8
OUTLINE
 62
    52
 10
468.1103038346789162
 20
1341.3193597332428908
 30
0.0
 11
620.5038914129451086
 21
1341.3193597332428908
 31
0.0
  0
TEXT
  5
CE48
  8
OUTLINE
  6
CONTINUOUS
 62
    50
 10
1076.2587552557949948
 20
2336.4960494908059445
 30
0.0
 40
30.0
  1
1517
  7
TITLE3
  0
SOLID
  5
CE49
  8
OUTLINE
 62
    52
 10
380.8744361326279204
 20
2445.8419110951590483
 30
0.0
 11
380.8744361326279204
 21
2435.8419110951590483
 31
0.0
 12
350.874436132627693
 22
2440.8419110951590483
 32
0.0
 13
350.874436132627693
 23
2440.8419110951590483
 33
0.0
  0
TEXT
  5
CE4A
  8
OUTLINE
  6
CONTINUOUS
 62
    50
 10
971.2411386770666013
 20
2425.8419110951590483
 30
0.0
 40
30.0
  1
1598 MTG. CENTRES
  7
TITLE3
  0
TEXT
  5
CE87
  8
OUTLINE
  6
CONTINUOUS
 62
    50
 10
969.4997743551151643
 20
366.0845451368638805
 30
0.0
 40
30.0
  1
1520 MTG. CENTERS
  7
TITLE3
  0
TEXT
  5
CE88
  8
OUTLINE
  6
CONTINUOUS
 62
    50
 10
994.4997743551151643
 20
313.2274022797211046
 30
0.0
 40
30.0
  1
(SOLID & SPRING)
  7
TITLE3
  0
LINE
  5
D204
  8
OUTLINE
 62
    52
 10
1906.3798656695669251
 20
2307.4763257829049508
 30
0.0
 11
1906.3798656695669251
 21
2371.3702356758690257
 31
0.0
  0
LINE
  5
D205
  8
OUTLINE
 62
    52
 10
389.3798656695666978
 20
2307.0487715758868035
 30
0.0
 11
389.3798656695666978
 21
2372.0737708842038955
 31
0.0
  0
LINE
  5
D207
  8
OUTLINE
 62
    52
 10
3519.1175308874380789
 20
553.5478700448423979
 30
0.0
 11
3603.669541294812916
 21
553.5478700448423979
 31
0.0
  0
LINE
  5
D208
  8
DIM
 62
    52
 10
3521.8841645337120099
 20
1021.1478700448419659
 30
0.0
 11
3605.1666825884258287
 21
1021.1478700448419659
 31
0.0
  0
TEXT
  5
D209
  8
OUTLINE
  6
CONTINUOUS
 62
    50
 10
3600.1484918108749298
 20
750.7764414734150478
 30
0.0
 40
30.0
  1
468
 50
90.0
  7
TITLE3
  0
LINE
  5
D25D
  8
DIM
  6
CONTINUOUS
 10
2673.3971951413668648
 20
914.2488244785894267
 30
0.0
 11
2673.3971951413668648
 21
1448.7056470051979886
 31
0.0
  0
LINE
  5
D25E
  8
DIM
  6
CONTINUOUS
 10
3549.1971951413670467
 20
914.2488244785894267
 30
0.0
 11
3549.1971951413670467
 21
1448.7056470051979886
 31
0.0
  0
INSERT
  5
D263
  8
TEXT
  6
CONTINUOUS
  2
*U62
 10
0.0
 20
0.0
 30
0.0
  0
LINE
  5
D281
  8
OUTLINE
 62
    52
 10
2703.3971885858168207
 20
1439.4117262270719948
 30
0.0
 11
2987.1059396612618002
 21
1439.4117262270719948
 31
0.0
  0
SOLID
  5
D282
  8
OUTLINE
 62
    52
 10
2703.3971885858168207
 20
1444.4117262270719948
 30
0.0
 11
2703.3971885858168207
 21
1434.4117262270719948
 31
0.0
 12
2673.3971885858168207
 22
1439.4117262270719948
 32
0.0
 13
2673.3971885858168207
 23
1439.4117262270719948
 33
0.0
  0
LINE
  5
D28B
  8
OUTLINE
 62
    52
 10
3517.5170315704508539
 20
1437.1958654645020488
 30
0.0
 11
3227.233739949404935
 21
1437.1958654645020488
 31
0.0
  0
SOLID
  5
D28C
  8
OUTLINE
 62
    52
 10
3517.5170315704508539
 20
1442.1958654645020488
 30
0.0
 11
3517.5170315704508539
 21
1432.1958654645020488
 31
0.0
 12
3547.5170315704522181
 22
1437.1958654645020488
 32
0.0
 13
3547.5170315704522181
 23
1437.1958654645020488
 33
0.0
  0
LINE
  5
D28E
  8
TEXT
  6
CONTINUOUS
 10
3493.3322083502671376
 20
553.5478700448426252
 30
0.0
 11
3493.2822083502687747
 21
553.5478700448426252
 31
0.0
  0
SOLID
  5
D292
  8
TEXT
  6
CONTINUOUS
 10
3493.3622083502691567
 20
553.427870044842507
 30
0.0
 11
3493.4022083502691203
 21
553.427870044842507
 31
0.0
 12
3493.3822083502691385
 22
553.5478700448426252
 32
0.0
 13
3493.3822083502691385
 23
553.5478700448426252
 33
0.0
  0
LINE
  5
D294
  8
DIM
  6
CONTINUOUS
 10
3433.2471951413699571
 20
1130.5447307267959332
 30
0.0
 11
3678.5839129876321749
 21
1130.5447307267959332
 31
0.0
  0
LINE
  5
D295
  8
DIM
  6
CONTINUOUS
 10
3404.4471951413697752
 20
477.4459891241987179
 30
0.0
 11
3679.0491740667212071
 21
477.4459891241987748
 31
0.0
  0
INSERT
  5
D29A
  8
TEXT
  6
CONTINUOUS
  2
*U63
 10
0.0
 20
0.0
 30
0.0
  0
LINE
  5
D29B
  8
DIM
  6
CONTINUOUS
 10
3433.2471951413699571
 20
1130.5447307267959332
 30
0.0
 11
3642.9101341893269819
 21
1130.5447307267959332
 31
0.0
  0
LINE
  5
D29C
  8
DIM
  6
CONTINUOUS
 10
3491.8270731401371449
 20
1021.1478700448419659
 30
0.0
 11
3585.4900121880950792
 21
1021.1478700448419659
 31
0.0
  0
SOLID
  5
D29F
  8
DIM
  6
CONTINUOUS
 10
3642.7901341893280005
 20
1130.4247307267960423
 30
0.0
 11
3642.8301341893279641
 21
1130.4247307267960423
 31
0.0
 12
3642.8101341893270728
 22
1130.5447307267959332
 32
0.0
 13
3642.8101341893270728
 23
1130.5447307267959332
 33
0.0
  0
SOLID
  5
D2A0
  8
DIM
  6
CONTINUOUS
 10
3585.3700121880960978
 20
1021.2678700448419704
 30
0.0
 11
3585.4100121880951519
 21
1021.2678700448419704
 31
0.0
 12
3585.3900121880960796
 22
1021.1478700448419659
 32
0.0
 13
3585.3900121880960796
 23
1021.1478700448419659
 33
0.0
  0
INSERT
  5
D2A1
  8
TEXT
  6
CONTINUOUS
  2
*U64
 10
0.0
 20
0.0
 30
0.0
  0
LINE
  5
D2B6
  8
OUTLINE
 62
    52
 10
3587.286573223133928
 20
1160.5447312369760766
 30
0.0
 11
3587.286573223133928
 21
1190.5447312369769861
 31
0.0
  0
SOLID
  5
D2B7
  8
OUTLINE
 62
    52
 10
3582.2865732231311995
 20
1160.5447312369760766
 30
0.0
 11
3592.286573223132109
 21
1160.5447312369760766
 31
0.0
 12
3587.286573223133928
 22
1130.5447312369769861
 32
0.0
 13
3587.286573223133928
 23
1130.5447312369769861
 33
0.0
  0
LINE
  5
D2C0
  8
OUTLINE
 62
    52
 10
3660.7173130380870134
 20
1099.0557870776970049
 30
0.0
 11
3660.7173130380870134
 21
863.9494591063803455
 31
0.0
  0
SOLID
  5
D2C1
  8
OUTLINE
 62
    52
 10
3655.7173130380851944
 20
1099.0557870776970049
 30
0.0
 11
3665.7173130380861039
 21
1099.0557870776970049
 31
0.0
 12
3660.7173130380870134
 22
1129.0557870776970049
 32
0.0
 13
3660.7173130380870134
 23
1129.0557870776970049
 33
0.0
  0
LINE
  5
D2CA
  8
OUTLINE
 62
    52
 10
3658.1050663959140365
 20
507.4459912178775767
 30
0.0
 11
3658.1050663959140365
 21
741.2418435147692435
 31
0.0
  0
SOLID
  5
D2CB
  8
OUTLINE
 62
    52
 10
3653.1050663959122176
 20
507.4459912178775767
 30
0.0
 11
3663.1050663959140365
 21
507.4459912178775767
 31
0.0
 12
3658.1050663959140365
 22
477.4459912178775767
 32
0.0
 13
3658.1050663959140365
 23
477.4459912178775767
 33
0.0
  0
ENDSEC
  0
EOF
