  0
SECTION
  2
HEADER
  9
$ACADVER
  1
AC1009
  9
$INSBASE
 10
0.0
 20
0.0
 30
0.0
  9
$EXTMIN
 10
-151.13163818483011
 20
-0.3296526028570952
 30
-0.000000000000013
  9
$EXTMAX
 10
5236.6666917567054
 20
4321.482089512434
 30
0.0000000000000023
  9
$LIMMIN
 10
0.0
 20
0.0
  9
$LIMMAX
 10
3890.0
 20
2660.0
  9
$ORTHOMODE
 70
     1
  9
$REGENMODE
 70
     1
  9
$FILLMODE
 70
     1
  9
$QTEXTMODE
 70
     0
  9
$MIRRTEXT
 70
     0
  9
$DRAGMODE
 70
     2
  9
$LTSCALE
 40
300.0
  9
$OSMODE
 70
     0
  9
$ATTMODE
 70
     1
  9
$TEXTSIZE
 40
40.0
  9
$TRACEWID
 40
0.05
  9
$TEXTSTYLE
  7
TITLE3
  9
$CLAYER
  8
0
  9
$CELTYPE
  6
BYLAYER
  9
$CECOLOR
 62
   256
  9
$DIMSCALE
 40
1.0
  9
$DIMASZ
 40
0.12
  9
$DIMEXO
 40
0.05
  9
$DIMDLI
 40
0.5
  9
$DIMRND
 40
0.0
  9
$DIMDLE
 40
0.0
  9
$DIMEXE
 40
0.1
  9
$DIMTP
 40
0.1
  9
$DIMTM
 40
0.1
  9
$DIMTXT
 40
0.12
  9
$DIMCEN
 40
0.0
  9
$DIMTSZ
 40
0.0
  9
$DIMTOL
 70
     0
  9
$DIMLIM
 70
     0
  9
$DIMTIH
 70
     1
  9
$DIMTOH
 70
     1
  9
$DIMSE1
 70
     0
  9
$DIMSE2
 70
     0
  9
$DIMTAD
 70
     0
  9
$DIMZIN
 70
     7
  9
$DIMBLK
  1

  9
$DIMASO
 70
     0
  9
$DIMSHO
 70
     0
  9
$DIMPOST
  1

  9
$DIMAPOST
  1
mm
  9
$DIMALT
 70
     0
  9
$DIMALTD
 70
     2
  9
$DIMALTF
 40
25.399999999999999
  9
$DIMLFAC
 40
1.0
  9
$DIMTOFL
 70
     0
  9
$DIMTVP
 40
0.0
  9
$DIMTIX
 70
     0
  9
$DIMSOXD
 70
     0
  9
$DIMSAH
 70
     0
  9
$DIMBLK1
  1

  9
$DIMBLK2
  1

  9
$DIMSTYLE
  2
AM_ANSI
  9
$DIMCLRD
 70
   256
  9
$DIMCLRE
 70
   256
  9
$DIMCLRT
 70
     2
  9
$DIMTFAC
 40
0.71
  9
$DIMGAP
 40
0.06
  9
$LUNITS
 70
     2
  9
$LUPREC
 70
     2
  9
$SKETCHINC
 40
0.1
  9
$FILLETRAD
 40
0.0
  9
$AUNITS
 70
     0
  9
$AUPREC
 70
     2
  9
$MENU
  1
\acad12\support\cnc
  9
$ELEVATION
 40
0.0
  9
$PELEVATION
 40
0.0
  9
$THICKNESS
 40
0.0
  9
$LIMCHECK
 70
     0
  9
$BLIPMODE
 70
     0
  9
$CHAMFERA
 40
0.0
  9
$CHAMFERB
 40
0.0
  9
$SKPOLY
 70
     0
  9
$TDCREATE
 40
2451029.6595820598
  9
$TDUPDATE
 40
2455708.601536389
  9
$TDINDWG
 40
0.9461934028
  9
$TDUSRTIMER
 40
0.9461899074
  9
$USRTIMER
 70
     1
  9
$ANGBASE
 50
0.0
  9
$ANGDIR
 70
     0
  9
$PDMODE
 70
     2
  9
$PDSIZE
 40
5.0
  9
$PLINEWID
 40
0.0
  9
$COORDS
 70
     1
  9
$SPLFRAME
 70
     0
  9
$SPLINETYPE
 70
     6
  9
$SPLINESEGS
 70
     8
  9
$ATTDIA
 70
     1
  9
$ATTREQ
 70
     1
  9
$HANDLING
 70
     1
  9
$HANDSEED
  5
81BE
  9
$SURFTAB1
 70
     6
  9
$SURFTAB2
 70
     6
  9
$SURFTYPE
 70
     6
  9
$SURFU
 70
     6
  9
$SURFV
 70
     6
  9
$UCSNAME
  2

  9
$UCSORG
 10
0.0
 20
0.0
 30
0.0
  9
$UCSXDIR
 10
1.0
 20
0.0
 30
0.0
  9
$UCSYDIR
 10
0.0
 20
1.0
 30
0.0
  9
$PUCSNAME
  2

  9
$PUCSORG
 10
0.0
 20
0.0
 30
0.0
  9
$PUCSXDIR
 10
1.0
 20
0.0
 30
0.0
  9
$PUCSYDIR
 10
0.0
 20
1.0
 30
0.0
  9
$USERI1
 70
     0
  9
$USERI2
 70
     0
  9
$USERI3
 70
     0
  9
$USERI4
 70
     0
  9
$USERI5
 70
     0
  9
$USERR1
 40
0.0
  9
$USERR2
 40
0.0
  9
$USERR3
 40
0.0
  9
$USERR4
 40
0.0
  9
$USERR5
 40
0.0
  9
$WORLDVIEW
 70
     1
  9
$SHADEDGE
 70
     3
  9
$SHADEDIF
 70
    70
  9
$TILEMODE
 70
     1
  9
$MAXACTVP
 70
    16
  9
$PLIMCHECK
 70
     0
  9
$PEXTMIN
 10
1.0000000000000000E+020
 20
1.0000000000000000E+020
 30
1.0000000000000000E+020
  9
$PEXTMAX
 10
-1.0000000000000000E+020
 20
-1.0000000000000000E+020
 30
-1.0000000000000000E+020
  9
$PLIMMIN
 10
0.0
 20
0.0
  9
$PLIMMAX
 10
12.0
 20
9.0
  9
$UNITMODE
 70
     0
  9
$VISRETAIN
 70
     0
  9
$PLINEGEN
 70
     0
  9
$PSLTSCALE
 70
     0
  0
ENDSEC
  0
SECTION
  2
TABLES
  0
TABLE
  2
VPORT
 70
     1
  0
VPORT
  2
*ACTIVE
 70
     0
 10
0.0
 20
0.0
 11
1.0
 21
1.0
 12
-0.2054936984435471
 22
474.70147585254739
 13
0.0
 23
0.0
 14
25.0
 24
25.0
 15
100.0
 25
100.0
 16
0.0
 26
0.0
 36
1.0
 17
2542.9730204843818
 27
1685.874742602241
 37
0.0
 40
4350.8822246855734
 41
1.60381593714927
 42
50.0
 43
0.0
 44
0.0
 50
0.0
 51
0.0
 71
     0
 72
   100
 73
     1
 74
     0
 75
     0
 76
     0
 77
     0
 78
     0
  0
ENDTAB
  0
TABLE
  2
LTYPE
 70
    18
  0
LTYPE
  2
CONTINUOUS
 70
     0
  3
Solid line
 72
    65
 73
     0
 40
0.0
  0
LTYPE
  2
HIDDEN
 70
     0
  3
Hidden __ __ __ __ __ __ __ __ __ __ __ __ __ _
 72
    65
 73
     2
 40
0.375
 49
0.25
 49
-0.125
  0
LTYPE
  2
PHANTOM2
 70
     0
  3
Phantom (.5x) ___ _ _ ___ _ _ ___ _ _ ___ _ _
 72
    65
 73
     6
 40
1.25
 49
0.625
 49
-0.125
 49
0.125
 49
-0.125
 49
0.125
 49
-0.125
  0
LTYPE
  2
CENTER
 70
     0
  3
Center ____ _ ____ _ ____ _ ____ _ ____ _ ____
 72
    65
 73
     4
 40
2.0
 49
1.25
 49
-0.25
 49
0.25
 49
-0.25
  0
LTYPE
  2
AMCONSTR
 70
     0
  3
_______________________
 72
    65
 73
     2
 40
9999.0
 49
9999.0
 49
0.0
  0
LTYPE
  2
CENTER2
 70
     0
  3
Center (.5x) ___ _ ___ _ ___ _ ___ _ ___ _ ___
 72
    65
 73
     4
 40
1.125
 49
0.75
 49
-0.125
 49
0.125
 49
-0.125
  0
LTYPE
  2
HIDDEN2
 70
     0
  3
Hidden (.5x) _ _ _ _ _ _ _ _ _ _ _ _ _ _ _ _ _
 72
    65
 73
     2
 40
0.1875
 49
0.125
 49
-0.0625
  0
LTYPE
  2
AMZIGZAG2
 70
     0
  3
/\/-/\/-/\/-/\/-/\/-/\/
 72
    65
 73
     2
 40
0.4401
 49
0.0001
 49
-0.4400000000000003
  0
LTYPE
  2
ACANSTGB
 70
     0
  3
__ . . __ . .
 72
    65
 73
     6
 40
0.35433070866
 49
0.15748031496
 49
-0.03937007874
 49
0.03937007874
 49
-0.03937007874
 49
0.03937007874
 49
-0.03937007874
  0
LTYPE
  2
ACANSTGL
 70
     0
  3
_ _ _ _ _
 72
    65
 73
     2
 40
0.11811023622
 49
0.07874015748
 49
-0.03937007874
  0
LTYPE
  2
ASULTYPE
 70
     0
  3
Solid line
 72
    65
 73
     2
 40
3.0
 49
2.5
 49
0.5
  0
LTYPE
  2
ASVLTYPE
 70
     0
  3
__ __ __ __ __ __ __ __ __ __ __ __ __ __ __ __ __ __ __ __ __
 72
    65
 73
     2
 40
0.75
 49
0.5
 49
-0.25
  0
LTYPE
  2
AM_ISO02W050
 70
     0
  3
__ __ __ __ __ __ __ __ __ __ __ __ __ __ __
 72
    65
 73
     2
 40
7.5
 49
6.0
 49
-1.5
  0
LTYPE
  2
AM_ISO08W050
 70
     0
  3
____ . ____ . ____ . ____ . ____ . ____ . ____
 72
    65
 73
     4
 40
18.0
 49
12.0
 49
-1.5
 49
3.0
 49
-1.5
  0
LTYPE
  2
AM_ISO09W050
 70
     0
  3
_____ . . _____ . . _____ . . ____ .. ____
 72
    65
 73
     6
 40
22.5
 49
12.0
 49
-1.5
 49
3.0
 49
-1.5
 49
3.0
 49
-1.5
  0
LTYPE
  2
AM_ISO08W050X2
 70
     0
  3
__ . __ . __ . __ . __ . __
 72
    65
 73
     4
 40
9.0
 49
6.0
 49
-0.75
 49
1.5
 49
-0.75
  0
LTYPE
  2
AM_ISO02W050X2
 70
     0
  3
 _ _ _ _ _ _ _ _ _ _ _ _
 72
    65
 73
     2
 40
3.75
 49
3.0
 49
-0.75
  0
LTYPE
  2
AMZIGZAG
 70
     0
  3
/\/-/\/-/\/-/\/-/\/-/\/
 72
    65
 73
     2
 40
11.0001
 49
0.0001
 49
-11.0
  0
ENDTAB
  0
TABLE
  2
LAYER
 70
     2
  0
LAYER
  2
0
 70
     0
 62
     7
  6
CONTINUOUS
  0
LAYER
  2
DIM
 70
     0
 62
     7
  6
CONTINUOUS
  0
ENDTAB
  0
TABLE
  2
STYLE
 70
     8
  0
STYLE
  2
STANDARD
 70
     0
 40
0.0
 41
1.0
 50
0.0
 71
     0
 42
0.2
  3
txt
  4

  0
STYLE
  2
ANNOTATIVE
 70
     0
 40
0.0
 41
1.0
 50
0.0
 71
     0
 42
0.2
  3
txt
  4

  0
STYLE
  2
TITLE3
 70
     0
 40
40.0
 41
1.0
 50
0.0
 71
     0
 42
40.0
  3
SIMPLEX.shx
  4

  0
STYLE
  2
SIMPLEX
 70
     0
 40
40.0
 41
1.0
 50
0.0
 71
     0
 42
25.0
  3
SIMPLEX
  4

  0
STYLE
  2
TITLE5
 70
     0
 40
50.0
 41
1.0
 50
0.0
 71
     0
 42
50.0
  3
SIMPLEX.shx
  4

  0
STYLE
  2
ACANSTS
 70
     0
 40
1.0
 41
1.0
 50
0.0
 71
     0
 42
40.0
  3
romans.shx
  4

  0
STYLE
  2
ACANSGDT
 70
     0
 40
0.0
 41
1.0
 50
0.0
 71
     0
 42
40.0
  3
amgdt.shx
  4

  0
STYLE
  2

 70
     1
 40
0.0
 41
1.0
 50
0.0
 71
     0
 42
40.0
  3
genltshp.shx
  4

  0
ENDTAB
  0
TABLE
  2
VIEW
 70
     0
  0
ENDTAB
  0
TABLE
  2
UCS
 70
     0
  0
ENDTAB
  0
TABLE
  2
APPID
 70
    33
  0
APPID
  2
ACAD
 70
     0
  0
APPID
  2
ACADANNOTATIVE
 70
     0
  0
APPID
  2
ACAD_MLEADERVER
 70
     0
  0
APPID
  2
DCO15
 70
     0
  0
APPID
  2
GENIUS_GENDIM_13
 70
     0
  0
APPID
  2
GENIUS_GENDTOL_13
 70
     0
  0
APPID
  2
GENIUS_GE3DTOL_13
 70
     0
  0
APPID
  2
MCAD_NO_VIS
 70
     0
  0
APPID
  2
ACAD_TEMP_GRAPHIC
 70
     0
  0
APPID
  2
AD_DRAW
 70
     0
  0
APPID
  2
ACATTRIBSERVICES
 70
     0
  0
APPID
  2
ASURF_PCURVE_APPNAME
 70
     0
  0
APPID
  2
AMG_3D2D_5_0
 70
     0
  0
APPID
  2
DESIGNERASSEMBLIES
 70
     0
  0
APPID
  2
ACADM_DIM_EDIT
 70
     0
  0
APPID
  2
AMDT_DM_ADJ
 70
     0
  0
APPID
  2
ACAD_PSEXT
 70
     0
  0
APPID
  2
ACAD_EXEMPT_FROM_CAD_STANDARDS
 70
     0
  0
APPID
  2
AMG_3D2D_5_00
 70
     0
  0
APPID
  2
AMG_3D2D_5_01
 70
     0
  0
APPID
  2
AMG_3D2D_5_02
 70
     0
  0
APPID
  2
AMG_3D2D_5_03
 70
     0
  0
APPID
  2
AMG_3D2D_5_04
 70
     0
  0
APPID
  2
AMG_3D2D_5_05
 70
     0
  0
APPID
  2
AMG_3D2D_5_06
 70
     0
  0
APPID
  2
AMG_3D2D_5_07
 70
     0
  0
APPID
  2
AMG_3D2D_5_08
 70
     0
  0
APPID
  2
ACAD_DSTYLE_DIMARC_LENGTH_
 70
     0
  0
APPID
  2
ACAD_DSTYLE_DIM_LINETYPE
 70
     0
  0
APPID
  2
ACAD_DSTYLE_DIM_EXT1_LINETYPE
 70
     0
  0
APPID
  2
ACAD_DSTYLE_DIM_EXT2_LINETYPE
 70
     0
  0
APPID
  2
ACAD_DSTYLE_DIMBREAK
 70
     0
  0
APPID
  2
ACAD_DSTYLE_DIMJAG
 70
     0
  0
ENDTAB
  0
TABLE
  2
DIMSTYLE
 70
     8
  0
DIMSTYLE
  2
STANDARD
 70
     0
  3

  4

  5

  6

  7

 40
1.0
 41
0.18
 42
0.0625
 43
0.38
 44
0.18
 45
0.0
 46
0.0
 47
0.0
 48
0.0
140
0.18
141
0.09
142
0.0
143
25.399999999999999
144
1.0
145
0.0
146
1.0
147
0.09
 71
     0
 72
     0
 73
     1
 74
     1
 75
     0
 76
     0
 77
     0
 78
     0
170
     0
171
     2
172
     0
173
     0
174
     0
175
     0
176
     0
177
     0
178
     0
  0
DIMSTYLE
  2
ANNOTATIVE
 70
     0
  3

  4

  5

  6

  7

 40
1.0
 41
0.18
 42
0.0625
 43
0.38
 44
0.18
 45
0.0
 46
0.0
 47
0.0
 48
0.0
140
0.18
141
0.09
142
0.0
143
25.399999999999999
144
1.0
145
0.0
146
1.0
147
0.09
 71
     0
 72
     0
 73
     1
 74
     1
 75
     0
 76
     0
 77
     0
 78
     0
170
     0
171
     2
172
     0
173
     0
174
     0
175
     0
176
     0
177
     0
178
     0
  0
DIMSTYLE
  2
AM_ANSI
 70
     0
  3

  4
mm
  5

  6

  7

 40
1.0
 41
0.12
 42
0.05
 43
0.5
 44
0.1
 45
0.0
 46
0.0
 47
0.1
 48
0.1
140
0.12
141
0.0
142
0.0
143
25.399999999999999
144
1.0
145
0.0
146
0.71
147
0.06
 71
     0
 72
     0
 73
     1
 74
     1
 75
     0
 76
     0
 77
     0
 78
     7
170
     0
171
     2
172
     0
173
     0
174
     0
175
     0
176
   256
177
   256
178
     2
  0
DIMSTYLE
  2
AM_ANSI$3
 70
     0
  3

  4
mm
  5

  6

  7

 40
1.0
 41
0.12
 42
0.05
 43
0.5
 44
0.1
 45
0.0
 46
0.0
 47
0.1
 48
0.1
140
0.12
141
0.0
142
0.0
143
25.399999999999999
144
1.0
145
0.0
146
0.71
147
0.06
 71
     0
 72
     0
 73
     1
 74
     1
 75
     0
 76
     0
 77
     0
 78
     7
170
     0
171
     2
172
     0
173
     0
174
     0
175
     0
176
   256
177
   256
178
     2
  0
DIMSTYLE
  2
AM_ANSI$4
 70
     0
  3

  4
mm
  5

  6

  7

 40
1.0
 41
0.12
 42
0.05
 43
0.5
 44
0.1
 45
0.0
 46
0.0
 47
0.1
 48
0.1
140
0.12
141
0.0
142
0.0
143
25.399999999999999
144
1.0
145
0.0
146
0.71
147
0.06
 71
     0
 72
     0
 73
     1
 74
     1
 75
     0
 76
     0
 77
     0
 78
     7
170
     0
171
     2
172
     0
173
     0
174
     0
175
     0
176
   256
177
   256
178
     2
  0
DIMSTYLE
  2
AM_ANSI$7
 70
     0
  3

  4
mm
  5

  6

  7

 40
1.0
 41
0.12
 42
0.05
 43
0.5
 44
0.1
 45
0.0
 46
0.0
 47
0.1
 48
0.1
140
0.12
141
0.0
142
0.0
143
25.399999999999999
144
1.0
145
0.0
146
0.71
147
0.06
 71
     0
 72
     0
 73
     1
 74
     1
 75
     0
 76
     0
 77
     0
 78
     7
170
     0
171
     2
172
     0
173
     0
174
     0
175
     0
176
   256
177
   256
178
     2
  0
DIMSTYLE
  2
AM_ANSI$SF
 70
     0
  3

  4
mm
  5

  6

  7

 40
1.0
 41
0.12
 42
0.05
 43
0.5
 44
0.1
 45
0.0
 46
0.0
 47
0.1
 48
0.1
140
0.12
141
0.0
142
0.0
143
25.399999999999999
144
1.0
145
0.0
146
0.71
147
0.06
 71
     0
 72
     0
 73
     1
 74
     1
 75
     1
 76
     1
 77
     0
 78
     7
170
     0
171
     2
172
     0
173
     0
174
     0
175
     0
176
   256
177
   256
178
     2
  0
DIMSTYLE
  2
AM_ANSI$SH
 70
     0
  3

  4
mm
  5

  6

  7

 40
1.0
 41
0.12
 42
0.05
 43
0.5
 44
0.1
 45
0.0
 46
0.0
 47
0.1
 48
0.1
140
0.12
141
0.0
142
0.0
143
25.399999999999999
144
1.0
145
0.0
146
0.71
147
0.06
 71
     0
 72
     0
 73
     1
 74
     1
 75
     1
 76
     1
 77
     0
 78
     7
170
     0
171
     2
172
     0
173
     1
174
     0
175
     0
176
   256
177
   256
178
     2
  0
ENDTAB
  0
ENDSEC
  0
SECTION
  2
BLOCKS
  0
BLOCK
  8
0
  2
$MODEL_SPACE
 70
     0
 10
0.0
 20
0.0
 30
0.0
  3
$MODEL_SPACE
  1

  0
ENDBLK
  5
80B4
  8
0
  0
BLOCK
 67
     1
  8
0
  2
$PAPER_SPACE
 70
     0
 10
0.0
 20
0.0
 30
0.0
  3
$PAPER_SPACE
  1

  0
ENDBLK
  5
80B0
 67
     1
  8
0
  0
BLOCK
  8
0
  2
LINES
 70
     0
 10
0.0
 20
0.0
 30
0.0
  3
LINES
  1

  0
ENDBLK
  5
5C9B
  8
0
  0
BLOCK
  8
0
  2
GENAXEH
 70
     0
 10
0.0
 20
0.0
 30
0.0
  3
GENAXEH
  1

  0
LINE
  5
77E1
  8
0
 10
-1.0
 20
0.0
 30
0.0
 11
1.0
 21
0.0
 31
0.0
  0
ENDBLK
  5
77E3
  8
0
  0
ENDSEC
  0
SECTION
  2
ENTITIES
  0
TEXT
  5
5CA6
  8
0
 62
     7
 10
3904.0589381459031
 20
414.13045924945669
 30
0.0
 40
59.999999998499987
  1
temperzone OPA 170RKTH
  7
TITLE5
 72
     1
 11
4501.2017952738306
 21
414.13045924945669
 31
0.0
  0
TEXT
  5
5CA7
  8
0
 62
     7
 10
4623.3333332189959
 20
93.333333330999949
 30
0.0
 40
39.999999998999989
  1
OPA170RKTH
 41
1.0410256410256511
  7
TITLE3
 72
     5
 11
5009.9999998760004
 21
93.333333330999949
 31
0.0
  0
TEXT
  5
5CA8
  8
0
 62
     7
 10
3841.201795290332
 20
324.27673722327802
 30
0.0
 40
59.999999998499987
  1
FOOT MTD HORIZ DISCHARGE
  7
TITLE5
 72
     1
 11
4501.2017952738306
 21
324.27673722327802
 31
0.0
  0
INSERT
  5
5CA9
  8
DIM
  2
LINES
 10
331.16901791101679
 20
3587.504837768558
 30
0.0
  0
TEXT
  5
5CAA
  8
0
 62
     7
 10
4015.8550654735809
 20
146.666666663
 30
0.0
 40
39.999999998999989
  1
27-05-11
 41
0.7320261437908648
  7
TITLE3
 72
     5
 11
4229.1883988015852
 21
146.666666663
 31
0.0
  0
LINE
  5
5CCE
  8
0
 62
     7
 10
941.53601433888161
 20
2069.1305085760282
 30
0.0
 11
2045.5360143388821
 21
2069.1305085760282
 31
0.0
  0
LINE
  5
5CD7
  8
0
 62
     7
 10
2045.5360143388821
 20
3252.1305085760309
 30
0.0
 11
2045.5360143388821
 21
2069.1305085760282
 31
0.0
  0
LINE
  5
5CF1
  8
0
 62
     7
 10
2045.5322123372921
 20
1258.969653272329
 30
0.0
 11
941.53601433888161
 21
1258.9696532723281
 31
0.0
  0
LINE
  5
5CF2
  8
0
 62
     7
 10
941.53601433888161
 20
1258.9696532723281
 30
0.0
 11
941.53601433888161
 21
329.96675119658369
 31
0.0
  0
LINE
  5
5CF7
  8
0
 62
     7
 10
2045.532212337293
 20
329.96675119658369
 30
0.0
 11
2045.5322123372921
 21
1258.969653272329
 31
0.0
  0
LINE
  5
5CF8
  8
0
 62
     7
 10
2103.5393400537459
 20
1179.9667511965829
 30
0.0
 11
2103.5393400537459
 21
954.96675119658323
 31
0.0
  0
LINE
  5
5CF9
  8
0
 62
     7
 10
2103.4722123372931
 20
765.96675119658335
 30
0.0
 11
2103.472212337294
 21
423.96675119658317
 31
0.0
  0
LINE
  5
5D0B
  8
0
 62
     7
 10
941.53601433888161
 20
329.96675119658369
 30
0.0
 11
2045.532212337293
 21
329.96675119658369
 31
0.0
  0
INSERT
  5
5D33
  8
DIM
  2
LINES
 10
254.36135100316409
 20
12950.844675060671
 30
0.0
  0
INSERT
  5
5D34
  8
DIM
  2
LINES
 10
4447.4749797806317
 20
10493.25690705025
 30
0.0
  0
TEXT
  5
5D35
  8
DIM
 10
9638.0424665801456
 20
11898.17011078995
 30
0.0
 40
15.0
  1

  7
TITLE3
 72
     1
 11
9638.0424665801456
 21
11898.17011078995
 31
0.0
  0
TEXT
  5
5D36
  8
DIM
 10
9638.0424665801456
 20
11898.17011078995
 30
0.0
 40
15.0
  1

  7
TITLE3
 72
     1
 11
9638.0424665801456
 21
11898.17011078995
 31
0.0
  0
TEXT
  5
5D37
  8
DIM
 10
14638.04246658014
 20
11898.17011078995
 30
0.0
 40
15.0
  1

  7
TITLE3
 72
     1
 11
14638.04246658014
 21
11898.17011078995
 31
0.0
  0
TEXT
  5
5D38
  8
DIM
 10
14638.04246658014
 20
11898.17011078995
 30
0.0
 40
15.0
  1

  7
TITLE3
 72
     1
 11
14638.04246658014
 21
11898.17011078995
 31
0.0
  0
LINE
  5
5D39
  8
0
 62
     7
 10
1394.4577710063641
 20
1182.1353984256939
 30
0.0
 11
1355.1577710063641
 21
1221.43539842569
 31
0.0
  0
LINE
  5
5D3A
  8
0
 62
     7
 10
1315.8577710063639
 20
1182.1353984256939
 30
0.0
 11
1355.1577710063641
 21
1221.43539842569
 31
0.0
  0
LINE
  5
5D3B
  8
0
 62
     7
 10
1340.4577710063641
 20
1126.6353984256939
 30
0.0
 11
1369.8577710063639
 21
1126.6353984256939
 31
0.0
  0
LINE
  5
5D3C
  8
0
 62
     7
 10
1369.8577710063639
 20
1126.6353984256939
 30
0.0
 11
1369.8577710063639
 21
1182.1353984256939
 31
0.0
  0
LINE
  5
5D3D
  8
0
 62
     7
 10
1369.8577710063639
 20
1182.1353984256939
 30
0.0
 11
1394.4577710063641
 21
1182.1353984256939
 31
0.0
  0
LINE
  5
5D3E
  8
0
 62
     7
 10
1340.4577710063641
 20
1126.6353984256939
 30
0.0
 11
1340.4577710063641
 21
1182.1353984256939
 31
0.0
  0
LINE
  5
5D3F
  8
0
 62
     7
 10
1340.4577710063641
 20
1182.1353984256939
 30
0.0
 11
1315.8577710063639
 21
1182.1353984256939
 31
0.0
  0
TEXT
  5
5D40
  8
0
 62
     7
 10
3841.5837005335761
 20
147.77495181346791
 30
0.0
 40
31.999999999999989
  1
Date
  7
SIMPLEX
  0
TEXT
  5
5D41
  8
0
 62
     7
 10
5044.8149231648031
 20
172.67106936454809
 30
0.0
 40
31.999999999999989
  1
Revision
 41
0.7812095035934779
  7
SIMPLEX
 72
     5
 11
5185.2838320014198
 21
172.67106936454809
 31
0.0
  0
LINE
  5
5D42
  8
0
 62
     7
 10
5029.3217999868793
 20
27.789990464422839
 30
0.0
 11
5029.3217999868793
 21
224.3582076113955
 31
0.0
  0
LINE
  5
5D43
  8
0
 62
     7
 10
3809.135372609529
 20
502.95297128913938
 30
0.0
 11
3809.135372609529
 21
27.789990464422839
 31
0.0
  0
LINE
  5
5D44
  8
0
 62
     7
 10
4605.8849040174582
 20
27.789990464422839
 30
0.0
 11
4605.8849040174582
 21
224.3582076113955
 31
0.0
  0
LINE
  5
5D45
  8
0
 62
     7
 10
4605.8849040174564
 20
124.41679902595151
 30
0.0
 11
3809.135372609529
 21
124.41679902595151
 31
0.0
  0
LINE
  5
5D46
  8
0
 62
     7
 10
5198.767286983787
 20
224.3582076113955
 30
0.0
 11
3809.135372609529
 21
224.3582076113955
 31
0.0
  0
LINE
  5
5D47
  8
0
 62
     7
 10
3809.135372609529
 20
27.789990464422839
 30
0.0
 11
5198.3706107459848
 21
27.789990464422839
 31
0.0
  0
LINE
  5
5D48
  8
0
 62
     7
 10
5198.3706107459848
 20
27.789990464422839
 30
0.0
 11
5198.3706107459848
 21
502.95297128913938
 31
0.0
  0
LINE
  5
5D49
  8
0
 62
     7
 10
5198.3706107459848
 20
502.95297128913938
 30
0.0
 11
3809.135372609529
 21
502.95297128913938
 31
0.0
  0
TEXT
  5
5D4A
  8
0
 62
     7
 10
3842.6442921374801
 20
63.896650753810242
 30
0.0
 40
26.666666666666661
  1
Scale
 41
1.3701747965659661
  7
SIMPLEX
 72
     5
 11
3976.616938912819
 21
63.896650753810242
 31
0.0
  0
TEXT
  5
5D4B
  8
0
 62
     7
 10
4683.1454981343959
 20
171.8579086756128
 30
0.0
 40
26.666666666666661
  1
Drawing No.
  7
SIMPLEX
 72
     2
 11
4915.5264505153482
 21
171.8579086756128
 31
0.0
  0
LINE
  5
5D4C
  8
0
 62
     7
 10
-150.72067587339731
 20
0.0
 30
0.0
 11
5236.6666666666652
 21
0.0
 31
0.0
  0
LINE
  5
5D4D
  8
0
 62
     7
 10
5236.6666666666652
 20
0.0
 30
0.0
 11
5236.6666666666642
 21
4321.4820693865122
 31
0.0
  0
LINE
  5
5D4E
  8
0
 62
     7
 10
5236.6666666666642
 20
4321.4820693865122
 30
0.0
 11
-150.72067587339731
 21
4321.4820693865122
 31
0.0
  0
LINE
  5
5D4F
  8
0
 62
     7
 10
-150.72067587339731
 20
4321.4820693865122
 30
0.0
 11
-150.72067587339731
 21
0.0
 31
0.0
  0
TEXT
  5
5D51
  8
0
 62
     7
 10
4047.82656048435
 20
60.615948988497621
 30
0.0
 40
40.0
  1
1:20
  7
TITLE3
  0
LINE
  5
5D54
  8
0
  6
PHANTOM2
 62
     7
 10
441.53242631655479
 20
3250.954397069755
 30
0.0
 11
441.53242631655479
 21
2069.1305085760282
 31
0.0
  0
LINE
  5
5D55
  8
0
  6
PHANTOM2
 62
     7
 10
940.92545630160907
 20
1569.130508576028
 30
0.0
 11
2045.5360143388821
 21
1569.130508576028
 31
0.0
  0
LINE
  5
5D56
  8
0
  6
PHANTOM2
 62
     7
 10
911.67367560196385
 20
3250.954397069755
 30
0.0
 11
441.53242631655479
 21
3250.954397069755
 31
0.0
  0
LINE
  5
5D57
  8
0
  6
PHANTOM2
 62
     7
 10
911.67367560196385
 20
2069.1305085760282
 30
0.0
 11
441.53242631655479
 21
2069.1305085760282
 31
0.0
  0
LINE
  5
5D59
  8
0
  6
PHANTOM2
 62
     7
 10
2045.5360143388821
 20
2023.409551263052
 30
0.0
 11
2045.5360143388821
 21
1569.130508576028
 31
0.0
  0
TEXT
  5
5D5A
  8
0
 62
     7
 10
1129.5965638822879
 20
1593.7792689949381
 30
0.0
 40
40.0
  1
500 min CLEARANCE
  7
TITLE3
  0
TEXT
  5
5D5B
  8
0
 62
     7
 10
515.69915545024276
 20
2363.2319797424211
 30
0.0
 40
40.0
  1
500 min CLEARANCE
 50
90.0
  7
TITLE3
  0
TEXT
  5
5D5C
  8
0
 62
     7
 10
1267.231516752807
 20
2823.8711498694238
 30
0.0
 40
62.999999998424997
  1
OPA
  7
TITLE5
 72
     1
 11
1355.7315167505949
 21
2823.8711498694238
 31
0.0
  0
TEXT
  5
5D5E
  8
0
 62
     7
 10
1163.086141007527
 20
765.00445878644223
 30
0.0
 40
62.999999998424997
  1
OPA170RKTH
  7
TITLE5
 72
     1
 11
1455.5861410002151
 21
765.00445878644223
 31
0.0
  0
LINE
  5
5D5F
  8
0
 62
     7
 10
941.53601433888161
 20
3252.1305085760282
 30
0.0
 11
2045.5360143388821
 21
3252.1305085760309
 31
0.0
  0
LINE
  5
5D6C
  8
0
 62
     7
 10
941.53601433888161
 20
3252.1305085760282
 30
0.0
 11
941.53601433888161
 21
2069.1305085760282
 31
0.0
  0
LINE
  5
5D6D
  8
0
 62
     7
 10
2103.5360143388798
 20
3209.1305085760268
 30
0.0
 11
2103.5360143388798
 21
2147.1305085760282
 31
0.0
  0
LINE
  5
5D6E
  8
0
  6
PHANTOM2
 62
     7
 10
3692.6622255650391
 20
3258.9696532723301
 30
0.0
 11
2509.6622255650391
 21
3258.9696532723301
 31
0.0
  0
TEXT
  5
5D6F
  8
0
 62
     7
 10
2741.8783973617892
 20
3174.4751029972599
 30
0.0
 40
40.0
  1
2000 min CLEARANCE
  7
TITLE3
  0
LINE
  5
5D72
  8
0
  6
PHANTOM2
 62
     7
 10
3692.6622255650391
 20
1292.9817639316061
 30
0.0
 11
3692.6622255650391
 21
3258.9696532723301
 31
0.0
  0
LINE
  5
5D73
  8
0
  6
PHANTOM2
 62
     7
 10
2509.6622255650391
 20
1293.0458925957789
 30
0.0
 11
2509.6622255650391
 21
3258.9696532723301
 31
0.0
  0
LINE
  5
5D74
  8
0
 62
     7
 10
1921.113492487211
 20
1123.2820153058401
 30
0.0
 11
1976.613492487211
 21
1123.2820153058401
 31
0.0
  0
LINE
  5
5D75
  8
0
 62
     7
 10
1921.113492487211
 20
1093.8820153058391
 30
0.0
 11
1976.613492487211
 21
1093.8820153058391
 31
0.0
  0
LINE
  5
5D76
  8
0
 62
     7
 10
1921.113492487211
 20
1123.2820153058401
 30
0.0
 11
1921.113492487211
 21
1093.8820153058391
 31
0.0
  0
LINE
  5
5D77
  8
0
 62
     7
 10
1976.613492487211
 20
1069.2820153058401
 30
0.0
 11
2015.9134924872119
 21
1108.582015305838
 31
0.0
  0
LINE
  5
5D78
  8
0
 62
     7
 10
1976.613492487211
 20
1123.2820153058401
 30
0.0
 11
1976.613492487211
 21
1147.8820153058391
 31
0.0
  0
LINE
  5
5D79
  8
0
 62
     7
 10
1976.613492487211
 20
1147.8820153058391
 30
0.0
 11
2015.9134924872119
 21
1108.582015305838
 31
0.0
  0
LINE
  5
5D7A
  8
0
 62
     7
 10
1976.613492487211
 20
1093.8820153058391
 30
0.0
 11
1976.613492487211
 21
1069.2820153058401
 31
0.0
  0
LINE
  5
5D7B
  8
0
 62
     7
 10
1960.4134924872101
 20
533.66174969199801
 30
0.0
 11
1921.113492487211
 21
572.96174969199797
 31
0.0
  0
LINE
  5
5D7C
  8
0
 62
     7
 10
1960.4134924872101
 20
558.26174969199758
 30
0.0
 11
1960.4134924872101
 21
533.66174969199801
 31
0.0
  0
LINE
  5
5D7D
  8
0
 62
     7
 10
2015.913492487211
 20
587.66174969199756
 30
0.0
 11
1960.4134924872101
 21
587.66174969199756
 31
0.0
  0
LINE
  5
5D7E
  8
0
 62
     7
 10
2015.913492487211
 20
558.26174969199758
 30
0.0
 11
1960.4134924872101
 21
558.26174969199758
 31
0.0
  0
LINE
  5
5D7F
  8
0
 62
     7
 10
2015.913492487211
 20
558.26174969199758
 30
0.0
 11
2015.913492487211
 21
587.66174969199756
 31
0.0
  0
LINE
  5
5D80
  8
0
 62
     7
 10
1960.4134924872101
 20
587.66174969199756
 30
0.0
 11
1960.4134924872101
 21
612.26174969199724
 31
0.0
  0
LINE
  5
5D81
  8
0
 62
     7
 10
1960.4134924872101
 20
612.26174969199724
 30
0.0
 11
1921.113492487211
 21
572.96174969199797
 31
0.0
  0
TEXT
  5
5F1D
  8
0
 62
     7
 10
4651.6793143303848
 20
590.04887497894515
 30
0.0
 40
24.0
  1
available on request
  7
TITLE3
  0
TEXT
  5
5F1E
  8
0
 62
     7
 10
4651.6793143303848
 20
631.19173212180226
 30
0.0
 40
24.0
  1
Certified dimensions
  7
TITLE3
  0
TEXT
  5
5F1F
  8
0
 62
     7
 10
4651.6793143303848
 20
672.33458926465937
 30
0.0
 40
24.0
  1
without notice or obligation.
  7
TITLE3
  0
TEXT
  5
5F20
  8
0
 62
     7
 10
4651.6793143303848
 20
713.47744640751648
 30
0.0
 40
24.0
  1
specifications at any time
  7
TITLE3
  0
TEXT
  5
5F21
  8
0
 62
     7
 10
4651.6793143303848
 20
754.62030355037371
 30
0.0
 40
24.0
  1
the right to change 
  7
TITLE3
  0
TEXT
  5
5F22
  8
0
 62
     7
 10
4651.6793143303848
 20
836.90601783608793
 30
0.0
 40
24.0
  1
NOTE
  7
TITLE3
  0
TEXT
  5
5F23
  8
0
 62
     7
 10
4651.6793143303848
 20
795.7631606932307
 30
0.0
 40
24.0
  1
The manufacturer reserves
  7
TITLE3
  0
LINE
  5
5F74
  8
0
 62
     7
 10
1071.5360143388821
 20
2060.1305085760282
 30
0.0
 11
1190.5360143388821
 21
2060.1305085760282
 31
0.0
  0
LINE
  5
5F76
  8
0
 62
     7
 10
1071.5360143388821
 20
3260.1305085760282
 30
0.0
 11
1071.5360143388821
 21
3252.1305085760282
 31
0.0
  0
LINE
  5
5F77
  8
0
 62
     7
 10
1190.5360143388821
 20
3260.1305085760282
 30
0.0
 11
1190.5360143388821
 21
3252.1305085760282
 31
0.0
  0
LINE
  5
5F79
  8
0
 62
     7
 10
1796.5360143388821
 20
3260.1305085760291
 30
0.0
 11
1796.5360143388821
 21
3252.1305085760309
 31
0.0
  0
LINE
  5
5F7A
  8
0
 62
     7
 10
1915.5360143388821
 20
3260.1305085760291
 30
0.0
 11
1915.5360143388821
 21
3252.1305085760309
 31
0.0
  0
LINE
  5
5F7B
  8
0
 62
     7
 10
1796.5360143388821
 20
2060.1305085760282
 30
0.0
 11
1915.5360143388821
 21
2060.1305085760282
 31
0.0
  0
LINE
  5
5F7C
  8
0
 62
     7
 10
1071.5360143388821
 20
3260.1305085760282
 30
0.0
 11
1190.5360143388821
 21
3260.1305085760282
 31
0.0
  0
LINE
  5
5F7D
  8
0
 62
     7
 10
1796.5360143388821
 20
3260.1305085760291
 30
0.0
 11
1915.5360143388821
 21
3260.1305085760291
 31
0.0
  0
LINE
  5
5F7E
  8
0
 62
     7
 10
1915.5360143388821
 20
2069.1305085760291
 30
0.0
 11
1915.5360143388821
 21
2060.1305085760282
 31
0.0
  0
LINE
  5
5F7F
  8
0
 62
     7
 10
1796.5360143388821
 20
2069.1305085760291
 30
0.0
 11
1796.5360143388821
 21
2060.1305085760282
 31
0.0
  0
LINE
  5
5F80
  8
0
 62
     7
 10
1190.5360143388821
 20
2069.1305085760282
 30
0.0
 11
1190.5360143388821
 21
2060.1305085760282
 31
0.0
  0
LINE
  5
5F81
  8
0
 62
     7
 10
1071.53601433888
 20
2069.1305085760291
 30
0.0
 11
1071.5360143388821
 21
2060.1305085760282
 31
0.0
  0
LINE
  5
5F95
  8
0
  6
PHANTOM2
 62
     7
 10
940.92545630160907
 20
2023.409551263052
 30
0.0
 11
940.92545630160907
 21
1569.130508576028
 31
0.0
  0
LINE
  5
5F96
  8
0
 62
     7
 10
1071.5360143388821
 20
297.96675119658357
 30
0.0
 11
1190.5360143388821
 21
297.96675119658357
 31
0.0
  0
LINE
  5
5F97
  8
0
 62
     7
 10
1796.5360143388821
 20
297.96675119658357
 30
0.0
 11
1915.5360143388821
 21
297.96675119658357
 31
0.0
  0
LINE
  5
5F98
  8
0
 62
     7
 10
1915.5360143388821
 20
329.96675119658369
 30
0.0
 11
1915.5360143388821
 21
297.96675119658357
 31
0.0
  0
LINE
  5
5F99
  8
0
 62
     7
 10
1796.5360143388821
 20
329.96675119658369
 30
0.0
 11
1796.5360143388821
 21
297.96675119658357
 31
0.0
  0
LINE
  5
5F9A
  8
0
 62
     7
 10
1190.5360143388821
 20
329.96675119658369
 30
0.0
 11
1190.5360143388821
 21
297.96675119658357
 31
0.0
  0
LINE
  5
5F9B
  8
0
 62
     7
 10
1071.53601433888
 20
329.96675119658369
 30
0.0
 11
1071.5360143388821
 21
297.96675119658357
 31
0.0
  0
LINE
  5
5FB0
  8
0
 62
     7
 10
1131.0360143388821
 20
287.9667511965838
 30
0.0
 11
1131.0360143388821
 21
307.96675119658357
 31
0.0
  0
LINE
  5
5FB3
  8
0
 62
     7
 10
1856.0360143388821
 20
287.9667511965838
 30
0.0
 11
1856.0360143388821
 21
307.96675119658357
 31
0.0
  0
LINE
  5
5FE3
  8
0
 62
     7
 10
2509.6622255650391
 20
1258.969653272329
 30
0.0
 11
3692.6622255650391
 21
1258.969653272329
 31
0.0
  0
LINE
  5
5FE6
  8
0
 62
     7
 10
2509.6622255650391
 20
1258.969653272329
 30
0.0
 11
2509.6622255650391
 21
329.96675119658369
 31
0.0
  0
LINE
  5
5FE7
  8
0
 62
     7
 10
3692.6622255650391
 20
1258.969653272329
 30
0.0
 11
3692.6622255650391
 21
329.96675119658369
 31
0.0
  0
LINE
  5
5FE8
  8
0
 62
     7
 10
2500.6622255650391
 20
329.96675119658369
 30
0.0
 11
3700.6622255650359
 21
329.96675119658369
 31
0.0
  0
LINE
  5
5FE9
  8
0
 62
     7
 10
2500.6622255650391
 20
329.96675119658369
 30
0.0
 11
2500.6622255650391
 21
297.96675119658357
 31
0.0
  0
LINE
  5
5FEA
  8
0
 62
     7
 10
3700.6622255650359
 20
329.96675119658369
 30
0.0
 11
3700.6622255650382
 21
297.96675119658391
 31
0.0
  0
LINE
  5
5FEB
  8
0
 62
     7
 10
2500.6622255650391
 20
297.96675119658357
 30
0.0
 11
3700.6622255650382
 21
297.96675119658391
 31
0.0
  0
LINE
  5
5FEC
  8
0
 62
     7
 10
2521.66222556504
 20
307.96675119658357
 30
0.0
 11
2521.66222556504
 21
287.9667511965838
 31
0.0
  0
LINE
  5
6185
  8
0
  6
HIDDEN2
 62
     7
 10
1021.340777383748
 20
2952.2694502124168
 30
0.0
 11
1021.340777383748
 21
2427.2694502124209
 31
0.0
  0
LINE
  5
6186
  8
0
  6
HIDDEN2
 62
     7
 10
966.34077738374845
 20
2952.2694502124168
 30
0.0
 11
966.34077738374845
 21
2427.2694502124168
 31
0.0
  0
ARC
  5
6187
  8
0
  6
HIDDEN2
 62
     7
 10
1221.3407773837471
 20
2952.2694502124159
 30
0.0
 40
255.0
 50
90.0
 51
180.0
  0
ARC
  5
6188
  8
0
  6
HIDDEN2
 62
     7
 10
1221.3407773837471
 20
2952.2694502124159
 30
0.0
 40
200.0
 50
90.0
 51
180.0
  0
LINE
  5
6189
  8
0
  6
HIDDEN2
 62
     7
 10
1531.3407773837471
 20
3152.2694502124168
 30
0.0
 11
1221.3407773837489
 21
3152.2694502124168
 31
0.0
  0
LINE
  5
618A
  8
0
  6
HIDDEN2
 62
     7
 10
1221.3407773837489
 20
3207.2694502124191
 30
0.0
 11
1532.540777383748
 21
3207.2694502124191
 31
0.0
  0
LINE
  5
618B
  8
0
  6
HIDDEN2
 62
     7
 10
1532.540777383746
 20
3152.2694502124168
 30
0.0
 11
1532.540777383748
 21
3207.2694502124191
 31
0.0
  0
LINE
  5
618C
  8
0
  6
HIDDEN
 62
     7
 10
1532.540777383746
 20
3152.2694502124168
 30
0.0
 11
1531.3407773837471
 21
3152.2694502124168
 31
0.0
  0
LINE
  5
618D
  8
0
  6
HIDDEN
 62
     7
 10
993.84077738375072
 20
2427.2694502124168
 30
0.0
 11
966.34077738374845
 21
2427.2694502124168
 31
0.0
  0
LINE
  5
618E
  8
0
  6
HIDDEN2
 62
     7
 10
1022.540777383751
 20
2427.2694502124168
 30
0.0
 11
990.34077738374845
 21
2427.2694502124168
 31
0.0
  0
TEXT
  5
61A9
  8
0
 62
     7
 10
2827.8371172255088
 20
543.27962596419775
 30
0.0
 40
62.999999998424997
  1
OPA170RKTH
  7
TITLE5
 72
     1
 11
3120.3371172181969
 21
543.27962596419775
 31
0.0
  0
LINE
  5
6409
  8
0
 62
     7
 10
2500.6622255650391
 20
356.6334178632506
 30
0.0
 11
2500.6622255650391
 21
398.08198392082471
 31
0.0
  0
LINE
  5
640A
  8
0
 62
     7
 10
2509.6622255650391
 20
356.6334178632506
 30
0.0
 11
2509.6622255650391
 21
398.08198392082471
 31
0.0
  0
LINE
  5
640B
  8
0
 62
     7
 10
2460.66222556504
 20
371.41531725415769
 30
0.0
 11
2420.6622255650391
 21
371.41531725415769
 31
0.0
  0
LINE
  5
640C
  8
0
 62
     7
 10
2549.6622255650391
 20
371.41531725415769
 30
0.0
 11
2589.6622255650391
 21
371.41531725415769
 31
0.0
  0
SOLID
  5
640D
  8
0
 62
     7
 10
2460.66222556504
 20
378.08198392082471
 30
0.0
 11
2460.66222556504
 21
364.74865058749077
 31
0.0
 12
2500.6622255650391
 22
371.41531725415769
 32
0.0
 13
2500.6622255650391
 23
371.41531725415769
 33
0.0
  0
SOLID
  5
640E
  8
0
 62
     7
 10
2549.6622255650391
 20
378.08198392082471
 30
0.0
 11
2549.6622255650391
 21
364.74865058749077
 31
0.0
 12
2509.6622255650391
 22
371.41531725415769
 32
0.0
 13
2509.6622255650391
 23
371.41531725415769
 33
0.0
  0
TEXT
  5
6460
  8
0
 62
     7
 10
2386.4539540879541
 20
356.4153172541578
 30
0.0
 40
30.0
  1
9
  0
LINE
  5
64A9
  8
0
 62
     7
 10
3692.6622255650391
 20
1258.969653272329
 30
0.0
 11
3692.6622255650391
 21
329.96675119658369
 31
0.0
  0
LINE
  5
64AA
  8
0
 62
     7
 10
2587.6622255650382
 20
765.96675119658335
 30
0.0
 11
2587.6622255650382
 21
423.96675119658317
 31
0.0
  0
LINE
  5
64AC
  8
0
 62
     7
 10
2671.6622255650391
 20
1179.9667511965829
 30
0.0
 11
2671.6622255650391
 21
954.96675119658323
 31
0.0
  0
LINE
  5
64AD
  8
0
 62
     7
 10
3692.6622255650391
 20
1258.969653272329
 30
0.0
 11
3692.6622255650391
 21
329.96675119658369
 31
0.0
  0
LINE
  5
64AE
  8
0
 62
     7
 10
3531.6622255650391
 20
1179.966751196584
 30
0.0
 11
3531.6622255650391
 21
954.96675119658232
 31
0.0
  0
LINE
  5
64AF
  8
0
 62
     7
 10
3649.66222556504
 20
765.96675119658335
 30
0.0
 11
3649.66222556504
 21
423.96675119658317
 31
0.0
  0
LINE
  5
64B8
  8
0
 62
     7
 10
2045.5360143388821
 20
2147.1305085760282
 30
0.0
 11
2103.5360143388798
 21
2147.1305085760282
 31
0.0
  0
LINE
  5
64B9
  8
0
 62
     7
 10
2045.5360143388821
 20
3209.1305085760268
 30
0.0
 11
2103.5360143388798
 21
3209.1305085760268
 31
0.0
  0
LINE
  5
64BA
  8
0
 62
     7
 10
2045.5360143388821
 20
2231.1305085760282
 30
0.0
 11
2103.5360143388798
 21
2231.1305085760282
 31
0.0
  0
LINE
  5
64BB
  8
0
 62
     7
 10
2045.5360143388821
 20
3091.1305085760291
 30
0.0
 11
2103.5360143388798
 21
3091.1305085760291
 31
0.0
  0
LINE
  5
6CC4
  8
0
 62
     7
 10
2045.5322123372939
 20
423.96675119658317
 30
0.0
 11
2103.472212337294
 21
423.96675119658317
 31
0.0
  0
LINE
  5
6CC7
  8
0
 62
     7
 10
2045.532212337293
 20
765.96675119658335
 30
0.0
 11
2103.4722123372931
 21
765.96675119658335
 31
0.0
  0
LINE
  5
6CC8
  8
0
 62
     7
 10
2045.5322123372921
 20
954.96675119658323
 30
0.0
 11
2103.5393400537459
 21
954.96675119658323
 31
0.0
  0
LINE
  5
6CC9
  8
0
 62
     7
 10
2045.5322123372921
 20
1179.9667511965829
 30
0.0
 11
2103.5393400537459
 21
1179.9667511965829
 31
0.0
  0
LINE
  5
6CCA
  8
0
 62
     7
 10
2671.6622255650391
 20
1179.9667511965829
 30
0.0
 11
3531.6622255650391
 21
1179.966751196584
 31
0.0
  0
LINE
  5
6CCB
  8
0
 62
     7
 10
2671.6622255650391
 20
954.96675119658323
 30
0.0
 11
3531.6622255650391
 21
954.96675119658232
 31
0.0
  0
LINE
  5
6CCC
  8
0
 62
     7
 10
2587.6622255650382
 20
765.96675119658335
 30
0.0
 11
3649.66222556504
 21
765.96675119658335
 31
0.0
  0
LINE
  5
6CCD
  8
0
 62
     7
 10
2587.6622255650382
 20
423.96675119658317
 30
0.0
 11
3649.66222556504
 21
423.96675119658317
 31
0.0
  0
TEXT
  5
6CF7
  8
0
 62
     7
 10
1160.73151675547
 20
2724.2220422591258
 30
0.0
 40
62.999999998424997
  1
170RKTH
  7
TITLE5
 72
     1
 11
1355.7315167505949
 21
2724.2220422591258
 31
0.0
  0
LINE
  5
6E85
  8
0
 62
     7
 10
1012.8693476722131
 20
1365.9667511965829
 30
0.0
 11
801.52084407135533
 21
1365.9667511965829
 31
0.0
  0
LINE
  5
6E86
  8
0
 62
     7
 10
1044.8693476722151
 20
297.96675119658357
 30
0.0
 11
801.52084407135533
 21
297.96675119658357
 31
0.0
  0
LINE
  5
6E87
  8
0
 62
     7
 10
828.18751073802207
 20
1325.9667511965829
 30
0.0
 11
828.18751073802173
 21
910.96721349962843
 31
0.0
  0
LINE
  5
6E88
  8
0
 62
     7
 10
828.18751073802173
 20
337.96675119658369
 30
0.0
 11
828.18751073802173
 21
661.80153556778919
 31
0.0
  0
SOLID
  5
6E89
  8
0
 62
     7
 10
821.52084407135555
 20
1325.9667511965829
 30
0.0
 11
834.8541774046887
 21
1325.9667511965829
 31
0.0
 12
828.18751073802207
 22
1365.9667511965829
 32
0.0
 13
828.18751073802207
 23
1365.9667511965829
 33
0.0
  0
SOLID
  5
6E8A
  8
0
 62
     7
 10
821.5208440713551
 20
337.96675119658369
 30
0.0
 11
834.85417740468836
 21
337.96675119658357
 31
0.0
 12
828.18751073802173
 22
297.96675119658357
 32
0.0
 13
828.18751073802173
 23
297.96675119658357
 33
0.0
  0
LINE
  5
6E8C
  8
0
 62
     7
 10
1131.0360143388821
 20
261.30008452991729
 30
0.0
 11
1131.0360143388821
 21
213.79158349606959
 31
0.0
  0
LINE
  5
6E8D
  8
0
 62
     7
 10
941.53601433888161
 20
303.30008452991711
 30
0.0
 11
941.53601433888161
 21
213.79158349606959
 31
0.0
  0
LINE
  5
6E8E
  8
0
 62
     7
 10
1171.0360143388821
 20
240.45825016273631
 30
0.0
 11
1211.0360143388821
 21
240.45825016273631
 31
0.0
  0
LINE
  5
6E8F
  8
0
 62
     7
 10
901.53601433888161
 20
240.45825016273631
 30
0.0
 11
861.53601433888184
 21
240.45825016273631
 31
0.0
  0
SOLID
  5
6E90
  8
0
 62
     7
 10
1171.0360143388821
 20
247.12491682940291
 30
0.0
 11
1171.0360143388821
 21
233.79158349606959
 31
0.0
 12
1131.0360143388821
 22
240.45825016273631
 32
0.0
 13
1131.0360143388821
 23
240.45825016273631
 33
0.0
  0
SOLID
  5
6E91
  8
0
 62
     7
 10
901.53601433888161
 20
247.12491682940291
 30
0.0
 11
901.53601433888161
 21
233.79158349606959
 31
0.0
 12
941.53601433888161
 22
240.45825016273631
 32
0.0
 13
941.53601433888161
 23
240.45825016273631
 33
0.0
  0
LINE
  5
6E93
  8
0
 62
     7
 10
1131.0360143388821
 20
261.30008452991729
 30
0.0
 11
1131.0360143388821
 21
213.79158349606959
 31
0.0
  0
LINE
  5
6E94
  8
0
 62
     7
 10
1856.0360143388821
 20
261.30008452991729
 30
0.0
 11
1856.0360143388821
 21
213.79158349606959
 31
0.0
  0
LINE
  5
6E95
  8
0
 62
     7
 10
1171.0360143388821
 20
240.45825016273631
 30
0.0
 11
1351.8693476722151
 21
240.45825016273631
 31
0.0
  0
LINE
  5
6E96
  8
0
 62
     7
 10
1816.0360143388821
 20
240.45825016273631
 30
0.0
 11
1635.202681005549
 21
240.45825016273631
 31
0.0
  0
SOLID
  5
6E97
  8
0
 62
     7
 10
1171.0360143388821
 20
247.12491682940291
 30
0.0
 11
1171.0360143388821
 21
233.79158349606959
 31
0.0
 12
1131.0360143388821
 22
240.45825016273631
 32
0.0
 13
1131.0360143388821
 23
240.45825016273631
 33
0.0
  0
SOLID
  5
6E98
  8
0
 62
     7
 10
1816.0360143388821
 20
247.12491682940291
 30
0.0
 11
1816.0360143388821
 21
233.79158349606959
 31
0.0
 12
1856.0360143388821
 22
240.45825016273631
 32
0.0
 13
1856.0360143388821
 23
240.45825016273631
 33
0.0
  0
LINE
  5
6E9A
  8
0
 62
     7
 10
941.53601433888161
 20
1285.6363199389939
 30
0.0
 11
941.53601433888161
 21
1519.248719278839
 31
0.0
  0
LINE
  5
6E9B
  8
0
 62
     7
 10
2103.5393400537459
 20
1206.6334178632501
 30
0.0
 11
2103.5393400537459
 21
1519.248719278839
 31
0.0
  0
LINE
  5
6E9C
  8
0
 62
     7
 10
981.53601433888173
 20
1492.582052612172
 30
0.0
 11
1390.871010529647
 21
1492.582052612172
 31
0.0
  0
LINE
  5
6E9D
  8
0
 62
     7
 10
2063.5393400537459
 20
1492.582052612172
 30
0.0
 11
1654.2043438629801
 21
1492.582052612172
 31
0.0
  0
SOLID
  5
6E9E
  8
0
 62
     7
 10
981.53601433888173
 20
1499.248719278839
 30
0.0
 11
981.53601433888173
 21
1485.915385945505
 31
0.0
 12
941.53601433888161
 22
1492.582052612172
 32
0.0
 13
941.53601433888161
 23
1492.582052612172
 33
0.0
  0
SOLID
  5
6E9F
  8
0
 62
     7
 10
2063.5393400537459
 20
1499.248719278839
 30
0.0
 11
2063.5393400537459
 21
1485.915385945505
 31
0.0
 12
2103.5393400537459
 22
1492.582052612172
 32
0.0
 13
2103.5393400537459
 23
1492.582052612172
 33
0.0
  0
LINE
  5
6EA1
  8
0
 62
     7
 10
2045.5322123372921
 20
1285.636319938995
 30
0.0
 11
2045.5322123372921
 21
1447.647491456333
 31
0.0
  0
LINE
  5
6EA2
  8
0
 62
     7
 10
941.53601433888161
 20
1285.6363199389939
 30
0.0
 11
941.53601433888161
 21
1447.647491456333
 31
0.0
  0
LINE
  5
6EA3
  8
0
 62
     7
 10
2005.5322123372921
 20
1420.9808247896669
 30
0.0
 11
1562.7007800047529
 21
1420.9808247896669
 31
0.0
  0
LINE
  5
6EA4
  8
0
 62
     7
 10
981.53601433888173
 20
1420.9808247896669
 30
0.0
 11
1424.3674466714201
 21
1420.9808247896669
 31
0.0
  0
SOLID
  5
6EA5
  8
0
 62
     7
 10
2005.5322123372921
 20
1427.6474914563339
 30
0.0
 11
2005.5322123372921
 21
1414.314158123
 31
0.0
 12
2045.5322123372921
 22
1420.9808247896669
 32
0.0
 13
2045.5322123372921
 23
1420.9808247896669
 33
0.0
  0
SOLID
  5
6EA6
  8
0
 62
     7
 10
981.53601433888173
 20
1427.6474914563339
 30
0.0
 11
981.53601433888173
 21
1414.314158123
 31
0.0
 12
941.53601433888161
 22
1420.9808247896669
 32
0.0
 13
941.53601433888161
 23
1420.9808247896669
 33
0.0
  0
LINE
  5
6EA8
  8
0
 62
     7
 10
2130.1388790039609
 20
423.96675119658317
 30
0.0
 11
2215.8976134899731
 21
423.96675119658317
 31
0.0
  0
LINE
  5
6EA9
  8
0
 62
     7
 10
1942.202681005549
 20
297.96675119658357
 30
0.0
 11
2215.8976134899731
 21
297.96675119658352
 31
0.0
  0
LINE
  5
6EAA
  8
0
 62
     7
 10
2189.230946823307
 20
463.9667511965834
 30
0.0
 11
2189.230946823307
 21
503.96675119658312
 31
0.0
  0
LINE
  5
6EAB
  8
0
 62
     7
 10
2189.230946823307
 20
257.96675119658352
 30
0.0
 11
2189.230946823307
 21
217.96675119658349
 31
0.0
  0
SOLID
  5
6EAC
  8
0
 62
     7
 10
2182.564280156641
 20
463.9667511965834
 30
0.0
 11
2195.8976134899731
 21
463.9667511965834
 31
0.0
 12
2189.230946823307
 22
423.96675119658317
 32
0.0
 13
2189.230946823307
 23
423.96675119658317
 33
0.0
  0
SOLID
  5
6EAD
  8
0
 62
     7
 10
2182.564280156641
 20
257.96675119658352
 30
0.0
 11
2195.8976134899731
 21
257.96675119658352
 31
0.0
 12
2189.230946823307
 22
297.96675119658352
 32
0.0
 13
2189.230946823307
 23
297.96675119658352
 33
0.0
  0
LINE
  5
6EAF
  8
0
 62
     7
 10
2130.1388790039591
 20
765.96675119658335
 30
0.0
 11
2215.9365769749661
 21
765.96675119658335
 31
0.0
  0
LINE
  5
6EB0
  8
0
 62
     7
 10
2130.1388790039609
 20
423.96675119658317
 30
0.0
 11
2215.9365769749661
 21
423.96675119658317
 31
0.0
  0
LINE
  5
6EB1
  8
0
 62
     7
 10
2189.2699103083
 20
725.96675119658335
 30
0.0
 11
2189.2699103083
 21
661.63341786324986
 31
0.0
  0
LINE
  5
6EB2
  8
0
 62
     7
 10
2189.2699103083
 20
463.9667511965834
 30
0.0
 11
2189.2699103083
 21
528.30008452991683
 31
0.0
  0
SOLID
  5
6EB3
  8
0
 62
     7
 10
2182.6032436416331
 20
725.96675119658335
 30
0.0
 11
2195.936576974967
 21
725.96675119658335
 31
0.0
 12
2189.2699103083
 22
765.96675119658335
 32
0.0
 13
2189.2699103083
 23
765.96675119658335
 33
0.0
  0
SOLID
  5
6EB4
  8
0
 62
     7
 10
2182.6032436416331
 20
463.9667511965834
 30
0.0
 11
2195.936576974967
 21
463.9667511965834
 31
0.0
 12
2189.2699103083
 22
423.96675119658317
 32
0.0
 13
2189.2699103083
 23
423.96675119658317
 33
0.0
  0
LINE
  5
6EB6
  8
0
 62
     7
 10
2130.206006720412
 20
954.96675119658323
 30
0.0
 11
2215.943363586563
 21
954.96675119658323
 31
0.0
  0
LINE
  5
6EB7
  8
0
 62
     7
 10
2130.206006720412
 20
1179.9667511965829
 30
0.0
 11
2215.943363586563
 21
1179.9667511965829
 31
0.0
  0
LINE
  5
6EB8
  8
0
 62
     7
 10
2189.2766969198969
 20
994.96675119658335
 30
0.0
 11
2189.2766969198969
 21
1016.215924455291
 31
0.0
  0
SOLID
  5
6EBA
  8
0
 62
     7
 10
2182.61003025323
 20
994.96675119658335
 30
0.0
 11
2195.943363586563
 21
994.96675119658335
 31
0.0
 12
2189.2766969198969
 22
954.96675119658323
 32
0.0
 13
2189.2766969198969
 23
954.96675119658323
 33
0.0
  0
SOLID
  5
6EBB
  8
0
 62
     7
 10
2182.61003025323
 20
1139.9667511965829
 30
0.0
 11
2195.943363586563
 21
1139.9667511965829
 31
0.0
 12
2189.2766969198969
 22
1179.9667511965829
 32
0.0
 13
2189.2766969198969
 23
1179.9667511965829
 33
0.0
  0
LINE
  5
6EBF
  8
0
 62
     7
 10
2189.2766969198969
 20
1116.2159244552911
 30
0.0
 11
2189.2766969198969
 21
1139.9667511965829
 31
0.0
  0
LINE
  5
6F33
  8
0
 62
     7
 10
2521.66222556504
 20
261.30008452991729
 30
0.0
 11
2521.66222556504
 21
214.759205016957
 31
0.0
  0
LINE
  5
6F34
  8
0
 62
     7
 10
2500.6622255650391
 20
271.30008452991689
 30
0.0
 11
2500.6622255650391
 21
214.759205016957
 31
0.0
  0
LINE
  5
6F35
  8
0
 62
     7
 10
2561.6622255650391
 20
241.4258716836236
 30
0.0
 11
2601.6622255650391
 21
241.4258716836236
 31
0.0
  0
LINE
  5
6F36
  8
0
 62
     7
 10
2460.66222556504
 20
241.4258716836236
 30
0.0
 11
2420.6622255650391
 21
241.4258716836236
 31
0.0
  0
SOLID
  5
6F37
  8
0
 62
     7
 10
2561.6622255650391
 20
248.09253835029031
 30
0.0
 11
2561.6622255650391
 21
234.759205016957
 31
0.0
 12
2521.66222556504
 22
241.4258716836236
 32
0.0
 13
2521.66222556504
 23
241.4258716836236
 33
0.0
  0
SOLID
  5
6F38
  8
0
 62
     7
 10
2460.66222556504
 20
248.09253835029031
 30
0.0
 11
2460.66222556504
 21
234.759205016957
 31
0.0
 12
2500.6622255650391
 22
241.4258716836236
 32
0.0
 13
2500.6622255650391
 23
241.4258716836236
 33
0.0
  0
LINE
  5
6F3A
  8
0
 62
     7
 10
2521.66222556504
 20
261.30008452991729
 30
0.0
 11
2521.66222556504
 21
215.01115029197629
 31
0.0
  0
LINE
  5
6F3B
  8
0
 62
     7
 10
3675.6622255650391
 20
261.30008452991729
 30
0.0
 11
3675.6622255650391
 21
215.01115029197629
 31
0.0
  0
LINE
  5
6F3C
  8
0
 62
     7
 10
2548.6622255650391
 20
241.67781695864301
 30
0.0
 11
2954.4955588983721
 21
241.67781695864301
 31
0.0
  0
LINE
  5
6F3D
  8
0
 62
     7
 10
3653.6622255650391
 20
241.67781695864301
 30
0.0
 11
3247.828892231706
 21
241.67781695864301
 31
0.0
  0
SOLID
  5
6F3E
  8
0
 62
     7
 10
2561.6622255650391
 20
248.34448362530961
 30
0.0
 11
2561.6622255650391
 21
235.01115029197629
 31
0.0
 12
2521.66222556504
 22
241.67781695864301
 32
0.0
 13
2521.66222556504
 23
241.67781695864301
 33
0.0
  0
SOLID
  5
6F3F
  8
0
 62
     7
 10
3635.6622255650391
 20
248.34448362530961
 30
0.0
 11
3635.6622255650391
 21
235.01115029197629
 31
0.0
 12
3675.6622255650391
 22
241.67781695864301
 32
0.0
 13
3675.6622255650391
 23
241.67781695864301
 33
0.0
  0
LINE
  5
6F41
  8
0
 62
     7
 10
3700.6622255650382
 20
271.30008452991729
 30
0.0
 11
3700.6622255650382
 21
151.5543388433862
 31
0.0
  0
LINE
  5
6F42
  8
0
 62
     7
 10
2500.6622255650391
 20
271.30008452991689
 30
0.0
 11
2500.6622255650391
 21
151.5543388433862
 31
0.0
  0
LINE
  5
6F43
  8
0
 62
     7
 10
3660.6622255650391
 20
178.22100551005281
 30
0.0
 11
3232.328892231706
 21
178.22100551005281
 31
0.0
  0
LINE
  5
6F44
  8
0
 62
     7
 10
2540.6622255650391
 20
178.22100551005281
 30
0.0
 11
2968.9955588983721
 21
178.22100551005281
 31
0.0
  0
SOLID
  5
6F45
  8
0
 62
     7
 10
3660.6622255650391
 20
184.88767217671941
 30
0.0
 11
3660.6622255650391
 21
171.5543388433862
 31
0.0
 12
3700.6622255650382
 22
178.22100551005281
 32
0.0
 13
3700.6622255650382
 23
178.22100551005281
 33
0.0
  0
SOLID
  5
6F46
  8
0
 62
     7
 10
2540.6622255650391
 20
184.88767217671941
 30
0.0
 11
2540.6622255650391
 21
171.5543388433862
 31
0.0
 12
2500.6622255650391
 22
178.22100551005281
 32
0.0
 13
2500.6622255650391
 23
178.22100551005281
 33
0.0
  0
LINE
  5
6F48
  8
0
 62
     7
 10
2587.6622255650382
 20
776.63341786325009
 30
0.0
 11
2587.6622255650382
 21
1448.023667593249
 31
0.0
  0
LINE
  5
6F49
  8
0
 62
     7
 10
2509.6622255650391
 20
1285.636319938995
 30
0.0
 11
2509.6622255650391
 21
1448.023667593249
 31
0.0
  0
LINE
  5
6F4B
  8
0
 62
     7
 10
2469.66222556504
 20
1423.472077363281
 30
0.0
 11
2429.6622255650391
 21
1423.472077363281
 31
0.0
  0
SOLID
  5
6F4D
  8
0
 62
     7
 10
2469.66222556504
 20
1430.1387440299479
 30
0.0
 11
2469.66222556504
 21
1416.805410696614
 31
0.0
 12
2509.6622255650391
 22
1423.472077363281
 32
0.0
 13
2509.6622255650391
 23
1423.472077363281
 33
0.0
  0
LINE
  5
6F56
  8
0
 62
     7
 10
2587.6622255650382
 20
776.63341786325009
 30
0.0
 11
2587.6622255650382
 21
1450.1387440299479
 31
0.0
  0
LINE
  5
6F57
  8
0
 62
     7
 10
3649.66222556504
 20
776.63341786325009
 30
0.0
 11
3649.66222556504
 21
1450.1387440299479
 31
0.0
  0
LINE
  5
6F58
  8
0
 62
     7
 10
2627.6622255650391
 20
1423.472077363281
 30
0.0
 11
3044.495558898373
 21
1423.472077363281
 31
0.0
  0
LINE
  5
6F59
  8
0
 62
     7
 10
3609.66222556504
 20
1423.472077363281
 30
0.0
 11
3192.828892231706
 21
1423.472077363281
 31
0.0
  0
SOLID
  5
6F5A
  8
0
 62
     7
 10
2627.6622255650391
 20
1430.1387440299479
 30
0.0
 11
2627.6622255650391
 21
1416.805410696614
 31
0.0
 12
2587.6622255650382
 22
1423.472077363281
 32
0.0
 13
2587.6622255650382
 23
1423.472077363281
 33
0.0
  0
SOLID
  5
6F5B
  8
0
 62
     7
 10
3609.66222556504
 20
1430.1387440299479
 30
0.0
 11
3609.66222556504
 21
1416.805410696614
 31
0.0
 12
3649.66222556504
 22
1423.472077363281
 32
0.0
 13
3649.66222556504
 23
1423.472077363281
 33
0.0
  0
LINE
  5
6F5D
  8
0
 62
     7
 10
2671.6622255650391
 20
1206.6334178632501
 30
0.0
 11
2671.6622255650391
 21
1518.283214745996
 31
0.0
  0
LINE
  5
6F5E
  8
0
 62
     7
 10
2509.6622255650391
 20
1285.636319938995
 30
0.0
 11
2509.6622255650391
 21
1518.283214745996
 31
0.0
  0
LINE
  5
6F5F
  8
0
 62
     7
 10
2631.6622255650391
 20
1491.616548079329
 30
0.0
 11
2549.6622255650391
 21
1491.616548079329
 31
0.0
  0
LINE
  5
6F60
  8
0
 62
     7
 10
2509.6622255650391
 20
1491.616548079329
 30
0.0
 11
2469.66222556504
 21
1491.616548079329
 31
0.0
  0
SOLID
  5
6F61
  8
0
 62
     7
 10
2631.6622255650391
 20
1498.283214745996
 30
0.0
 11
2631.6622255650391
 21
1484.949881412663
 31
0.0
 12
2671.6622255650391
 22
1491.616548079329
 32
0.0
 13
2671.6622255650391
 23
1491.616548079329
 33
0.0
  0
SOLID
  5
6F62
  8
0
 62
     7
 10
2549.6622255650391
 20
1498.283214745996
 30
0.0
 11
2549.6622255650391
 21
1484.949881412663
 31
0.0
 12
2509.6622255650391
 22
1491.616548079329
 32
0.0
 13
2509.6622255650391
 23
1491.616548079329
 33
0.0
  0
LINE
  5
6F64
  8
0
 62
     7
 10
2671.6622255650391
 20
1206.6334178632501
 30
0.0
 11
2671.6622255650391
 21
1518.283214745996
 31
0.0
  0
LINE
  5
6F65
  8
0
 62
     7
 10
3531.6622255650391
 20
1206.6334178632501
 30
0.0
 11
3531.6622255650391
 21
1518.283214745996
 31
0.0
  0
LINE
  5
6F66
  8
0
 62
     7
 10
2711.6622255650391
 20
1491.616548079329
 30
0.0
 11
3037.495558898373
 21
1491.616548079329
 31
0.0
  0
LINE
  5
6F67
  8
0
 62
     7
 10
3491.6622255650391
 20
1491.616548079329
 30
0.0
 11
3165.828892231707
 21
1491.616548079329
 31
0.0
  0
SOLID
  5
6F68
  8
0
 62
     7
 10
2711.6622255650391
 20
1498.283214745996
 30
0.0
 11
2711.6622255650391
 21
1484.949881412663
 31
0.0
 12
2671.6622255650391
 22
1491.616548079329
 32
0.0
 13
2671.6622255650391
 23
1491.616548079329
 33
0.0
  0
SOLID
  5
6F69
  8
0
 62
     7
 10
3491.6622255650391
 20
1498.283214745996
 30
0.0
 11
3491.6622255650391
 21
1484.949881412663
 31
0.0
 12
3531.6622255650391
 22
1491.616548079329
 32
0.0
 13
3531.6622255650391
 23
1491.616548079329
 33
0.0
  0
LINE
  5
6F6B
  8
0
 62
     7
 10
2509.6622255650391
 20
1285.636319938995
 30
0.0
 11
2509.6622255650391
 21
1571.104475417746
 31
0.0
  0
LINE
  5
6F6C
  8
0
 62
     7
 10
3692.6622255650391
 20
1285.636319938995
 30
0.0
 11
3692.6622255650391
 21
1571.104475417746
 31
0.0
  0
LINE
  5
6F6D
  8
0
 62
     7
 10
2549.6622255650391
 20
1564.437808751079
 30
0.0
 11
3029.495558898373
 21
1564.437808751079
 31
0.0
  0
LINE
  5
6F6E
  8
0
 62
     7
 10
3652.66222556504
 20
1564.437808751079
 30
0.0
 11
3172.828892231706
 21
1564.437808751079
 31
0.0
  0
SOLID
  5
6F6F
  8
0
 62
     7
 10
2549.6622255650391
 20
1571.104475417746
 30
0.0
 11
2549.6622255650391
 21
1557.7711420844121
 31
0.0
 12
2509.6622255650391
 22
1564.437808751079
 32
0.0
 13
2509.6622255650391
 23
1564.437808751079
 33
0.0
  0
SOLID
  5
6F70
  8
0
 62
     7
 10
3652.66222556504
 20
1571.104475417746
 30
0.0
 11
3652.66222556504
 21
1557.7711420844121
 31
0.0
 12
3692.6622255650391
 22
1564.437808751079
 32
0.0
 13
3692.6622255650391
 23
1564.437808751079
 33
0.0
  0
TEXT
  5
6FC6
  8
0
 62
     7
 10
3056.1622255650391
 20
1549.437808751079
 30
0.0
 40
30.0
  1
1183
  0
TEXT
  5
6FC7
  8
0
 62
     7
 10
3064.1622255650391
 20
1476.616548079329
 30
0.0
 40
30.0
  1
860
  0
TEXT
  5
6FC8
  8
0
 62
     7
 10
2372.9955588983721
 20
1476.616548079329
 30
0.0
 40
30.0
  1
162
  0
TEXT
  5
6FC9
  8
0
 62
     7
 10
3071.1622255650391
 20
1408.472077363281
 30
0.0
 40
30.0
  1
1062
  0
TEXT
  5
6FCA
  8
0
 62
     7
 10
2352.9955588983721
 20
1408.472077363281
 30
0.0
 40
30.0
  1
78
  0
TEXT
  5
6FCB
  8
0
 62
     7
 10
2995.6622255650391
 20
163.22100551005289
 30
0.0
 40
30.0
  1
1200 O/A
  0
TEXT
  5
6FCC
  8
0
 62
     7
 10
2981.1622255650391
 20
226.67781695864301
 30
0.0
 40
30.0
  1
1154 CTRS
  0
TEXT
  5
6FCD
  8
0
 62
     7
 10
2373.995558898373
 20
226.4258716836236
 30
0.0
 40
30.0
  1
21
  0
TEXT
  5
6FCE
  8
0
 62
     7
 10
2204.2766969198969
 20
822.64513264303105
 30
0.0
 40
30.0
  1
189
 50
90.0
  0
TEXT
  5
6FCF
  8
0
 62
     7
 10
2204.2766969198969
 20
1026.2159244552911
 30
0.0
 40
30.0
  1
225
 50
90.0
  0
TEXT
  5
6FD0
  8
0
 62
     7
 10
2204.2699103082991
 20
554.96675119658369
 30
0.0
 40
30.0
  1
342
 50
90.0
  0
TEXT
  5
6FD1
  8
0
 62
     7
 10
2204.230946823307
 20
325.46675119658391
 30
0.0
 40
30.0
  1
126
 50
90.0
  0
TEXT
  5
6FD2
  8
0
 62
     7
 10
1451.0341133380871
 20
1405.980824789666
 30
0.0
 40
30.0
  1
1104
  0
TEXT
  5
6FD3
  8
0
 62
     7
 10
1417.5376771963131
 20
1477.582052612172
 30
0.0
 40
30.0
  1
1162 O/A
  0
TEXT
  5
6FD4
  8
0
 62
     7
 10
1378.5360143388821
 20
225.45825016273611
 30
0.0
 40
30.0
  1
725 CTRS
  0
TEXT
  5
6FD5
  8
0
 62
     7
 10
981.28601433888173
 20
225.45825016273611
 30
0.0
 40
30.0
  1
189.5
  0
TEXT
  5
6FD6
  8
0
 62
     7
 10
843.18751073802184
 20
688.4682022344557
 30
0.0
 40
30.0
  1
1068 O/A
 50
90.0
  0
LINE
  5
72F0
  8
0
  6
PHANTOM2
 10
940.35990283260821
 20
3281.9928473129471
 30
0.0
 11
940.35990283260821
 21
3752.1340965983541
 31
0.0
  0
LINE
  5
72F3
  8
0
  6
PHANTOM2
 10
941.53601433887877
 20
3752.1305085760291
 30
0.0
 11
1748.359902832608
 21
3752.1305085760291
 31
0.0
  0
TEXT
  5
72F4
  8
0
 10
1023.387433087475
 20
3689.2593085326289
 30
0.0
 40
40.0
  1
500 min CLEARANCE
  7
TITLE3
  0
LINE
  5
72F5
  8
0
  6
PHANTOM2
 10
1748.359902832608
 20
3281.9928473129471
 30
0.0
 11
1748.359902832608
 21
3752.1305085760291
 31
0.0
  0
CIRCLE
  5
7990
  8
0
 10
1350.5360143388821
 20
2784.1305085760291
 30
0.0
 40
326.0
  0
LINE
  5
7997
  8
0
 62
     7
 10
1024.53601433888
 20
1365.9667511965829
 30
0.0
 11
1676.53601433888
 21
1365.966751196584
 31
0.0
  0
LINE
  5
7998
  8
0
 10
1024.53601433888
 20
1365.9667511965829
 30
0.0
 11
1024.53601433888
 21
1258.9696532723281
 31
0.0
  0
LINE
  5
7999
  8
0
 10
1676.53601433888
 20
1365.966751196584
 30
0.0
 11
1676.53601433888
 21
1258.9696532723281
 31
0.0
  0
LINE
  5
799C
  8
0
 62
     7
 10
2898.66222556504
 20
1365.9667511965829
 30
0.0
 11
3550.66222556504
 21
1365.966751196584
 31
0.0
  0
LINE
  5
799D
  8
0
 10
3550.66222556504
 20
1365.966751196584
 30
0.0
 11
3550.66222556504
 21
1258.9696532723281
 31
0.0
  0
LINE
  5
799E
  8
0
 10
2898.66222556504
 20
1365.9667511965829
 30
0.0
 11
2898.66222556504
 21
1258.9696532723281
 31
0.0
  0
LINE
  5
79AB
  8
0
 62
     7
 10
3675.6622255650391
 20
307.96675119658357
 30
0.0
 11
3675.6622255650391
 21
287.9667511965838
 31
0.0
  0
ENDSEC
  0
EOF
