  0
SECTION
  2
HEADER
  9
$ACADVER
  1
AC1015
  9
$ACADMAINTVER
 70
    20
  9
$DWGCODEPAGE
  3
ANSI_1252
  9
$INSBASE
 10
0.0
 20
0.0
 30
0.0
  9
$EXTMIN
 10
1430.408018119849
 20
-61.04672870280592
 30
-0.000000000000013
  9
$EXTMAX
 10
3935.01694140239
 20
2100.147420240176
 30
0.0000000000000023
  9
$LIMMIN
 10
0.0
 20
0.0
  9
$LIMMAX
 10
3890.0
 20
2660.0
  9
$ORTHOMODE
 70
     1
  9
$REGENMODE
 70
     1
  9
$FILLMODE
 70
     1
  9
$QTEXTMODE
 70
     0
  9
$MIRRTEXT
 70
     0
  9
$LTSCALE
 40
25.0
  9
$ATTMODE
 70
     1
  9
$TEXTSIZE
 40
25.0
  9
$TRACEWID
 40
0.05
  9
$TEXTSTYLE
  7
SIMPLEX
  9
$CLAYER
  8
DIM
  9
$CELTYPE
  6
ByLayer
  9
$CECOLOR
 62
   256
  9
$CELTSCALE
 40
1.0
  9
$DISPSILH
 70
     0
  9
$DIMSCALE
 40
1.0
  9
$DIMASZ
 40
30.0
  9
$DIMEXO
 40
20.0
  9
$DIMDLI
 40
0.38
  9
$DIMRND
 40
0.0
  9
$DIMDLE
 40
0.0
  9
$DIMEXE
 40
20.0
  9
$DIMTP
 40
0.0
  9
$DIMTM
 40
0.0
  9
$DIMTXT
 40
30.0
  9
$DIMCEN
 40
0.09
  9
$DIMTSZ
 40
0.0
  9
$DIMTOL
 70
     0
  9
$DIMLIM
 70
     0
  9
$DIMTIH
 70
     0
  9
$DIMTOH
 70
     0
  9
$DIMSE1
 70
     0
  9
$DIMSE2
 70
     0
  9
$DIMTAD
 70
     0
  9
$DIMZIN
 70
     0
  9
$DIMBLK
  1

  9
$DIMASO
 70
     0
  9
$DIMSHO
 70
     0
  9
$DIMPOST
  1

  9
$DIMAPOST
  1

  9
$DIMALT
 70
     0
  9
$DIMALTD
 70
     2
  9
$DIMALTF
 40
25.4
  9
$DIMLFAC
 40
1.0
  9
$DIMTOFL
 70
     0
  9
$DIMTVP
 40
0.0
  9
$DIMTIX
 70
     0
  9
$DIMSOXD
 70
     0
  9
$DIMSAH
 70
     0
  9
$DIMBLK1
  1

  9
$DIMBLK2
  1

  9
$DIMSTYLE
  2
STANDARD
  9
$DIMCLRD
 70
   256
  9
$DIMCLRE
 70
   256
  9
$DIMCLRT
 70
   256
  9
$DIMTFAC
 40
1.0
  9
$DIMGAP
 40
20.0
  9
$DIMJUST
 70
     0
  9
$DIMSD1
 70
     0
  9
$DIMSD2
 70
     0
  9
$DIMTOLJ
 70
     1
  9
$DIMTZIN
 70
     0
  9
$DIMALTZ
 70
     0
  9
$DIMALTTZ
 70
     0
  9
$DIMUPT
 70
     0
  9
$DIMDEC
 70
     4
  9
$DIMTDEC
 70
     4
  9
$DIMALTU
 70
     2
  9
$DIMALTTD
 70
     2
  9
$DIMTXSTY
  7
STANDARD
  9
$DIMAUNIT
 70
     0
  9
$DIMADEC
 70
     0
  9
$DIMALTRND
 40
0.0
  9
$DIMAZIN
 70
     0
  9
$DIMDSEP
 70
    46
  9
$DIMATFIT
 70
     3
  9
$DIMFRAC
 70
     0
  9
$DIMLDRBLK
  1

  9
$DIMLUNIT
 70
     2
  9
$DIMLWD
 70
    -2
  9
$DIMLWE
 70
    -2
  9
$DIMTMOVE
 70
     0
  9
$LUNITS
 70
     2
  9
$LUPREC
 70
     2
  9
$SKETCHINC
 40
0.1
  9
$FILLETRAD
 40
0.0
  9
$AUNITS
 70
     0
  9
$AUPREC
 70
     2
  9
$MENU
  1
\acad12\support\cnc
  9
$ELEVATION
 40
0.0
  9
$PELEVATION
 40
0.0
  9
$THICKNESS
 40
0.0
  9
$LIMCHECK
 70
     0
  9
$CHAMFERA
 40
0.0
  9
$CHAMFERB
 40
0.0
  9
$CHAMFERC
 40
0.0
  9
$CHAMFERD
 40
0.0
  9
$SKPOLY
 70
     0
  9
$TDCREATE
 40
2451409.611953009
  9
$TDUCREATE
 40
2451409.070286342
  9
$TDUPDATE
 40
2454447.471140486
  9
$TDUUPDATE
 40
2454446.929473820
  9
$TDINDWG
 40
0.8061452546
  9
$TDUSRTIMER
 40
0.8061443519
  9
$USRTIMER
 70
     1
  9
$ANGBASE
 50
0.0
  9
$ANGDIR
 70
     0
  9
$PDMODE
 70
     2
  9
$PDSIZE
 40
10.0
  9
$PLINEWID
 40
0.0
  9
$SPLFRAME
 70
     0
  9
$SPLINETYPE
 70
     6
  9
$SPLINESEGS
 70
     8
  9
$HANDSEED
  5
1E89
  9
$SURFTAB1
 70
     6
  9
$SURFTAB2
 70
     6
  9
$SURFTYPE
 70
     6
  9
$SURFU
 70
     6
  9
$SURFV
 70
     6
  9
$UCSBASE
  2

  9
$UCSNAME
  2

  9
$UCSORG
 10
0.0
 20
0.0
 30
0.0
  9
$UCSXDIR
 10
1.0
 20
0.0
 30
0.0
  9
$UCSYDIR
 10
0.0
 20
1.0
 30
0.0
  9
$UCSORTHOREF
  2

  9
$UCSORTHOVIEW
 70
     0
  9
$UCSORGTOP
 10
0.0
 20
0.0
 30
0.0
  9
$UCSORGBOTTOM
 10
0.0
 20
0.0
 30
0.0
  9
$UCSORGLEFT
 10
0.0
 20
0.0
 30
0.0
  9
$UCSORGRIGHT
 10
0.0
 20
0.0
 30
0.0
  9
$UCSORGFRONT
 10
0.0
 20
0.0
 30
0.0
  9
$UCSORGBACK
 10
0.0
 20
0.0
 30
0.0
  9
$PUCSBASE
  2

  9
$PUCSNAME
  2

  9
$PUCSORG
 10
0.0
 20
0.0
 30
0.0
  9
$PUCSXDIR
 10
1.0
 20
0.0
 30
0.0
  9
$PUCSYDIR
 10
0.0
 20
1.0
 30
0.0
  9
$PUCSORTHOREF
  2

  9
$PUCSORTHOVIEW
 70
     0
  9
$PUCSORGTOP
 10
0.0
 20
0.0
 30
0.0
  9
$PUCSORGBOTTOM
 10
0.0
 20
0.0
 30
0.0
  9
$PUCSORGLEFT
 10
0.0
 20
0.0
 30
0.0
  9
$PUCSORGRIGHT
 10
0.0
 20
0.0
 30
0.0
  9
$PUCSORGFRONT
 10
0.0
 20
0.0
 30
0.0
  9
$PUCSORGBACK
 10
0.0
 20
0.0
 30
0.0
  9
$USERI1
 70
     0
  9
$USERI2
 70
     0
  9
$USERI3
 70
     0
  9
$USERI4
 70
     0
  9
$USERI5
 70
     0
  9
$USERR1
 40
0.0
  9
$USERR2
 40
0.0
  9
$USERR3
 40
0.0
  9
$USERR4
 40
0.0
  9
$USERR5
 40
0.0
  9
$WORLDVIEW
 70
     1
  9
$SHADEDGE
 70
     3
  9
$SHADEDIF
 70
    70
  9
$TILEMODE
 70
     1
  9
$MAXACTVP
 70
    16
  9
$PINSBASE
 10
0.0
 20
0.0
 30
0.0
  9
$PLIMCHECK
 70
     0
  9
$PEXTMIN
 10
1.000000000000000E+20
 20
1.000000000000000E+20
 30
1.000000000000000E+20
  9
$PEXTMAX
 10
-1.000000000000000E+20
 20
-1.000000000000000E+20
 30
-1.000000000000000E+20
  9
$PLIMMIN
 10
0.0
 20
0.0
  9
$PLIMMAX
 10
12.0
 20
9.0
  9
$UNITMODE
 70
     0
  9
$VISRETAIN
 70
     0
  9
$PLINEGEN
 70
     0
  9
$PSLTSCALE
 70
     0
  9
$TREEDEPTH
 70
  3020
  9
$CMLSTYLE
  2
Standard
  9
$CMLJUST
 70
     0
  9
$CMLSCALE
 40
1.0
  9
$PROXYGRAPHICS
 70
     1
  9
$MEASUREMENT
 70
     0
  9
$CELWEIGHT
370
    -1
  9
$ENDCAPS
280
     0
  9
$JOINSTYLE
280
     0
  9
$LWDISPLAY
290
     0
  9
$INSUNITS
 70
     0
  9
$HYPERLINKBASE
  1

  9
$STYLESHEET
  1

  9
$XEDIT
290
     1
  9
$CEPSNTYPE
380
     0
  9
$PSTYLEMODE
290
     1
  9
$FINGERPRINTGUID
  2
{C1B77E7F-B871-4146-8D0F-0CE74E7F6120}
  9
$VERSIONGUID
  2
{B748A983-A1ED-49F0-809E-FFEDAD23447C}
  9
$EXTNAMES
290
     1
  9
$PSVPSCALE
 40
0.0
  9
$OLESTARTUP
290
     0
  0
ENDSEC
  0
SECTION
  2
CLASSES
  0
CLASS
  1
ACDBDICTIONARYWDFLT
  2
AcDbDictionaryWithDefault
  3
ObjectDBX Classes
 90
        0
280
     0
281
     0
  0
CLASS
  1
MATERIAL
  2
AcDbMaterial
  3
ObjectDBX Classes
 90
     1024
280
     0
281
     0
  0
CLASS
  1
VISUALSTYLE
  2
AcDbVisualStyle
  3
ObjectDBX Classes
 90
     4095
280
     0
281
     0
  0
CLASS
  1
TABLESTYLE
  2
AcDbTableStyle
  3
ObjectDBX Classes
 90
     4095
280
     0
281
     0
  0
CLASS
  1
DICTIONARYVAR
  2
AcDbDictionaryVar
  3
ObjectDBX Classes
 90
        0
280
     0
281
     0
  0
CLASS
  1
SORTENTSTABLE
  2
AcDbSortentsTable
  3
ObjectDBX Classes
 90
        0
280
     0
281
     0
  0
CLASS
  1
ACDBPLACEHOLDER
  2
AcDbPlaceHolder
  3
ObjectDBX Classes
 90
        0
280
     0
281
     0
  0
CLASS
  1
LAYOUT
  2
AcDbLayout
  3
ObjectDBX Classes
 90
        0
280
     0
281
     0
  0
ENDSEC
  0
SECTION
  2
TABLES
  0
TABLE
  2
VPORT
  5
1CEA
330
0
100
AcDbSymbolTable
 70
     1
  0
VPORT
  5
1D1E
330
1CEA
100
AcDbSymbolTableRecord
100
AcDbViewportTableRecord
  2
*ACTIVE
 70
     0
 10
0.0
 20
0.0
 11
1.0
 21
1.0
 12
2682.71247976112
 22
1019.550345768685
 13
0.0
 23
0.0
 14
25.0
 24
25.0
 15
100.0
 25
100.0
 16
0.0
 26
0.0
 36
1.0
 17
0.0
 27
0.0
 37
0.0
 40
2174.226475469271
 41
1.848088531187122
 42
50.0
 43
0.0
 44
0.0
 50
0.0
 51
0.0
 71
     0
 72
   100
 73
     1
 74
     0
 75
     0
 76
     0
 77
     0
 78
     0
281
     0
 65
     1
110
0.0
120
0.0
130
0.0
111
1.0
121
0.0
131
0.0
112
0.0
122
1.0
132
0.0
 79
     0
146
0.0
  0
ENDTAB
  0
TABLE
  2
LTYPE
  5
1CE7
330
0
100
AcDbSymbolTable
 70
    17
  0
LTYPE
  5
1D0A
330
1CE7
100
AcDbSymbolTableRecord
100
AcDbLinetypeTableRecord
  2
ByBlock
 70
     0
  3

 72
    65
 73
     0
 40
0.0
  0
LTYPE
  5
1D0B
330
1CE7
100
AcDbSymbolTableRecord
100
AcDbLinetypeTableRecord
  2
ByLayer
 70
     0
  3

 72
    65
 73
     0
 40
0.0
  0
LTYPE
  5
1D0C
330
1CE7
100
AcDbSymbolTableRecord
100
AcDbLinetypeTableRecord
  2
CONTINUOUS
 70
     0
  3
Solid line
 72
    65
 73
     0
 40
0.0
  0
LTYPE
  5
1D1F
330
1CE7
100
AcDbSymbolTableRecord
100
AcDbLinetypeTableRecord
  2
HIDDEN
 70
     0
  3
Hidden __ __ __ __ __ __ __ __ __ __ __ __ __ _
 72
    65
 73
     2
 40
0.375
 49
0.25
 74
     0
 49
-0.125
 74
     0
  0
LTYPE
  5
1D20
330
1CE7
100
AcDbSymbolTableRecord
100
AcDbLinetypeTableRecord
  2
PHANTOM2
 70
     0
  3
Phantom (.5x) ___ _ _ ___ _ _ ___ _ _ ___ _ _
 72
    65
 73
     6
 40
1.25
 49
0.625
 74
     0
 49
-0.125
 74
     0
 49
0.125
 74
     0
 49
-0.125
 74
     0
 49
0.125
 74
     0
 49
-0.125
 74
     0
  0
LTYPE
  5
1D21
330
1CE7
100
AcDbSymbolTableRecord
100
AcDbLinetypeTableRecord
  2
CENTER
 70
     0
  3
Center ____ _ ____ _ ____ _ ____ _ ____ _ ____
 72
    65
 73
     4
 40
2.0
 49
1.25
 74
     0
 49
-0.25
 74
     0
 49
0.25
 74
     0
 49
-0.25
 74
     0
  0
LTYPE
  5
1D22
330
1CE7
100
AcDbSymbolTableRecord
100
AcDbLinetypeTableRecord
  2
AM_ISO02W050
 70
     0
  3
__ __ __ __ __ __ __ __ __ __ __ __ __ __ __
 72
    65
 73
     2
 40
7.5
 49
6.0
 74
     0
 49
-1.5
 74
     0
  0
LTYPE
  5
1D23
330
1CE7
100
AcDbSymbolTableRecord
100
AcDbLinetypeTableRecord
  2
AM_ISO08W050
 70
     0
  3
____ . ____ . ____ . ____ . ____ . ____ . ____
 72
    65
 73
     4
 40
18.0
 49
12.0
 74
     0
 49
-1.5
 74
     0
 49
3.0
 74
     0
 49
-1.5
 74
     0
  0
LTYPE
  5
1D24
330
1CE7
100
AcDbSymbolTableRecord
100
AcDbLinetypeTableRecord
  2
AM_ISO09W050
 70
     0
  3
_____ . . _____ . . _____ . . ____ .. ____
 72
    65
 73
     6
 40
22.5
 49
12.0
 74
     0
 49
-1.5
 74
     0
 49
3.0
 74
     0
 49
-1.5
 74
     0
 49
3.0
 74
     0
 49
-1.5
 74
     0
  0
LTYPE
  5
1D25
330
1CE7
100
AcDbSymbolTableRecord
100
AcDbLinetypeTableRecord
  2
AMCONSTR
 70
     0
  3
_______________________
 72
    65
 73
     2
 40
9999.0
 49
9999.0
 74
     0
 49
0.0
 74
     0
  0
LTYPE
  5
1D26
330
1CE7
100
AcDbSymbolTableRecord
100
AcDbLinetypeTableRecord
  2
AM_ISO08W050X2
 70
     0
  3
__ . __ . __ . __ . __ . __
 72
    65
 73
     4
 40
9.0
 49
6.0
 74
     0
 49
-0.75
 74
     0
 49
1.5
 74
     0
 49
-0.75
 74
     0
  0
LTYPE
  5
1D27
330
1CE7
100
AcDbSymbolTableRecord
100
AcDbLinetypeTableRecord
  2
AM_ISO02W050X2
 70
     0
  3
 _ _ _ _ _ _ _ _ _ _ _ _
 72
    65
 73
     2
 40
3.75
 49
3.0
 74
     0
 49
-0.75
 74
     0
  0
LTYPE
  5
1D28
330
1CE7
100
AcDbSymbolTableRecord
100
AcDbLinetypeTableRecord
  2
AMZIGZAG
 70
     0
  3
/\/-/\/-/\/-/\/-/\/-/\/
 72
    65
 73
     2
 40
11.0001
 49
0.0001
 74
     0
 49
-11.0
 74
     0
  0
LTYPE
  5
1D29
330
1CE7
100
AcDbSymbolTableRecord
100
AcDbLinetypeTableRecord
  2
CENTER2
 70
     0
  3
Center (.5x) ___ _ ___ _ ___ _ ___ _ ___ _ ___
 72
    65
 73
     4
 40
1.125
 49
0.75
 74
     0
 49
-0.125
 74
     0
 49
0.125
 74
     0
 49
-0.125
 74
     0
  0
LTYPE
  5
1D2A
330
1CE7
100
AcDbSymbolTableRecord
100
AcDbLinetypeTableRecord
  2
HIDDEN2
 70
     0
  3
Hidden (.5x) _ _ _ _ _ _ _ _ _ _ _ _ _ _ _ _ _
 72
    65
 73
     2
 40
0.1875
 49
0.125
 74
     0
 49
-0.0625
 74
     0
  0
LTYPE
  5
1D2B
330
1CE7
100
AcDbSymbolTableRecord
100
AcDbLinetypeTableRecord
  2
AMZIGZAG2
 70
     0
  3
/\/-/\/-/\/-/\/-/\/-/\/
 72
    65
 73
     2
 40
0.4401
 49
0.0001
 74
     0
 49
-0.4400000000000003
 74
     0
  0
LTYPE
  5
1D2C
330
1CE7
100
AcDbSymbolTableRecord
100
AcDbLinetypeTableRecord
  2
ACANSTGB
 70
     0
  3
__ . . __ . .
 72
    65
 73
     6
 40
0.35433070866
 49
0.15748031496
 74
     0
 49
-0.03937007874
 74
     0
 49
0.03937007874
 74
     0
 49
-0.03937007874
 74
     0
 49
0.03937007874
 74
     0
 49
-0.03937007874
 74
     0
  0
LTYPE
  5
1D2D
330
1CE7
100
AcDbSymbolTableRecord
100
AcDbLinetypeTableRecord
  2
ACANSTGL
 70
     0
  3
_ _ _ _ _
 72
    65
 73
     2
 40
0.11811023622
 49
0.07874015748
 74
     0
 49
-0.03937007874
 74
     0
  0
ENDTAB
  0
TABLE
  2
LAYER
  5
1CE4
330
0
100
AcDbSymbolTable
 70
     5
  0
LAYER
  5
1D07
330
1CE4
100
AcDbSymbolTableRecord
100
AcDbLayerTableRecord
  2
0
 70
     0
 62
     7
  6
CONTINUOUS
370
    -3
390
1CF1
  0
LAYER
  5
1D1C
330
1CE4
100
AcDbSymbolTableRecord
100
AcDbLayerTableRecord
  2
DIM
 70
     0
 62
     7
  6
CONTINUOUS
370
    -3
390
1CF1
  0
LAYER
  5
1D2E
330
1CE4
100
AcDbSymbolTableRecord
100
AcDbLayerTableRecord
  2
TEXT
 70
     0
 62
   100
  6
CONTINUOUS
370
    -3
390
1CF1
  0
LAYER
  5
1D2F
330
1CE4
100
AcDbSymbolTableRecord
100
AcDbLayerTableRecord
  2
OUTLINE
 70
     0
 62
     7
  6
CONTINUOUS
370
    -3
390
1CF1
  0
LAYER
  5
1D30
330
1CE4
100
AcDbSymbolTableRecord
100
AcDbLayerTableRecord
  2
OVERLAY-A3
 70
     0
 62
     7
  6
CONTINUOUS
370
    -3
390
1CF1
  0
ENDTAB
  0
TABLE
  2
STYLE
  5
1CE5
330
0
100
AcDbSymbolTable
 70
     7
  0
STYLE
  5
1D08
330
1CE5
100
AcDbSymbolTableRecord
100
AcDbTextStyleTableRecord
  2
STANDARD
 70
     0
 40
0.0
 41
1.0
 50
0.0
 71
     0
 42
0.2
  3
txt
  4

  0
STYLE
  5
1D1D
330
1CE5
100
AcDbSymbolTableRecord
100
AcDbTextStyleTableRecord
  2
SIMPLEX
 70
     0
 40
30.0
 41
1.0
 50
0.0
 71
     0
 42
25.0
  3
SIMPLEX.shx
  4

  0
STYLE
  5
1D31
330
1CE5
100
AcDbSymbolTableRecord
100
AcDbTextStyleTableRecord
  2
TITLE3
 70
     0
 40
25.0
 41
1.0
 50
0.0
 71
     0
 42
25.0
  3
SIMPLEX
  4

  0
STYLE
  5
1D32
330
1CE5
100
AcDbSymbolTableRecord
100
AcDbTextStyleTableRecord
  2
TITLE5
 70
     0
 40
50.0
 41
1.0
 50
0.0
 71
     0
 42
50.0
  3
SIMPLEX
  4

  0
STYLE
  5
1D33
330
1CE5
100
AcDbSymbolTableRecord
100
AcDbTextStyleTableRecord
  2

 70
     1
 40
0.0
 41
1.0
 50
0.0
 71
     0
 42
25.0
  3
genltshp.shx
  4

  0
STYLE
  5
1D34
330
1CE5
100
AcDbSymbolTableRecord
100
AcDbTextStyleTableRecord
  2
ACANSTS
 70
     0
 40
1.0
 41
1.0
 50
0.0
 71
     0
 42
25.0
  3
romans.shx
  4

  0
STYLE
  5
1D35
330
1CE5
100
AcDbSymbolTableRecord
100
AcDbTextStyleTableRecord
  2
ACANSGDT
 70
     0
 40
0.0
 41
1.0
 50
0.0
 71
     0
 42
25.0
  3
amgdt.shx
  4

  0
ENDTAB
  0
TABLE
  2
VIEW
  5
1CE8
330
0
100
AcDbSymbolTable
 70
     0
  0
ENDTAB
  0
TABLE
  2
UCS
  5
1CE9
330
0
100
AcDbSymbolTable
 70
     0
  0
ENDTAB
  0
TABLE
  2
APPID
  5
1CEB
330
0
100
AcDbSymbolTable
 70
    10
  0
APPID
  5
1D09
330
1CEB
100
AcDbSymbolTableRecord
100
AcDbRegAppTableRecord
  2
ACAD
 70
     0
  0
APPID
  5
1D36
330
1CEB
100
AcDbSymbolTableRecord
100
AcDbRegAppTableRecord
  2
MCAD_NO_VIS
 70
     0
  0
APPID
  5
1D37
330
1CEB
100
AcDbSymbolTableRecord
100
AcDbRegAppTableRecord
  2
ACAD_TEMP_GRAPHIC
 70
     0
  0
APPID
  5
1D38
330
1CEB
100
AcDbSymbolTableRecord
100
AcDbRegAppTableRecord
  2
AD_DRAW
 70
     0
  0
APPID
  5
1D39
330
1CEB
100
AcDbSymbolTableRecord
100
AcDbRegAppTableRecord
  2
ACATTRIBSERVICES
 70
     0
  0
APPID
  5
1D3A
330
1CEB
100
AcDbSymbolTableRecord
100
AcDbRegAppTableRecord
  2
DESIGNERASSEMBLIES
 70
     0
  0
APPID
  5
1D3B
330
1CEB
100
AcDbSymbolTableRecord
100
AcDbRegAppTableRecord
  2
ACADM_DIM_EDIT
 70
     0
  0
APPID
  5
1D3C
330
1CEB
100
AcDbSymbolTableRecord
100
AcDbRegAppTableRecord
  2
AMDT_DM_ADJ
 70
     0
  0
APPID
  5
1D3D
330
1CEB
100
AcDbSymbolTableRecord
100
AcDbRegAppTableRecord
  2
ACAD_EXEMPT_FROM_CAD_STANDARDS
 70
     0
  0
APPID
  5
1D3E
330
1CEB
100
AcDbSymbolTableRecord
100
AcDbRegAppTableRecord
  2
ACAD_PSEXT
 70
     0
  0
ENDTAB
  0
TABLE
  2
DIMSTYLE
  5
1CEC
330
0
100
AcDbSymbolTable
 70
     8
100
AcDbDimStyleTable
 71
     1
340
1D3F
  0
DIMSTYLE
105
1D3F
330
1CEC
100
AcDbSymbolTableRecord
100
AcDbDimStyleTableRecord
  2
STANDARD
 70
     0
271
     2
272
     2
279
     2
340
1D1D
  0
DIMSTYLE
105
1D40
330
1CEC
100
AcDbSymbolTableRecord
100
AcDbDimStyleTableRecord
  2
AM_ANSI
 70
     0
  4
mm
 41
0.1
 42
0.05
 43
0.5
 44
0.1
 47
0.1
 48
0.1
 78
     7
140
0.12
141
0.0
146
0.71
147
0.06
176
   256
177
   256
178
     2
271
     2
272
     2
279
     2
340
1D1D
  0
DIMSTYLE
105
1D41
330
1CEC
100
AcDbSymbolTableRecord
100
AcDbDimStyleTableRecord
  2
AM_ANSI$3
 70
     0
  4
mm
 41
0.1
 42
0.05
 43
0.5
 44
0.1
 47
0.1
 48
0.1
 78
     7
140
0.12
141
0.0
146
0.71
147
0.06
176
   256
177
   256
178
     2
271
     2
272
     2
279
     2
340
1D1D
  0
DIMSTYLE
105
1D42
330
1CEC
100
AcDbSymbolTableRecord
100
AcDbDimStyleTableRecord
  2
AM_ANSI$4
 70
     0
  4
mm
 41
0.1
 42
0.05
 43
0.5
 44
0.1
 47
0.1
 48
0.1
 78
     7
140
0.12
141
0.0
146
0.71
147
0.06
176
   256
177
   256
178
     2
271
     2
272
     2
279
     2
340
1D1D
  0
DIMSTYLE
105
1D43
330
1CEC
100
AcDbSymbolTableRecord
100
AcDbDimStyleTableRecord
  2
AM_ANSI$7
 70
     0
  4
mm
 41
0.1
 42
0.05
 43
0.5
 44
0.1
 47
0.1
 48
0.1
 78
     7
140
0.24
141
0.0
146
0.71
147
0.06
176
   256
177
   256
178
     2
271
     2
272
     2
279
     2
340
1D1D
  0
DIMSTYLE
105
1D44
330
1CEC
100
AcDbSymbolTableRecord
100
AcDbDimStyleTableRecord
  2
AM_ANSI$SF
 70
     0
  4
mm
 41
0.1
 42
0.05
 43
0.5
 44
0.1
 47
0.1
 48
0.1
 75
     1
 76
     1
 78
     7
140
0.12
141
0.0
146
0.71
147
0.06
176
   256
177
   256
178
     2
271
     2
272
     2
279
     2
340
1D1D
  0
DIMSTYLE
105
1D45
330
1CEC
100
AcDbSymbolTableRecord
100
AcDbDimStyleTableRecord
  2
AM_ANSI$SH
 70
     0
  4
mm
 41
0.1
 42
0.05
 43
0.5
 44
0.1
 47
0.1
 48
0.1
 75
     1
 76
     1
 78
     7
140
0.12
141
0.0
146
0.71
147
0.06
173
     1
176
   256
177
   256
178
     2
271
     2
272
     2
279
     2
340
1D1D
  0
ENDTAB
  0
TABLE
  2
BLOCK_RECORD
  5
1CE3
330
0
100
AcDbSymbolTable
 70
    30
  0
BLOCK_RECORD
  5
1D18
102
{ACAD_XDICTIONARY
360
1DA5
102
}
330
1CE3
100
AcDbSymbolTableRecord
100
AcDbBlockTableRecord
  2
*Model_Space
340
1D1B
  0
BLOCK_RECORD
  5
1D14
330
1CE3
100
AcDbSymbolTableRecord
100
AcDbBlockTableRecord
  2
*Paper_Space
340
1D17
  0
BLOCK_RECORD
  5
1D4B
330
1CE3
100
AcDbSymbolTableRecord
100
AcDbBlockTableRecord
  2
$MODEL_SPACE
340
0
  0
BLOCK_RECORD
  5
1D4D
330
1CE3
100
AcDbSymbolTableRecord
100
AcDbBlockTableRecord
  2
$PAPER_SPACE
340
0
  0
BLOCK_RECORD
  5
1D4F
330
1CE3
100
AcDbSymbolTableRecord
100
AcDbBlockTableRecord
  2
NEW_BLOCK
340
0
102
{BLKREFS
331
C59
102
}
  0
BLOCK_RECORD
  5
1D51
330
1CE3
100
AcDbSymbolTableRecord
100
AcDbBlockTableRecord
  2
GENAXEH
340
0
  0
BLOCK_RECORD
  5
1D53
330
1CE3
100
AcDbSymbolTableRecord
100
AcDbBlockTableRecord
  2
*U4
340
0
  0
BLOCK_RECORD
  5
1D55
330
1CE3
100
AcDbSymbolTableRecord
100
AcDbBlockTableRecord
  2
*U5
340
0
  0
BLOCK_RECORD
  5
1D57
330
1CE3
100
AcDbSymbolTableRecord
100
AcDbBlockTableRecord
  2
*U6
340
0
  0
BLOCK_RECORD
  5
1D59
330
1CE3
100
AcDbSymbolTableRecord
100
AcDbBlockTableRecord
  2
*U7
340
0
  0
BLOCK_RECORD
  5
1D5B
330
1CE3
100
AcDbSymbolTableRecord
100
AcDbBlockTableRecord
  2
*U8
340
0
  0
BLOCK_RECORD
  5
1D5D
330
1CE3
100
AcDbSymbolTableRecord
100
AcDbBlockTableRecord
  2
*U9
340
0
  0
BLOCK_RECORD
  5
1D5F
330
1CE3
100
AcDbSymbolTableRecord
100
AcDbBlockTableRecord
  2
*U10
340
0
  0
BLOCK_RECORD
  5
1D61
330
1CE3
100
AcDbSymbolTableRecord
100
AcDbBlockTableRecord
  2
*U11
340
0
  0
BLOCK_RECORD
  5
1D63
330
1CE3
100
AcDbSymbolTableRecord
100
AcDbBlockTableRecord
  2
*U12
340
0
  0
BLOCK_RECORD
  5
1D65
330
1CE3
100
AcDbSymbolTableRecord
100
AcDbBlockTableRecord
  2
*U13
340
0
  0
BLOCK_RECORD
  5
1D67
330
1CE3
100
AcDbSymbolTableRecord
100
AcDbBlockTableRecord
  2
*U14
340
0
  0
BLOCK_RECORD
  5
1D69
330
1CE3
100
AcDbSymbolTableRecord
100
AcDbBlockTableRecord
  2
*U15
340
0
  0
BLOCK_RECORD
  5
1D6B
330
1CE3
100
AcDbSymbolTableRecord
100
AcDbBlockTableRecord
  2
*U16
340
0
  0
BLOCK_RECORD
  5
1D6D
330
1CE3
100
AcDbSymbolTableRecord
100
AcDbBlockTableRecord
  2
*U17
340
0
  0
BLOCK_RECORD
  5
1D6F
330
1CE3
100
AcDbSymbolTableRecord
100
AcDbBlockTableRecord
  2
*U18
340
0
  0
BLOCK_RECORD
  5
1D71
330
1CE3
100
AcDbSymbolTableRecord
100
AcDbBlockTableRecord
  2
*U19
340
0
  0
BLOCK_RECORD
  5
1D73
330
1CE3
100
AcDbSymbolTableRecord
100
AcDbBlockTableRecord
  2
*U20
340
0
  0
BLOCK_RECORD
  5
1D75
330
1CE3
100
AcDbSymbolTableRecord
100
AcDbBlockTableRecord
  2
*U21
340
0
  0
BLOCK_RECORD
  5
1D77
330
1CE3
100
AcDbSymbolTableRecord
100
AcDbBlockTableRecord
  2
*U22
340
0
  0
BLOCK_RECORD
  5
1D79
330
1CE3
100
AcDbSymbolTableRecord
100
AcDbBlockTableRecord
  2
*U23
340
0
  0
BLOCK_RECORD
  5
1D7B
330
1CE3
100
AcDbSymbolTableRecord
100
AcDbBlockTableRecord
  2
*U24
340
0
  0
BLOCK_RECORD
  5
1D7D
330
1CE3
100
AcDbSymbolTableRecord
100
AcDbBlockTableRecord
  2
*U25
340
0
  0
ENDTAB
  0
ENDSEC
  0
SECTION
  2
BLOCKS
  0
BLOCK
  5
1D19
330
1D18
100
AcDbEntity
  8
0
100
AcDbBlockBegin
  2
*Model_Space
 70
     0
 10
0.0
 20
0.0
 30
0.0
  3
*Model_Space
  1

  0
ENDBLK
  5
1D1A
330
1D18
100
AcDbEntity
  8
0
100
AcDbBlockEnd
  0
BLOCK
  5
1D15
330
1D14
100
AcDbEntity
 67
     1
  8
0
100
AcDbBlockBegin
  2
*Paper_Space
 70
     0
 10
0.0
 20
0.0
 30
0.0
  3
*Paper_Space
  1

  0
ENDBLK
  5
1D16
330
1D14
100
AcDbEntity
 67
     1
  8
0
100
AcDbBlockEnd
  0
BLOCK
  5
1D4C
330
1D4B
100
AcDbEntity
  8
0
100
AcDbBlockBegin
  2
$MODEL_SPACE
 70
     0
 10
0.0
 20
0.0
 30
0.0
  3
$MODEL_SPACE
  1

  0
ENDBLK
  5
1BAF
330
1D4B
100
AcDbEntity
  8
0
100
AcDbBlockEnd
  0
BLOCK
  5
1D4E
330
1D4D
100
AcDbEntity
  8
0
100
AcDbBlockBegin
  2
$PAPER_SPACE
 70
     0
 10
0.0
 20
0.0
 30
0.0
  3
$PAPER_SPACE
  1

  0
ENDBLK
  5
1BAB
330
1D4D
100
AcDbEntity
  8
0
100
AcDbBlockEnd
  0
BLOCK
  5
1D50
330
1D4F
100
AcDbEntity
  8
0
100
AcDbBlockBegin
  2
NEW_BLOCK
 70
     0
 10
0.0
 20
0.0
 30
0.0
  3
NEW_BLOCK
  1

  0
TEXT
  5
B67
330
1D4F
100
AcDbEntity
  8
TEXT
100
AcDbText
 10
27.285946821803
 20
25.27142175952417
 30
0.0
 40
40.0
  1
available on request
  7
TITLE3
100
AcDbText
  0
TEXT
  5
B68
330
1D4F
100
AcDbEntity
  8
TEXT
100
AcDbText
 10
27.285946821803
 20
93.84285033095272
 30
0.0
 40
40.0
  1
Certified dimensions
  7
TITLE3
100
AcDbText
  0
TEXT
  5
B69
330
1D4F
100
AcDbEntity
  8
TEXT
100
AcDbText
 10
27.285946821803
 20
162.4142789023812
 30
0.0
 40
40.0
  1
without notice or obligation.
  7
TITLE3
100
AcDbText
  0
TEXT
  5
B6A
330
1D4F
100
AcDbEntity
  8
TEXT
100
AcDbText
 10
27.285946821803
 20
230.9857074738097
 30
0.0
 40
40.0
  1
specifications at any time
  7
TITLE3
100
AcDbText
  0
TEXT
  5
B6B
330
1D4F
100
AcDbEntity
  8
TEXT
100
AcDbText
 10
27.285946821803
 20
299.5571360452384
 30
0.0
 40
40.0
  1
the right to change 
  7
TITLE3
100
AcDbText
  0
TEXT
  5
B6C
330
1D4F
100
AcDbEntity
  8
TEXT
100
AcDbText
 10
27.285946821803
 20
436.6999931880949
 30
0.0
 40
40.0
  1
NOTE
  7
TITLE3
100
AcDbText
  0
TEXT
  5
B6D
330
1D4F
100
AcDbEntity
  8
TEXT
100
AcDbText
 10
27.285946821803
 20
368.1285646166668
 30
0.0
 40
40.0
  1
The manufacturer reserves
  7
TITLE3
100
AcDbText
  0
ENDBLK
  5
B6E
330
1D4F
100
AcDbEntity
  8
0
100
AcDbBlockEnd
  0
BLOCK
  5
1D52
330
1D51
100
AcDbEntity
  8
0
100
AcDbBlockBegin
  2
GENAXEH
 70
     0
 10
0.0
 20
0.0
 30
0.0
  3
GENAXEH
  1

  0
LINE
  5
D72
330
1D51
100
AcDbEntity
  8
0
100
AcDbLine
 10
-1.0
 20
0.0
 30
0.0
 11
1.0
 21
0.0
 31
0.0
  0
ENDBLK
  5
D74
330
1D51
100
AcDbEntity
  8
0
100
AcDbBlockEnd
  0
BLOCK
  5
1D54
330
1D53
100
AcDbEntity
  8
0
100
AcDbBlockBegin
  2
*U4
 70
     1
 10
0.0
 20
0.0
 30
0.0
  3
*U4
  1

  0
TEXT
  5
15DB
330
1D53
100
AcDbEntity
  8
DIM
100
AcDbText
 10
2091.876394255876
 20
1169.650276091011
 30
0.0
 40
30.0
  1
825 HANGING CTRS
100
AcDbText
  0
ENDBLK
  5
15DD
330
1D53
100
AcDbEntity
  8
0
100
AcDbBlockEnd
  0
BLOCK
  5
1D56
330
1D55
100
AcDbEntity
  8
0
100
AcDbBlockBegin
  2
*U5
 70
     1
 10
0.0
 20
0.0
 30
0.0
  3
*U5
  1

  0
TEXT
  5
15DF
330
1D55
100
AcDbEntity
  8
DIM
100
AcDbText
 10
1921.876394255876
 20
1107.627356150924
 30
0.0
 40
30.0
  1
900 OPTIONAL SPRING MTG CTRS
100
AcDbText
  0
ENDBLK
  5
15E1
330
1D55
100
AcDbEntity
  8
0
100
AcDbBlockEnd
  0
BLOCK
  5
1D58
330
1D57
100
AcDbEntity
  8
0
100
AcDbBlockBegin
  2
*U6
 70
     1
 10
0.0
 20
0.0
 30
0.0
  3
*U6
  1

  0
TEXT
  5
15E3
330
1D57
100
AcDbEntity
  8
DIM
100
AcDbText
 10
1774.076394255876
 20
1973.823848306443
 30
0.0
 40
30.0
  1
40
100
AcDbText
  0
ENDBLK
  5
15E5
330
1D57
100
AcDbEntity
  8
0
100
AcDbBlockEnd
  0
BLOCK
  5
1D5A
330
1D59
100
AcDbEntity
  8
0
100
AcDbBlockBegin
  2
*U7
 70
     1
 10
0.0
 20
0.0
 30
0.0
  3
*U7
  1

  0
TEXT
  5
15E7
330
1D59
100
AcDbEntity
  8
DIM
100
AcDbText
 10
2137.776394255877
 20
1973.578120686029
 30
0.0
 40
30.0
  1
478
100
AcDbText
  0
ENDBLK
  5
15E9
330
1D59
100
AcDbEntity
  8
0
100
AcDbBlockEnd
  0
BLOCK
  5
1D5C
330
1D5B
100
AcDbEntity
  8
0
100
AcDbBlockBegin
  2
*U8
 70
     1
 10
0.0
 20
0.0
 30
0.0
  3
*U8
  1

  0
TEXT
  5
15EB
330
1D5B
100
AcDbEntity
  8
DIM
100
AcDbText
 10
1769.076394255877
 20
839.620606874023
 30
0.0
 40
30.0
  1
52
100
AcDbText
  0
ENDBLK
  5
15ED
330
1D5B
100
AcDbEntity
  8
0
100
AcDbBlockEnd
  0
BLOCK
  5
1D5E
330
1D5D
100
AcDbEntity
  8
0
100
AcDbBlockBegin
  2
*U9
 70
     1
 10
0.0
 20
0.0
 30
0.0
  3
*U9
  1

  0
TEXT
  5
15EF
330
1D5D
100
AcDbEntity
  8
DIM
100
AcDbText
 10
2149.576394255877
 20
839.5387797319164
 30
0.0
 40
30.0
  1
477
100
AcDbText
  0
ENDBLK
  5
15F1
330
1D5D
100
AcDbEntity
  8
0
100
AcDbBlockEnd
  0
BLOCK
  5
1D60
330
1D5F
100
AcDbEntity
  8
0
100
AcDbBlockBegin
  2
*U10
 70
     1
 10
0.0
 20
0.0
 30
0.0
  3
*U10
  1

  0
TEXT
  5
15F3
330
1D5F
100
AcDbEntity
  8
DIM
100
AcDbText
 10
2221.876394255877
 20
903.4454019475743
 30
0.0
 40
30.0
  1
846 O/A
100
AcDbText
  0
ENDBLK
  5
15F5
330
1D5F
100
AcDbEntity
  8
0
100
AcDbBlockEnd
  0
BLOCK
  5
1D62
330
1D61
100
AcDbEntity
  8
0
100
AcDbBlockBegin
  2
*U11
 70
     1
 10
0.0
 20
0.0
 30
0.0
  3
*U11
  1

  0
TEXT
  5
15F7
330
1D61
100
AcDbEntity
  8
DIM
100
AcDbText
 10
1796.711091623166
 20
539.2830775023091
 30
0.0
 40
30.0
  1
350 O/A
 50
90.0
100
AcDbText
  0
ENDBLK
  5
15F9
330
1D61
100
AcDbEntity
  8
0
100
AcDbBlockEnd
  0
BLOCK
  5
1D64
330
1D63
100
AcDbEntity
  8
0
100
AcDbBlockBegin
  2
*U12
 70
     1
 10
0.0
 20
0.0
 30
0.0
  3
*U12
  1

  0
TEXT
  5
15FB
330
1D63
100
AcDbEntity
  8
DIM
100
AcDbText
 10
2900.16551784755
 20
603.2830775023093
 30
0.0
 40
30.0
  1
337
 50
90.0
100
AcDbText
  0
ENDBLK
  5
15FD
330
1D63
100
AcDbEntity
  8
0
100
AcDbBlockEnd
  0
BLOCK
  5
1D66
330
1D65
100
AcDbEntity
  8
0
100
AcDbBlockBegin
  2
*U13
 70
     1
 10
0.0
 20
0.0
 30
0.0
  3
*U13
  1

  0
TEXT
  5
15FF
330
1D65
100
AcDbEntity
  8
DIM
100
AcDbText
 10
2840.305335407327
 20
615.3290225423567
 30
0.0
 40
30.0
  1
111
 50
90.0
100
AcDbText
  0
ENDBLK
  5
1601
330
1D65
100
AcDbEntity
  8
0
100
AcDbBlockEnd
  0
BLOCK
  5
1D68
330
1D67
100
AcDbEntity
  8
0
100
AcDbBlockBegin
  2
*U14
 70
     1
 10
0.0
 20
0.0
 30
0.0
  3
*U14
  1

  0
TEXT
  5
1603
330
1D67
100
AcDbEntity
  8
DIM
100
AcDbText
 10
3085.697266222859
 20
891.7830775023091
 30
0.0
 40
30.0
  1
39
 50
90.0
100
AcDbText
  0
ENDBLK
  5
1605
330
1D67
100
AcDbEntity
  8
0
100
AcDbBlockEnd
  0
BLOCK
  5
1D6A
330
1D69
100
AcDbEntity
  8
0
100
AcDbBlockBegin
  2
*U15
 70
     1
 10
0.0
 20
0.0
 30
0.0
  3
*U15
  1

  0
TEXT
  5
1607
330
1D69
100
AcDbEntity
  8
DIM
100
AcDbText
 10
3085.681924010311
 20
604.2830775023093
 30
0.0
 40
30.0
  1
257
 50
90.0
100
AcDbText
  0
ENDBLK
  5
1609
330
1D69
100
AcDbEntity
  8
0
100
AcDbBlockEnd
  0
BLOCK
  5
1D6C
330
1D6B
100
AcDbEntity
  8
0
100
AcDbBlockBegin
  2
*U16
 70
     1
 10
0.0
 20
0.0
 30
0.0
  3
*U16
  1

  0
TEXT
  5
160B
330
1D6B
100
AcDbEntity
  8
DIM
100
AcDbText
 10
3847.823572455176
 20
891.7830775023093
 30
0.0
 40
30.0
  1
29
 50
90.0
100
AcDbText
  0
ENDBLK
  5
160D
330
1D6B
100
AcDbEntity
  8
0
100
AcDbBlockEnd
  0
BLOCK
  5
1D6E
330
1D6D
100
AcDbEntity
  8
0
100
AcDbBlockBegin
  2
*U17
 70
     1
 10
0.0
 20
0.0
 30
0.0
  3
*U17
  1

  0
TEXT
  5
160F
330
1D6D
100
AcDbEntity
  8
DIM
100
AcDbText
 10
3847.823572455176
 20
614.4830775023092
 30
0.0
 40
30.0
  1
257
 50
90.0
100
AcDbText
  0
ENDBLK
  5
1611
330
1D6D
100
AcDbEntity
  8
0
100
AcDbBlockEnd
  0
BLOCK
  5
1D70
330
1D6F
100
AcDbEntity
  8
0
100
AcDbBlockBegin
  2
*U18
 70
     1
 10
0.0
 20
0.0
 30
0.0
  3
*U18
  1

  0
TEXT
  5
1613
330
1D6F
100
AcDbEntity
  8
DIM
100
AcDbText
 10
2954.461792250693
 20
1514.690735559124
 30
0.0
 40
30.0
  1
472 CTRS
 50
90.0
100
AcDbText
  0
ENDBLK
  5
1615
330
1D6F
100
AcDbEntity
  8
0
100
AcDbBlockEnd
  0
BLOCK
  5
1D72
330
1D71
100
AcDbEntity
  8
0
100
AcDbBlockBegin
  2
*U19
 70
     1
 10
0.0
 20
0.0
 30
0.0
  3
*U19
  1

  0
TEXT
  5
1617
330
1D71
100
AcDbEntity
  8
DIM
100
AcDbText
 10
2882.596627950757
 20
1517.190735559124
 30
0.0
 40
30.0
  1
440 CTRS
 50
90.0
100
AcDbText
  0
ENDBLK
  5
1619
330
1D71
100
AcDbEntity
  8
0
100
AcDbBlockEnd
  0
BLOCK
  5
1D74
330
1D73
100
AcDbEntity
  8
0
100
AcDbBlockBegin
  2
*U20
 70
     1
 10
0.0
 20
0.0
 30
0.0
  3
*U20
  1

  0
TEXT
  5
161B
330
1D73
100
AcDbEntity
  8
DIM
100
AcDbText
 10
3355.110182386908
 20
858.8776756258937
 30
0.0
 40
30.0
  1
103
100
AcDbText
  0
ENDBLK
  5
161D
330
1D73
100
AcDbEntity
  8
0
100
AcDbBlockEnd
  0
BLOCK
  5
1D76
330
1D75
100
AcDbEntity
  8
0
100
AcDbBlockBegin
  2
*U21
 70
     1
 10
0.0
 20
0.0
 30
0.0
  3
*U21
  1

  0
TEXT
  5
161F
330
1D75
100
AcDbEntity
  8
DIM
100
AcDbText
 10
3373.342764116722
 20
705.6293678620813
 30
0.0
 40
30.0
  1
75
100
AcDbText
  0
ENDBLK
  5
1621
330
1D75
100
AcDbEntity
  8
0
100
AcDbBlockEnd
  0
BLOCK
  5
1D78
330
1D77
100
AcDbEntity
  8
0
100
AcDbBlockBegin
  2
*U22
 70
     1
 10
0.0
 20
0.0
 30
0.0
  3
*U22
  1

  0
TEXT
  5
1623
330
1D77
100
AcDbEntity
  8
DIM
100
AcDbText
 10
3373.342764116722
 20
767.1885034816822
 30
0.0
 40
30.0
  1
56
100
AcDbText
  0
ENDBLK
  5
1625
330
1D77
100
AcDbEntity
  8
0
100
AcDbBlockEnd
  0
BLOCK
  5
1D7A
330
1D79
100
AcDbEntity
  8
0
100
AcDbBlockBegin
  2
*U23
 70
     1
 10
0.0
 20
0.0
 30
0.0
  3
*U23
  1

  0
TEXT
  5
1627
330
1D79
100
AcDbEntity
  8
DIM
100
AcDbText
 10
1796.698602351978
 20
1508.230735559123
 30
0.0
 40
30.0
  1
677 O/A
 50
90.0
100
AcDbText
  0
ENDBLK
  5
1629
330
1D79
100
AcDbEntity
  8
0
100
AcDbBlockEnd
  0
BLOCK
  5
1D7C
330
1D7B
100
AcDbEntity
  8
0
100
AcDbBlockBegin
  2
*U24
 70
     1
 10
0.0
 20
0.0
 30
0.0
  3
*U24
  1

  0
TEXT
  5
162B
330
1D7B
100
AcDbEntity
  8
DIM
100
AcDbText
 10
2954.230765222468
 20
1964.690735559123
 30
0.0
 40
30.0
  1
19
 50
90.0
100
AcDbText
  0
ENDBLK
  5
162D
330
1D7B
100
AcDbEntity
  8
0
100
AcDbBlockEnd
  0
BLOCK
  5
1D7E
330
1D7D
100
AcDbEntity
  8
0
100
AcDbBlockBegin
  2
*U25
 70
     1
 10
0.0
 20
0.0
 30
0.0
  3
*U25
  1

  0
TEXT
  5
162F
330
1D7D
100
AcDbEntity
  8
DIM
100
AcDbText
 10
2882.598134009931
 20
1964.690735559123
 30
0.0
 40
30.0
  1
35
 50
90.0
100
AcDbText
  0
ENDBLK
  5
1631
330
1D7D
100
AcDbEntity
  8
0
100
AcDbBlockEnd
  0
ENDSEC
  0
SECTION
  2
ENTITIES
  0
TEXT
  5
B6F
330
1D18
100
AcDbEntity
  8
TEXT
100
AcDbText
 10
3004.862549047452
 20
210.500140606051
 30
0.0
 40
50.0
  1
temperzone HWP 96
  7
TITLE5
 72
     1
 11
3389.386358571262
 21
210.500140606051
 31
0.0
100
AcDbText
  0
TEXT
  5
B70
330
1D18
100
AcDbEntity
  8
TEXT
100
AcDbText
 10
3475.0
 20
9.0
 30
0.0
 40
30.0
  1
HWP96
 41
2.029999999999999
  7
TITLE3
 72
     5
 11
3765.0
 21
9.0
 31
0.0
100
AcDbText
  0
TEXT
  5
B72
330
1D18
100
AcDbEntity
  8
OVERLAY-A3
100
AcDbText
 10
2892.288544144122
 20
49.8312138601009
 30
0.0
 40
24.0
  1
Date
  7
SIMPLEX
100
AcDbText
  0
TEXT
  5
B73
330
1D18
100
AcDbEntity
  8
OVERLAY-A3
100
AcDbText
 10
3791.111192373602
 20
68.50330202341121
 30
0.0
 40
24.0
  1
Revision
 41
0.7812095035934772
  7
SIMPLEX
 72
     5
 11
3896.462874001065
 21
68.50330202341121
 31
0.0
100
AcDbText
  0
LINE
  5
B74
330
1D18
100
AcDbEntity
  8
OVERLAY-A3
100
AcDbLine
 10
3779.491349990161
 20
-40.15750715168286
 30
0.0
 11
3779.491349990161
 21
107.2686557085465
 31
0.0
  0
LINE
  5
B75
330
1D18
100
AcDbEntity
  8
OVERLAY-A3
100
AcDbLine
 10
2864.351529457147
 20
276.3426334543681
 30
0.0
 11
2864.351529457147
 21
-40.15750715168286
 31
0.0
  0
LINE
  5
B76
330
1D18
100
AcDbEntity
  8
OVERLAY-A3
100
AcDbLine
 10
3461.913678013094
 20
-40.15750715168286
 30
0.0
 11
3461.913678013094
 21
107.2686557085465
 31
0.0
  0
LINE
  5
B77
330
1D18
100
AcDbEntity
  8
OVERLAY-A3
100
AcDbLine
 10
3461.913678013094
 20
32.31259926946377
 30
0.0
 11
2864.351529457147
 21
32.31259926946377
 31
0.0
  0
LINE
  5
B78
330
1D18
100
AcDbEntity
  8
OVERLAY-A3
100
AcDbLine
 10
3906.575465237842
 20
107.2686557085465
 30
0.0
 11
2864.351529457147
 21
107.2686557085465
 31
0.0
  0
LINE
  5
B79
330
1D18
100
AcDbEntity
  8
OVERLAY-A3
100
AcDbLine
 10
2864.351529457147
 20
-40.15750715168286
 30
0.0
 11
3906.277958059492
 21
-40.15750715168286
 31
0.0
  0
LINE
  5
B7A
330
1D18
100
AcDbEntity
  8
OVERLAY-A3
100
AcDbLine
 10
3906.277958059492
 20
-40.15750715168286
 30
0.0
 11
3906.277958059492
 21
276.3426334543681
 31
0.0
  0
LINE
  5
B7B
330
1D18
100
AcDbEntity
  8
OVERLAY-A3
100
AcDbLine
 10
3906.277958059492
 20
276.3426334543681
 30
0.0
 11
2864.351529457147
 21
276.3426334543681
 31
0.0
  0
TEXT
  5
B7C
330
1D18
100
AcDbEntity
  8
OVERLAY-A3
100
AcDbText
 10
2889.483219103109
 20
-13.07751193464232
 30
0.0
 40
20.0
  1
Scale
 41
1.370174796565972
  7
SIMPLEX
 72
     5
 11
2989.962704184614
 21
-13.07751193464232
 31
0.0
100
AcDbText
  0
TEXT
  5
B7D
330
1D18
100
AcDbEntity
  8
OVERLAY-A3
100
AcDbText
 10
3519.859123600798
 20
67.8934315067097
 30
0.0
 40
20.0
  1
Drawing No.
  7
SIMPLEX
 72
     2
 11
3694.144837886512
 21
67.8934315067097
 31
0.0
100
AcDbText
  0
LINE
  5
B7E
330
1D18
100
AcDbEntity
  8
OVERLAY-A3
100
AcDbLine
 10
1430.578375694022
 20
-60.72824687478078
 30
0.0
 11
3935.000000000157
 21
-61.0
 31
0.0
  0
LINE
  5
B7F
330
1D18
100
AcDbEntity
  8
OVERLAY-A3
100
AcDbLine
 10
3935.000000000157
 20
-61.0
 30
0.0
 11
3935.000000000157
 21
2100.142154073407
 31
0.0
  0
LINE
  5
B80
330
1D18
100
AcDbEntity
  8
OVERLAY-A3
100
AcDbLine
 10
3935.000000000157
 20
2100.142154073407
 30
0.0
 11
1430.578375694022
 21
2100.142154073407
 31
0.0
  0
LINE
  5
B81
330
1D18
100
AcDbEntity
  8
OVERLAY-A3
100
AcDbLine
 10
1430.578375694022
 20
2100.142154073407
 30
0.0
 11
1430.578375694022
 21
-60.72824687478078
 31
0.0
  0
TEXT
  5
C1A
330
1D18
100
AcDbEntity
  8
TEXT
100
AcDbText
 10
2995.703500661916
 20
49.0
 30
0.0
 40
25.0
  1
12.12.07
 41
1.066666666666663
  7
TITLE3
 72
     5
 11
3155.703500661915
 21
49.0
 31
0.0
100
AcDbText
  0
TEXT
  5
C49
330
1D18
100
AcDbEntity
  8
TEXT
100
AcDbText
 10
3046.04344477519
 20
-13.5013872671907
 30
0.0
 40
25.0
  1
1:10
  7
TITLE3
100
AcDbText
  0
INSERT
  5
C59
330
1D18
100
AcDbEntity
  8
TEXT
100
AcDbBlockReference
  2
NEW_BLOCK
 10
1470.557764683153
 20
-29.72834059049493
 30
0.0
 41
0.6999999999999888
 42
0.7
 43
0.7
  0
LINE
  5
D9E
330
1D18
100
AcDbEntity
  8
OUTLINE
100
AcDbLine
 10
2789.67639425588
 20
816.7830775023086
 30
0.0
 11
1634.076394255876
 21
816.7830775023086
 31
0.0
  0
LINE
  5
DAF
330
1D18
100
AcDbEntity
  8
OUTLINE
100
AcDbLine
 10
2789.67639425588
 20
816.7830775023086
 30
0.0
 11
2789.67639425588
 21
808.7830775023093
 31
0.0
  0
LINE
  5
DC3
330
1D18
100
AcDbEntity
  8
OUTLINE
100
AcDbLine
 10
1634.076394255876
 20
816.7830775023086
 30
0.0
 11
1634.076394255876
 21
808.7830775023068
 31
0.0
  0
LINE
  5
DD7
330
1D18
100
AcDbEntity
  8
OUTLINE
100
AcDbLine
 10
1655.076394255877
 20
816.7830775023086
 30
0.0
 11
1655.076394255877
 21
428.7830775023087
 31
0.0
  0
LINE
  5
DDA
330
1D18
100
AcDbEntity
  8
OUTLINE
100
AcDbLine
 10
2768.676394255877
 20
816.7830775023086
 30
0.0
 11
2768.676394255877
 21
745.7830775023086
 31
0.0
  0
LINE
  5
DDB
330
1D18
100
AcDbEntity
  8
OUTLINE
100
AcDbLine
 10
2789.67639425588
 20
428.7830775023087
 30
0.0
 11
1634.076394255876
 21
428.7830775023087
 31
0.0
  0
LINE
  5
DDC
330
1D18
100
AcDbEntity
  8
OUTLINE
100
AcDbLine
 10
2789.67639425588
 20
428.7830775023087
 30
0.0
 11
2789.67639425588
 21
436.7830775023082
 31
0.0
  0
LINE
  5
DDD
330
1D18
100
AcDbEntity
  8
OUTLINE
100
AcDbLine
 10
1634.076394255876
 20
428.7830775023087
 30
0.0
 11
1634.076394255876
 21
436.7830775023105
 31
0.0
  0
LINE
  5
DFA
330
1D18
100
AcDbEntity
  8
OUTLINE
100
AcDbLine
 10
2389.41839425588
 20
546.7830775023088
 30
0.0
 11
1719.416394255877
 21
546.7830775023089
 31
0.0
  0
LINE
  5
DFC
330
1D18
100
AcDbEntity
  8
OUTLINE
100
AcDbLine
 10
2770.351394255878
 20
730.7830775023086
 30
0.0
 11
2470.67639425588
 21
730.7830775023088
 31
0.0
  0
LINE
  5
DFD
330
1D18
100
AcDbEntity
  8
OUTLINE
100
AcDbLine
 10
2770.351394255881
 20
452.7830775023087
 30
0.0
 11
2470.67639425588
 21
452.7830775023087
 31
0.0
  0
LINE
  5
DFF
330
1D18
100
AcDbEntity
  8
DIM
100
AcDbLine
 10
2770.351394255878
 20
730.7830775023086
 30
0.0
 11
2770.351394255881
 21
452.7830775023087
 31
0.0
  0
LINE
  5
E00
330
1D18
100
AcDbEntity
  8
OUTLINE
100
AcDbLine
 10
2768.676394255877
 20
447.7830775023087
 30
0.0
 11
2768.676394255877
 21
428.7830775023087
 31
0.0
  0
LINE
  5
E1B
330
1D18
100
AcDbEntity
  8
DIM
100
AcDbLine
 10
1655.076394255877
 20
428.7830775023087
 30
0.0
 11
1655.076394255877
 21
400.7830775023087
 31
0.0
  0
LINE
  5
E1C
330
1D18
100
AcDbEntity
  8
DIM
100
AcDbLine
 10
2768.676394255877
 20
428.7830775023087
 30
0.0
 11
2768.676394255877
 21
417.7830775023086
 31
0.0
  0
LINE
  5
E1D
330
1D18
100
AcDbEntity
  8
DIM
100
AcDbLine
 10
2768.676394255877
 20
417.7830775023086
 30
0.0
 11
1655.076394255877
 21
400.7830775023087
 31
0.0
  0
LINE
  5
E22
330
1D18
100
AcDbEntity
  8
OUTLINE
100
AcDbLine
 10
2789.67639425588
 20
428.7830775023087
 30
0.0
 11
2789.67639425588
 21
420.7830775023088
 31
0.0
  0
LINE
  5
E23
330
1D18
100
AcDbEntity
  8
OUTLINE
100
AcDbLine
 10
1634.076394255876
 20
428.7830775023087
 30
0.0
 11
1634.076394255876
 21
420.7830775023065
 31
0.0
  0
LINE
  5
E3D
330
1D18
100
AcDbEntity
  8
OUTLINE
100
AcDbLine
 10
1655.076394255877
 20
422.2830775023087
 30
0.0
 11
1630.076394255876
 21
422.2830775023087
 31
0.0
  0
LINE
  5
E3E
330
1D18
100
AcDbEntity
  8
OUTLINE
100
AcDbLine
 10
1655.076394255877
 20
403.2830775023087
 30
0.0
 11
1630.076394255876
 21
403.2830775023087
 31
0.0
  0
LINE
  5
E3F
330
1D18
100
AcDbEntity
  8
DIM
100
AcDbLine
 10
1630.076394255876
 20
422.2830775023087
 30
0.0
 11
1630.076394255876
 21
403.2830775023087
 31
0.0
  0
LINE
  5
E59
330
1D18
100
AcDbEntity
  8
OUTLINE
100
AcDbLine
 10
1655.076394255877
 20
704.7830775023086
 30
0.0
 11
1589.076394255877
 21
704.7830775023086
 31
0.0
  0
LINE
  5
E5A
330
1D18
100
AcDbEntity
  8
OUTLINE
100
AcDbLine
 10
1593.576394255876
 20
704.7830775023086
 30
0.0
 11
1624.576394255878
 21
704.7830775023086
 31
0.0
  0
LINE
  5
E5B
330
1D18
100
AcDbEntity
  8
OUTLINE
100
AcDbLine
 10
1617.076394255876
 20
697.7830775023086
 30
0.0
 11
1597.076394255877
 21
697.7830775023086
 31
0.0
  0
LINE
  5
E5C
330
1D18
100
AcDbEntity
  8
OUTLINE
100
AcDbLine
 10
1589.076394255877
 20
716.7830775023086
 30
0.0
 11
1589.076394255877
 21
704.7830775023086
 31
0.0
  0
LINE
  5
E61
330
1D18
100
AcDbEntity
  8
OUTLINE
100
AcDbLine
 10
1655.076394255877
 20
775.7830775023086
 30
0.0
 11
1655.076394255877
 21
715.7830775023088
 31
0.0
  0
LINE
  5
E66
330
1D18
100
AcDbEntity
  8
OUTLINE
100
AcDbLine
 10
1655.076394255877
 20
778.7830775023084
 30
0.0
 11
1643.076394255876
 21
778.7830775023084
 31
0.0
  0
LINE
  5
E67
330
1D18
100
AcDbEntity
  8
OUTLINE
100
AcDbLine
 10
1643.076394255876
 20
716.7830775023086
 30
0.0
 11
1589.076394255877
 21
716.7830775023086
 31
0.0
  0
LINE
  5
E68
330
1D18
100
AcDbEntity
  8
OUTLINE
100
AcDbLine
 10
1643.076394255876
 20
778.7830775023084
 30
0.0
 11
1643.076394255876
 21
716.7830775023086
 31
0.0
  0
LINE
  5
E6E
330
1D18
100
AcDbEntity
  8
DIM
100
AcDbLine
 10
1595.076394255876
 20
704.7830775023086
 30
0.0
 11
1597.076394255877
 21
697.7830775023086
 31
0.0
  0
LINE
  5
E6F
330
1D18
100
AcDbEntity
  8
DIM
100
AcDbLine
 10
1619.076394255877
 20
704.7830775023086
 30
0.0
 11
1617.076394255876
 21
697.7830775023086
 31
0.0
  0
LINE
  5
E73
330
1D18
100
AcDbEntity
  8
OUTLINE
100
AcDbLine
 10
2768.676394255877
 20
779.7830775023086
 30
0.0
 11
2780.676394255877
 21
779.7830775023086
 31
0.0
  0
LINE
  5
E75
330
1D18
100
AcDbEntity
  8
OUTLINE
100
AcDbLine
 10
2806.676394255877
 20
697.7830775023087
 30
0.0
 11
2826.676394255877
 21
697.7830775023087
 31
0.0
  0
LINE
  5
E76
330
1D18
100
AcDbEntity
  8
OUTLINE
100
AcDbLine
 10
2834.676394255879
 20
716.7830775023087
 30
0.0
 11
2834.676394255879
 21
704.7830775023087
 31
0.0
  0
LINE
  5
E77
330
1D18
100
AcDbEntity
  8
OUTLINE
100
AcDbLine
 10
2768.676394255877
 20
775.7830775023086
 30
0.0
 11
2768.676394255877
 21
745.7830775023088
 31
0.0
  0
LINE
  5
E79
330
1D18
100
AcDbEntity
  8
DIM
100
AcDbLine
 10
2828.676394255877
 20
704.7830775023087
 30
0.0
 11
2826.676394255877
 21
697.7830775023087
 31
0.0
  0
LINE
  5
E7A
330
1D18
100
AcDbEntity
  8
DIM
100
AcDbLine
 10
2804.676394255877
 20
704.7830775023087
 30
0.0
 11
2806.676394255877
 21
697.7830775023087
 31
0.0
  0
LINE
  5
E93
330
1D18
100
AcDbEntity
  8
OUTLINE
100
AcDbLine
 10
3786.910182386908
 20
816.7830775023086
 30
0.0
 11
3222.71018238691
 21
816.7830775023086
 31
0.0
  0
LINE
  5
E94
330
1D18
100
AcDbEntity
  8
OUTLINE
100
AcDbLine
 10
3222.71018238691
 20
816.7830775023086
 30
0.0
 11
3222.71018238691
 21
808.7830775023068
 31
0.0
  0
LINE
  5
E95
330
1D18
100
AcDbEntity
  8
OUTLINE
100
AcDbLine
 10
3786.910182386908
 20
816.7830775023086
 30
0.0
 11
3786.91018238691
 21
808.7830775023068
 31
0.0
  0
LINE
  5
E96
330
1D18
100
AcDbEntity
  8
OUTLINE
100
AcDbLine
 10
3786.910182386908
 20
428.7830775023087
 30
0.0
 11
3222.71018238691
 21
428.7830775023087
 31
0.0
  0
LINE
  5
E97
330
1D18
100
AcDbEntity
  8
OUTLINE
100
AcDbLine
 10
3222.71018238691
 20
428.7830775023087
 30
0.0
 11
3222.71018238691
 21
436.7830775023105
 31
0.0
  0
LINE
  5
E98
330
1D18
100
AcDbEntity
  8
OUTLINE
100
AcDbLine
 10
3786.910182386908
 20
428.7830775023087
 30
0.0
 11
3786.91018238691
 21
436.7830775023105
 31
0.0
  0
LINE
  5
E99
330
1D18
100
AcDbEntity
  8
OUTLINE
100
AcDbLine
 10
3243.510182386911
 20
816.7830775023086
 30
0.0
 11
3243.510182386911
 21
778.7830775023086
 31
0.0
  0
LINE
  5
E9A
330
1D18
100
AcDbEntity
  8
OUTLINE
100
AcDbLine
 10
3766.110182386908
 20
816.7830775023073
 30
0.0
 11
3766.110182386909
 21
778.7830775023086
 31
0.0
  0
LINE
  5
E9D
330
1D18
100
AcDbEntity
  8
OUTLINE
100
AcDbLine
 10
3158.11018238691
 20
730.7830775023086
 30
0.0
 11
3158.110182386909
 21
452.7830775023085
 31
0.0
  0
LINE
  5
E9F
330
1D18
100
AcDbEntity
  8
OUTLINE
100
AcDbLine
 10
3158.11018238691
 20
746.7830775023086
 30
0.0
 11
3158.11018238691
 21
730.7830775023086
 31
0.0
  0
LINE
  5
EBC
330
1D18
100
AcDbEntity
  8
DIM
100
AcDbLine
 10
3238.81018238691
 20
704.7830775023088
 30
0.0
 11
3285.810182386911
 21
704.7830775023086
 31
0.0
  0
LINE
  5
EBD
330
1D18
100
AcDbEntity
  8
DIM
100
AcDbLine
 10
3238.81018238691
 20
778.7830775023086
 30
0.0
 11
3285.810182386911
 21
778.7830775023086
 31
0.0
  0
LINE
  5
EBE
330
1D18
100
AcDbEntity
  8
OUTLINE
100
AcDbLine
 10
3238.81018238691
 20
778.7830775023086
 30
0.0
 11
3238.81018238691
 21
704.7830775023088
 31
0.0
  0
LINE
  5
EBF
330
1D18
100
AcDbEntity
  8
OUTLINE
100
AcDbLine
 10
3285.810182386911
 20
778.7830775023093
 30
0.0
 11
3285.810182386911
 21
704.7830775023093
 31
0.0
  0
LINE
  5
EC0
330
1D18
100
AcDbEntity
  8
OUTLINE
100
AcDbLine
 10
3243.510182386908
 20
704.7830775023088
 30
0.0
 11
3243.510182386908
 21
400.7830775023087
 31
0.0
  0
LINE
  5
EC2
330
1D18
100
AcDbEntity
  8
OUTLINE
100
AcDbLine
 10
3252.31018238691
 20
697.7830775023088
 30
0.0
 11
3272.31018238691
 21
697.7830775023088
 31
0.0
  0
LINE
  5
EC3
330
1D18
100
AcDbEntity
  8
DIM
100
AcDbLine
 10
3274.310182386909
 20
704.7830775023088
 30
0.0
 11
3272.31018238691
 21
697.7830775023088
 31
0.0
  0
LINE
  5
EC4
330
1D18
100
AcDbEntity
  8
DIM
100
AcDbLine
 10
3250.31018238691
 20
704.7830775023088
 30
0.0
 11
3252.31018238691
 21
697.7830775023088
 31
0.0
  0
LINE
  5
EC5
330
1D18
100
AcDbEntity
  8
OUTLINE
100
AcDbLine
 10
3770.810182386908
 20
778.7830775023086
 30
0.0
 11
3770.810182386906
 21
704.7830775023088
 31
0.0
  0
LINE
  5
EC6
330
1D18
100
AcDbEntity
  8
OUTLINE
100
AcDbLine
 10
3723.810182386908
 20
778.7830775023093
 30
0.0
 11
3723.810182386907
 21
704.7830775023093
 31
0.0
  0
LINE
  5
EC7
330
1D18
100
AcDbEntity
  8
DIM
100
AcDbLine
 10
3770.810182386906
 20
716.7830775023088
 30
0.0
 11
3768.310182386907
 21
716.7830775023088
 31
0.0
  0
LINE
  5
EC8
330
1D18
100
AcDbEntity
  8
DIM
100
AcDbLine
 10
3770.810182386906
 20
704.7830775023088
 30
0.0
 11
3723.810182386907
 21
704.7830775023086
 31
0.0
  0
LINE
  5
EC9
330
1D18
100
AcDbEntity
  8
DIM
100
AcDbLine
 10
3770.810182386908
 20
778.7830775023086
 30
0.0
 11
3723.810182386907
 21
778.7830775023086
 31
0.0
  0
LINE
  5
ECA
330
1D18
100
AcDbEntity
  8
OUTLINE
100
AcDbLine
 10
3757.310182386908
 20
697.7830775023088
 30
0.0
 11
3737.310182386906
 21
697.7830775023088
 31
0.0
  0
LINE
  5
ECB
330
1D18
100
AcDbEntity
  8
DIM
100
AcDbLine
 10
3735.310182386908
 20
704.7830775023088
 30
0.0
 11
3737.310182386906
 21
697.7830775023088
 31
0.0
  0
LINE
  5
ECC
330
1D18
100
AcDbEntity
  8
DIM
100
AcDbLine
 10
3759.310182386908
 20
704.7830775023088
 30
0.0
 11
3757.310182386908
 21
697.7830775023088
 31
0.0
  0
LINE
  5
ECD
330
1D18
100
AcDbEntity
  8
OUTLINE
100
AcDbLine
 10
3766.110182386914
 20
704.7830775023088
 30
0.0
 11
3766.110182386927
 21
400.7830775023085
 31
0.0
  0
LINE
  5
ECE
330
1D18
100
AcDbEntity
  8
DIM
100
AcDbLine
 10
3241.310182386909
 20
707.2830775023088
 30
0.0
 11
3283.310182386911
 21
707.2830775023088
 31
0.0
  0
LINE
  5
ECF
330
1D18
100
AcDbEntity
  8
OUTLINE
100
AcDbLine
 10
3241.310182386909
 20
778.7830775023086
 30
0.0
 11
3241.310182386909
 21
707.2830775023088
 31
0.0
  0
LINE
  5
ED0
330
1D18
100
AcDbEntity
  8
OUTLINE
100
AcDbLine
 10
3283.310182386911
 20
778.7830775023093
 30
0.0
 11
3283.310182386911
 21
707.2830775023088
 31
0.0
  0
LINE
  5
ED1
330
1D18
100
AcDbEntity
  8
OUTLINE
100
AcDbLine
 10
3726.310182386908
 20
778.7830775023093
 30
0.0
 11
3726.310182386905
 21
707.2830775023085
 31
0.0
  0
LINE
  5
ED2
330
1D18
100
AcDbEntity
  8
DIM
100
AcDbLine
 10
3768.310182386907
 20
707.2830775023085
 30
0.0
 11
3726.310182386905
 21
707.2830775023085
 31
0.0
  0
LINE
  5
ED3
330
1D18
100
AcDbEntity
  8
OUTLINE
100
AcDbLine
 10
3768.310182386908
 20
778.7830775023086
 30
0.0
 11
3768.310182386907
 21
707.2830775023085
 31
0.0
  0
LINE
  5
ED4
330
1D18
100
AcDbEntity
  8
DIM
100
AcDbLine
 10
3726.310182386905
 20
716.7830775023086
 30
0.0
 11
3723.810182386908
 21
716.7830775023086
 31
0.0
  0
LINE
  5
ED5
330
1D18
100
AcDbEntity
  8
DIM
100
AcDbLine
 10
3238.81018238691
 20
716.7830775023088
 30
0.0
 11
3241.310182386909
 21
716.7830775023088
 31
0.0
  0
LINE
  5
ED6
330
1D18
100
AcDbEntity
  8
DIM
100
AcDbLine
 10
3283.310182386911
 20
716.7830775023088
 30
0.0
 11
3285.810182386911
 21
716.7830775023088
 31
0.0
  0
LINE
  5
EEF
330
1D18
100
AcDbEntity
  8
OUTLINE
100
AcDbLine
 10
3786.910182386908
 20
428.7830775023087
 30
0.0
 11
3786.91018238691
 21
420.7830775023065
 31
0.0
  0
LINE
  5
EF0
330
1D18
100
AcDbEntity
  8
DIM
100
AcDbLine
 10
3243.510182386908
 20
413.7830775023087
 30
0.0
 11
3766.110182386927
 21
413.7830775023085
 31
0.0
  0
LINE
  5
EF1
330
1D18
100
AcDbEntity
  8
DIM
100
AcDbLine
 10
3243.510182386908
 20
400.7830775023087
 30
0.0
 11
3766.110182386927
 21
400.7830775023085
 31
0.0
  0
LINE
  5
EF2
330
1D18
100
AcDbEntity
  8
OUTLINE
100
AcDbLine
 10
3222.71018238691
 20
428.7830775023087
 30
0.0
 11
3222.710182386908
 21
420.7830775023065
 31
0.0
  0
LINE
  5
F0C
330
1D18
100
AcDbEntity
  8
OUTLINE
100
AcDbLine
 10
3828.110182386924
 20
446.6830775023087
 30
0.0
 11
3766.110182386924
 21
446.6830775023087
 31
0.0
  0
LINE
  5
F0D
330
1D18
100
AcDbEntity
  8
OUTLINE
100
AcDbLine
 10
3828.110182386911
 20
801.7830775023085
 30
0.0
 11
3828.110182386924
 21
446.6830775023087
 31
0.0
  0
LINE
  5
F44
330
1D18
100
AcDbEntity
  8
DIM
100
AcDbLine
 10
1607.076394255877
 20
692.7830775023086
 30
0.0
 11
1607.076394255877
 21
709.7830775023086
 31
0.0
  0
LINE
  5
F47
330
1D18
100
AcDbEntity
  8
DIM
100
AcDbLine
 10
2816.676394255877
 20
692.7830775023087
 30
0.0
 11
2816.676394255877
 21
709.7830775023087
 31
0.0
  0
LINE
  5
F48
330
1D18
100
AcDbEntity
  8
DIM
100
AcDbLine
 10
3262.31018238691
 20
692.7830775023088
 30
0.0
 11
3262.31018238691
 21
709.7830775023088
 31
0.0
  0
LINE
  5
F49
330
1D18
100
AcDbEntity
  8
DIM
100
AcDbLine
 10
3747.310182386908
 20
692.7830775023088
 30
0.0
 11
3747.310182386908
 21
709.7830775023088
 31
0.0
  0
TEXT
  5
F62
330
1D18
100
AcDbEntity
  8
TEXT
 62
     7
100
AcDbText
 10
1952.413984965247
 20
618.320859072014
 30
0.0
 40
50.0
  1
HWP96
  7
TITLE3
100
AcDbText
  0
TEXT
  5
F63
330
1D18
100
AcDbEntity
  8
TEXT
 62
     7
100
AcDbText
 10
3379.066311855267
 20
562.893393475633
 30
0.0
 40
50.0
  1
HWP96
  7
TITLE3
100
AcDbText
  0
LINE
  5
F64
330
1D18
100
AcDbEntity
  8
DIM
100
AcDbLine
 10
3684.360037265271
 20
659.4830775023092
 30
0.0
 11
3715.696091593482
 21
640.4324132678657
 31
0.0
  0
LINE
  5
F65
330
1D18
100
AcDbEntity
  8
DIM
100
AcDbLine
 10
3684.360037265271
 20
659.4830775023092
 30
0.0
 11
3715.696091593482
 21
678.5337417367482
 31
0.0
  0
LINE
  5
F66
330
1D18
100
AcDbEntity
  8
DIM
100
AcDbLine
 10
3752.353360065181
 20
652.2650683036207
 30
0.0
 11
3752.353360065181
 21
666.7010867009968
 31
0.0
  0
LINE
  5
F67
330
1D18
100
AcDbEntity
  8
DIM
100
AcDbLine
 10
3715.696091593482
 20
652.2650683036207
 30
0.0
 11
3752.353360065181
 21
652.2650683036207
 31
0.0
  0
LINE
  5
F68
330
1D18
100
AcDbEntity
  8
DIM
100
AcDbLine
 10
3715.696091593482
 20
640.4324132678657
 30
0.0
 11
3715.696091593482
 21
652.2650683036207
 31
0.0
  0
LINE
  5
F69
330
1D18
100
AcDbEntity
  8
DIM
100
AcDbLine
 10
3715.696091593482
 20
666.7010867009968
 30
0.0
 11
3752.353360065181
 21
666.7010867009968
 31
0.0
  0
LINE
  5
F6A
330
1D18
100
AcDbEntity
  8
DIM
100
AcDbLine
 10
3715.696091593482
 20
678.5337417367482
 30
0.0
 11
3715.696091593482
 21
666.7010867009968
 31
0.0
  0
LINE
  5
F6D
330
1D18
100
AcDbEntity
  8
DIM
100
AcDbLine
 10
3252.712369842548
 20
649.2830775023086
 30
0.0
 11
3284.048424170759
 21
630.2324132678651
 31
0.0
  0
LINE
  5
F6E
330
1D18
100
AcDbEntity
  8
DIM
100
AcDbLine
 10
3252.712369842548
 20
649.2830775023086
 30
0.0
 11
3284.048424170759
 21
668.3337417367473
 31
0.0
  0
LINE
  5
F6F
330
1D18
100
AcDbEntity
  8
DIM
100
AcDbLine
 10
3320.705692642456
 20
642.0650683036202
 30
0.0
 11
3320.705692642456
 21
656.5010867009958
 31
0.0
  0
LINE
  5
F70
330
1D18
100
AcDbEntity
  8
DIM
100
AcDbLine
 10
3284.048424170759
 20
642.0650683036202
 30
0.0
 11
3320.705692642456
 21
642.0650683036202
 31
0.0
  0
LINE
  5
F71
330
1D18
100
AcDbEntity
  8
DIM
100
AcDbLine
 10
3284.048424170759
 20
630.2324132678651
 30
0.0
 11
3284.048424170759
 21
642.0650683036202
 31
0.0
  0
LINE
  5
F72
330
1D18
100
AcDbEntity
  8
DIM
100
AcDbLine
 10
3284.048424170759
 20
656.5010867009958
 30
0.0
 11
3320.705692642456
 21
656.5010867009958
 31
0.0
  0
LINE
  5
F73
330
1D18
100
AcDbEntity
  8
DIM
100
AcDbLine
 10
3284.048424170759
 20
668.3337417367473
 30
0.0
 11
3284.048424170759
 21
656.5010867009958
 31
0.0
  0
LINE
  5
F93
330
1D18
100
AcDbEntity
  8
OUTLINE
100
AcDbLine
 10
2768.676394255877
 20
1362.790735559124
 30
0.0
 11
2834.676394255879
 21
1362.790735559124
 31
0.0
  0
LINE
  5
F94
330
1D18
100
AcDbEntity
  8
OUTLINE
100
AcDbLine
 10
2768.676394255877
 20
1365.290735559124
 30
0.0
 11
2834.676394255879
 21
1365.290735559124
 31
0.0
  0
LINE
  5
F95
330
1D18
100
AcDbEntity
  8
OUTLINE
100
AcDbLine
 10
2789.676394255877
 20
1409.790735559124
 30
0.0
 11
2834.676394255879
 21
1409.790735559124
 31
0.0
  0
LINE
  5
F96
330
1D18
100
AcDbEntity
  8
OUTLINE
100
AcDbLine
 10
2789.676394255877
 20
1407.290735559124
 30
0.0
 11
2834.676394255879
 21
1407.290735559124
 31
0.0
  0
LINE
  5
FC3
330
1D18
100
AcDbEntity
  8
DIM
100
AcDbLine
 10
1634.076394255876
 20
1371.090735559124
 30
0.0
 11
1634.076394255876
 21
1881.290735559122
 31
0.0
  0
LINE
  5
FC4
330
1D18
100
AcDbEntity
  8
DIM
100
AcDbLine
 10
2789.676394255877
 20
1371.025722015518
 30
0.0
 11
2789.67639425588
 21
1881.290735559122
 31
0.0
  0
LINE
  5
FC5
330
1D18
100
AcDbEntity
  8
DIM
100
AcDbLine
 10
2768.676394255877
 20
1902.090737333958
 30
0.0
 11
1655.076394255877
 21
1902.090737333958
 31
0.0
  0
LINE
  5
FC6
330
1D18
100
AcDbEntity
  8
DIM
100
AcDbLine
 10
2770.351394255879
 20
1350.290735559123
 30
0.0
 11
1655.076394255877
 21
1350.290735559123
 31
0.0
  0
LINE
  5
FC7
330
1D18
100
AcDbEntity
  8
DIM
100
AcDbLine
 10
1655.076394255877
 20
1350.290735559123
 30
0.0
 11
1655.076394255877
 21
1902.090737333958
 31
0.0
  0
LINE
  5
FC8
330
1D18
100
AcDbEntity
  8
DIM
100
AcDbLine
 10
2768.676394255877
 20
1350.290735559123
 30
0.0
 11
2768.676394255877
 21
1893.490735559123
 31
0.0
  0
LINE
  5
FC9
330
1D18
100
AcDbEntity
  8
DIM
100
AcDbLine
 10
2789.67639425588
 20
1881.290735559122
 30
0.0
 11
1634.076394255876
 21
1881.290735559122
 31
0.0
  0
LINE
  5
FCA
330
1D18
100
AcDbEntity
  8
DIM
100
AcDbLine
 10
2789.676394255877
 20
1371.025722015518
 30
0.0
 11
1634.076394255876
 21
1371.090735559124
 31
0.0
  0
LINE
  5
FCC
330
1D18
100
AcDbEntity
  8
OUTLINE
100
AcDbLine
 10
1719.416394255876
 20
1350.290735559123
 30
0.0
 11
1719.416394255876
 21
1264.890735559125
 31
0.0
  0
LINE
  5
FCF
330
1D18
100
AcDbEntity
  8
OUTLINE
100
AcDbLine
 10
2470.67639425588
 20
1350.290735559123
 30
0.0
 11
2470.67639425588
 21
1264.890735559124
 31
0.0
  0
LINE
  5
FD1
330
1D18
100
AcDbEntity
  8
OUTLINE
100
AcDbLine
 10
1719.416394255876
 20
1264.890735559125
 30
0.0
 11
2389.41839425588
 21
1264.890735559124
 31
0.0
  0
ARC
  5
FF6
330
1D18
100
AcDbEntity
  8
DIM
100
AcDbCircle
 10
1645.072288051159
 20
1851.340737333958
 30
0.0
 40
4.75
100
AcDbArc
 50
0.0
 51
180.0
  0
ARC
  5
FF7
330
1D18
100
AcDbEntity
  8
DIM
100
AcDbCircle
 10
1645.072288051159
 20
1840.840737333958
 30
0.0
 40
4.75
100
AcDbArc
 50
180.0
 51
0.0
  0
LINE
  5
FF8
330
1D18
100
AcDbEntity
  8
DIM
100
AcDbLine
 10
1640.322288051158
 20
1851.340737333958
 30
0.0
 11
1640.322288051158
 21
1840.840737333958
 31
0.0
  0
LINE
  5
FF9
330
1D18
100
AcDbEntity
  8
DIM
100
AcDbLine
 10
1649.822288051157
 20
1851.340737333958
 30
0.0
 11
1649.822288051157
 21
1840.840737333958
 31
0.0
  0
ARC
  5
FFA
330
1D18
100
AcDbEntity
  8
DIM
100
AcDbCircle
 10
1645.076394255877
 20
1411.340735559124
 30
0.0
 40
4.75
100
AcDbArc
 50
0.0
 51
180.0
  0
ARC
  5
FFB
330
1D18
100
AcDbEntity
  8
DIM
100
AcDbCircle
 10
1645.076394255877
 20
1400.840735559124
 30
0.0
 40
4.75
100
AcDbArc
 50
180.0
 51
0.0
  0
LINE
  5
FFC
330
1D18
100
AcDbEntity
  8
DIM
100
AcDbLine
 10
1640.326394255876
 20
1411.340735559124
 30
0.0
 11
1640.326394255876
 21
1400.840735559124
 31
0.0
  0
LINE
  5
FFD
330
1D18
100
AcDbEntity
  8
DIM
100
AcDbLine
 10
1649.826394255875
 20
1411.340735559124
 30
0.0
 11
1649.826394255875
 21
1400.840735559124
 31
0.0
  0
ARC
  5
FFE
330
1D18
100
AcDbEntity
  8
DIM
100
AcDbCircle
 10
2778.672288051162
 20
1851.340737333958
 30
0.0
 40
4.75
100
AcDbArc
 50
0.0
 51
180.0
  0
ARC
  5
FFF
330
1D18
100
AcDbEntity
  8
DIM
100
AcDbCircle
 10
2778.672288051162
 20
1840.840737333958
 30
0.0
 40
4.75
100
AcDbArc
 50
180.0
 51
0.0
  0
LINE
  5
1000
330
1D18
100
AcDbEntity
  8
DIM
100
AcDbLine
 10
2783.422288051162
 20
1851.340737333958
 30
0.0
 11
2783.422288051162
 21
1840.840737333958
 31
0.0
  0
LINE
  5
1001
330
1D18
100
AcDbEntity
  8
DIM
100
AcDbLine
 10
2773.92228805116
 20
1851.340737333958
 30
0.0
 11
2773.92228805116
 21
1840.840737333958
 31
0.0
  0
ARC
  5
1002
330
1D18
100
AcDbEntity
  8
DIM
100
AcDbCircle
 10
2778.676394255879
 20
1411.340735559124
 30
0.0
 40
4.75
100
AcDbArc
 50
0.0
 51
180.0
  0
ARC
  5
1003
330
1D18
100
AcDbEntity
  8
DIM
100
AcDbCircle
 10
2778.676394255879
 20
1400.840735559124
 30
0.0
 40
4.75
100
AcDbArc
 50
180.0
 51
0.0
  0
LINE
  5
1004
330
1D18
100
AcDbEntity
  8
DIM
100
AcDbLine
 10
2783.426394255879
 20
1411.340735559124
 30
0.0
 11
2783.426394255879
 21
1400.840735559124
 31
0.0
  0
LINE
  5
1005
330
1D18
100
AcDbEntity
  8
DIM
100
AcDbLine
 10
2773.926394255877
 20
1411.340735559124
 30
0.0
 11
2773.926394255877
 21
1400.840735559124
 31
0.0
  0
LINE
  5
101E
330
1D18
100
AcDbEntity
  8
DIM
100
AcDbLine
 10
2834.676394255879
 20
1362.790735559124
 30
0.0
 11
2834.676394255879
 21
1409.790735559124
 31
0.0
  0
CIRCLE
  5
1021
330
1D18
100
AcDbEntity
  8
DIM
100
AcDbCircle
 10
2816.676394255877
 20
1386.290735559124
 30
0.0
 40
12.0
  0
CIRCLE
  5
1022
330
1D18
100
AcDbEntity
  8
DIM
100
AcDbCircle
 10
2816.676394255877
 20
1386.290735559124
 30
0.0
 40
10.0
  0
LINE
  5
1023
330
1D18
100
AcDbEntity
  8
OUTLINE
100
AcDbLine
 10
1655.076394255877
 20
1362.790735559124
 30
0.0
 11
1589.076394255877
 21
1362.790735559124
 31
0.0
  0
LINE
  5
1024
330
1D18
100
AcDbEntity
  8
OUTLINE
100
AcDbLine
 10
1655.076394255878
 20
1365.290735559124
 30
0.0
 11
1589.076394255878
 21
1365.290735559124
 31
0.0
  0
LINE
  5
1025
330
1D18
100
AcDbEntity
  8
OUTLINE
100
AcDbLine
 10
1634.076394255877
 20
1409.790735559124
 30
0.0
 11
1589.076394255878
 21
1409.790735559124
 31
0.0
  0
LINE
  5
1026
330
1D18
100
AcDbEntity
  8
OUTLINE
100
AcDbLine
 10
1634.076394255877
 20
1407.290735559124
 30
0.0
 11
1589.076394255877
 21
1407.290735559124
 31
0.0
  0
LINE
  5
1027
330
1D18
100
AcDbEntity
  8
DIM
100
AcDbLine
 10
1589.076394255878
 20
1362.790735559124
 30
0.0
 11
1589.076394255878
 21
1409.790735559124
 31
0.0
  0
CIRCLE
  5
1028
330
1D18
100
AcDbEntity
  8
DIM
100
AcDbCircle
 10
1607.076394255878
 20
1386.290735559124
 30
0.0
 40
12.0
  0
CIRCLE
  5
1029
330
1D18
100
AcDbEntity
  8
DIM
100
AcDbCircle
 10
1607.076394255878
 20
1386.290735559124
 30
0.0
 40
10.0
  0
LINE
  5
102A
330
1D18
100
AcDbEntity
  8
OUTLINE
100
AcDbLine
 10
2768.676394255877
 20
1889.790735559123
 30
0.0
 11
2834.676394255879
 21
1889.790735559122
 31
0.0
  0
LINE
  5
102B
330
1D18
100
AcDbEntity
  8
OUTLINE
100
AcDbLine
 10
2768.676394255877
 20
1887.290735559123
 30
0.0
 11
2834.676394255879
 21
1887.290735559122
 31
0.0
  0
LINE
  5
102C
330
1D18
100
AcDbEntity
  8
OUTLINE
100
AcDbLine
 10
2789.676394255877
 20
1842.790735559122
 30
0.0
 11
2834.676394255879
 21
1842.790735559122
 31
0.0
  0
LINE
  5
102D
330
1D18
100
AcDbEntity
  8
OUTLINE
100
AcDbLine
 10
2789.676394255877
 20
1845.290735559122
 30
0.0
 11
2834.676394255879
 21
1845.290735559122
 31
0.0
  0
LINE
  5
102E
330
1D18
100
AcDbEntity
  8
DIM
100
AcDbLine
 10
2834.676394255879
 20
1889.790735559122
 30
0.0
 11
2834.676394255879
 21
1842.790735559122
 31
0.0
  0
CIRCLE
  5
102F
330
1D18
100
AcDbEntity
  8
DIM
100
AcDbCircle
 10
2816.676394255877
 20
1866.290735559122
 30
0.0
 40
12.0
  0
CIRCLE
  5
1030
330
1D18
100
AcDbEntity
  8
DIM
100
AcDbCircle
 10
2816.676394255877
 20
1866.290735559122
 30
0.0
 40
10.0
  0
LINE
  5
1031
330
1D18
100
AcDbEntity
  8
OUTLINE
100
AcDbLine
 10
1655.076394255876
 20
1889.790735559123
 30
0.0
 11
1589.076394255876
 21
1889.790735559122
 31
0.0
  0
LINE
  5
1032
330
1D18
100
AcDbEntity
  8
OUTLINE
100
AcDbLine
 10
1655.076394255877
 20
1887.290735559123
 30
0.0
 11
1589.076394255877
 21
1887.290735559122
 31
0.0
  0
LINE
  5
1033
330
1D18
100
AcDbEntity
  8
OUTLINE
100
AcDbLine
 10
1634.076394255876
 20
1842.790735559122
 30
0.0
 11
1589.076394255877
 21
1842.790735559122
 31
0.0
  0
LINE
  5
1034
330
1D18
100
AcDbEntity
  8
OUTLINE
100
AcDbLine
 10
1634.076394255876
 20
1845.290735559122
 30
0.0
 11
1589.076394255876
 21
1845.290735559122
 31
0.0
  0
LINE
  5
1035
330
1D18
100
AcDbEntity
  8
DIM
100
AcDbLine
 10
1589.076394255877
 20
1889.790735559122
 30
0.0
 11
1589.076394255877
 21
1842.790735559122
 31
0.0
  0
CIRCLE
  5
1036
330
1D18
100
AcDbEntity
  8
DIM
100
AcDbCircle
 10
1607.076394255877
 20
1866.290735559122
 30
0.0
 40
12.0
  0
CIRCLE
  5
1037
330
1D18
100
AcDbEntity
  8
DIM
100
AcDbCircle
 10
1607.076394255877
 20
1866.290735559122
 30
0.0
 40
10.0
  0
TEXT
  5
1038
330
1D18
100
AcDbEntity
  8
TEXT
 62
     7
100
AcDbText
 10
2067.873964433214
 20
1603.107649685021
 30
0.0
 40
50.0
  1
HWP96
  7
TITLE3
100
AcDbText
  0
LINE
  5
1051
330
1D18
100
AcDbEntity
  8
DIM
100
AcDbLine
 10
2177.776394255877
 20
1782.060005678701
 30
0.0
 11
2196.82705849032
 21
1813.396060006912
 31
0.0
  0
LINE
  5
1052
330
1D18
100
AcDbEntity
  8
DIM
100
AcDbLine
 10
2177.776394255877
 20
1782.060005678701
 30
0.0
 11
2158.725730021437
 21
1813.396060006912
 31
0.0
  0
LINE
  5
1053
330
1D18
100
AcDbEntity
  8
DIM
100
AcDbLine
 10
2184.994403454565
 20
1850.05332847861
 30
0.0
 11
2170.558385057189
 21
1850.05332847861
 31
0.0
  0
LINE
  5
1054
330
1D18
100
AcDbEntity
  8
DIM
100
AcDbLine
 10
2184.994403454565
 20
1813.396060006912
 30
0.0
 11
2184.994403454565
 21
1850.05332847861
 31
0.0
  0
LINE
  5
1055
330
1D18
100
AcDbEntity
  8
DIM
100
AcDbLine
 10
2196.82705849032
 20
1813.396060006912
 30
0.0
 11
2184.994403454565
 21
1813.396060006912
 31
0.0
  0
LINE
  5
1056
330
1D18
100
AcDbEntity
  8
DIM
100
AcDbLine
 10
2170.558385057189
 20
1813.396060006912
 30
0.0
 11
2170.558385057189
 21
1850.05332847861
 31
0.0
  0
LINE
  5
1057
330
1D18
100
AcDbEntity
  8
DIM
100
AcDbLine
 10
2158.725730021437
 20
1813.396060006912
 30
0.0
 11
2170.558385057189
 21
1813.396060006912
 31
0.0
  0
LINE
  5
1058
330
1D18
100
AcDbEntity
  8
DIM
100
AcDbLine
 10
2189.576394255877
 20
1394.90634538479
 30
0.0
 11
2208.62705849032
 21
1426.242399713001
 31
0.0
  0
LINE
  5
1059
330
1D18
100
AcDbEntity
  8
DIM
100
AcDbLine
 10
2189.576394255877
 20
1394.90634538479
 30
0.0
 11
2170.525730021438
 21
1426.242399713001
 31
0.0
  0
LINE
  5
105A
330
1D18
100
AcDbEntity
  8
DIM
100
AcDbLine
 10
2196.794403454565
 20
1462.899668184699
 30
0.0
 11
2182.358385057189
 21
1462.899668184699
 31
0.0
  0
LINE
  5
105B
330
1D18
100
AcDbEntity
  8
DIM
100
AcDbLine
 10
2196.794403454565
 20
1426.242399713001
 30
0.0
 11
2196.794403454565
 21
1462.899668184699
 31
0.0
  0
LINE
  5
105C
330
1D18
100
AcDbEntity
  8
DIM
100
AcDbLine
 10
2208.62705849032
 20
1426.242399713001
 30
0.0
 11
2196.794403454565
 21
1426.242399713001
 31
0.0
  0
LINE
  5
105D
330
1D18
100
AcDbEntity
  8
DIM
100
AcDbLine
 10
2182.358385057189
 20
1426.242399713001
 30
0.0
 11
2182.358385057189
 21
1462.899668184699
 31
0.0
  0
LINE
  5
105E
330
1D18
100
AcDbEntity
  8
DIM
100
AcDbLine
 10
2170.525730021438
 20
1426.242399713001
 30
0.0
 11
2182.358385057189
 21
1426.242399713001
 31
0.0
  0
LINE
  5
1079
330
1D18
100
AcDbEntity
  8
DIM
100
AcDbLine
 10
1675.076394255876
 20
1184.65027609101
 30
0.0
 11
1940.076394255877
 21
1184.65027609101
 31
0.0
  0
LINE
  5
107A
330
1D18
100
AcDbEntity
  8
DIM
100
AcDbLine
 10
2748.676394255879
 20
1184.65027609101
 30
0.0
 11
2438.676394255877
 21
1184.65027609101
 31
0.0
  0
SOLID
  5
107B
330
1D18
100
AcDbEntity
  8
DIM
100
AcDbTrace
 10
1675.076394255876
 20
1189.650276091011
 30
0.0
 11
1675.076394255876
 21
1179.650276091011
 31
0.0
 12
1645.076394255877
 22
1184.65027609101
 32
0.0
 13
1645.076394255877
 23
1184.65027609101
 33
0.0
  0
SOLID
  5
107C
330
1D18
100
AcDbEntity
  8
DIM
100
AcDbTrace
 10
2748.676394255879
 20
1189.650276091011
 30
0.0
 11
2748.676394255879
 21
1179.650276091011
 31
0.0
 12
2778.676394255879
 22
1184.65027609101
 32
0.0
 13
2778.676394255879
 23
1184.65027609101
 33
0.0
  0
LINE
  5
107E
330
1D18
100
AcDbEntity
  8
DIM
100
AcDbLine
 10
1607.076394255877
 20
1368.236485995121
 30
0.0
 11
1607.076394255877
 21
1102.627356150924
 31
0.0
  0
LINE
  5
107F
330
1D18
100
AcDbEntity
  8
DIM
100
AcDbLine
 10
2816.676394255877
 20
1368.783102970302
 30
0.0
 11
2816.676394255877
 21
1102.627356150924
 31
0.0
  0
LINE
  5
1080
330
1D18
100
AcDbEntity
  8
DIM
100
AcDbLine
 10
2786.676394255877
 20
1122.627356150925
 30
0.0
 11
2661.87540552105
 21
1122.627356150925
 31
0.0
  0
LINE
  5
1081
330
1D18
100
AcDbEntity
  8
DIM
100
AcDbLine
 10
1637.076394255878
 20
1122.627356150925
 30
0.0
 11
1781.875405521049
 21
1122.627356150925
 31
0.0
  0
SOLID
  5
1082
330
1D18
100
AcDbEntity
  8
DIM
100
AcDbTrace
 10
2786.676394255877
 20
1127.627356150925
 30
0.0
 11
2786.676394255877
 21
1117.627356150924
 31
0.0
 12
2816.676394255877
 22
1122.627356150925
 32
0.0
 13
2816.676394255877
 23
1122.627356150925
 33
0.0
  0
SOLID
  5
1083
330
1D18
100
AcDbEntity
  8
DIM
100
AcDbTrace
 10
1637.076394255878
 20
1127.627356150925
 30
0.0
 11
1637.076394255878
 21
1117.627356150924
 31
0.0
 12
1607.076394255877
 22
1122.627356150925
 32
0.0
 13
1607.076394255877
 23
1122.627356150925
 33
0.0
  0
LINE
  5
1086
330
1D18
100
AcDbEntity
  8
DIM
100
AcDbLine
 10
1634.076394255876
 20
1892.690735559122
 30
0.0
 11
1634.076394255876
 21
1996.823848306443
 31
0.0
  0
LINE
  5
1087
330
1D18
100
AcDbEntity
  8
DIM
100
AcDbLine
 10
1704.076394255877
 20
1976.823848306443
 30
0.0
 11
1734.076394255876
 21
1976.823848306443
 31
0.0
  0
LINE
  5
1088
330
1D18
100
AcDbEntity
  8
DIM
100
AcDbLine
 10
1604.076394255877
 20
1976.823848306443
 30
0.0
 11
1574.076394255877
 21
1976.823848306443
 31
0.0
  0
SOLID
  5
1089
330
1D18
100
AcDbEntity
  8
DIM
100
AcDbTrace
 10
1732.004071788204
 20
1981.823848306443
 30
0.0
 11
1732.004071788204
 21
1971.823848306443
 31
0.0
 12
1702.004071788204
 22
1976.823848306443
 32
0.0
 13
1702.004071788204
 23
1976.823848306443
 33
0.0
  0
SOLID
  5
108A
330
1D18
100
AcDbEntity
  8
DIM
100
AcDbTrace
 10
1604.076394255877
 20
1981.823848306443
 30
0.0
 11
1604.076394255877
 21
1971.823848306443
 31
0.0
 12
1634.076394255876
 22
1976.823848306443
 32
0.0
 13
1634.076394255876
 23
1976.823848306443
 33
0.0
  0
LINE
  5
108C
330
1D18
100
AcDbEntity
  8
DIM
100
AcDbLine
 10
1702.004071788204
 20
1954.690735559122
 30
0.0
 11
1702.004071788204
 21
1996.578120686029
 31
0.0
  0
LINE
  5
108D
330
1D18
100
AcDbEntity
  8
DIM
100
AcDbLine
 10
2352.881891385216
 20
1954.690735559121
 30
0.0
 11
2352.881891385217
 21
1996.578120686029
 31
0.0
  0
LINE
  5
108E
330
1D18
100
AcDbEntity
  8
DIM
100
AcDbLine
 10
1704.076394255877
 20
1976.578120686029
 30
0.0
 11
1985.276394255876
 21
1976.578120686029
 31
0.0
  0
LINE
  5
108F
330
1D18
100
AcDbEntity
  8
DIM
100
AcDbLine
 10
2322.881891385217
 20
1976.578120686029
 30
0.0
 11
2089.801458496557
 21
1976.578120686029
 31
0.0
  0
SOLID
  5
1091
330
1D18
100
AcDbEntity
  8
DIM
100
AcDbTrace
 10
2322.881891385217
 20
1981.578120686029
 30
0.0
 11
2322.881891385217
 21
1971.578120686029
 31
0.0
 12
2352.881891385217
 22
1976.578120686029
 32
0.0
 13
2352.881891385217
 23
1976.578120686029
 33
0.0
  0
LINE
  5
1094
330
1D18
100
AcDbEntity
  8
DIM
100
AcDbLine
 10
1634.076394255876
 20
836.7830775023088
 30
0.0
 11
1634.076394255876
 21
879.6206068740231
 31
0.0
  0
LINE
  5
1096
330
1D18
100
AcDbEntity
  8
DIM
100
AcDbLine
 10
1604.076394255877
 20
859.6206068740226
 30
0.0
 11
1574.076394255877
 21
859.6206068740226
 31
0.0
  0
SOLID
  5
1098
330
1D18
100
AcDbEntity
  8
DIM
100
AcDbTrace
 10
1604.076394255877
 20
864.6206068740225
 30
0.0
 11
1604.076394255877
 21
854.6206068740231
 31
0.0
 12
1634.076394255876
 22
859.6206068740226
 32
0.0
 13
1634.076394255876
 23
859.6206068740226
 33
0.0
  0
LINE
  5
109A
330
1D18
100
AcDbEntity
  8
DIM
100
AcDbLine
 10
1719.416394255876
 20
792.7830775023086
 30
0.0
 11
1719.416394255876
 21
879.5387797319161
 31
0.0
  0
LINE
  5
109B
330
1D18
100
AcDbEntity
  8
DIM
100
AcDbLine
 10
2389.41839425588
 20
792.7830775023084
 30
0.0
 11
2389.41839425588
 21
879.5387797319161
 31
0.0
  0
LINE
  5
109D
330
1D18
100
AcDbEntity
  8
DIM
100
AcDbLine
 10
2359.418394255881
 20
859.5387797319165
 30
0.0
 11
2113.605811021029
 21
859.5387797319165
 31
0.0
  0
SOLID
  5
109E
330
1D18
100
AcDbEntity
  8
DIM
100
AcDbTrace
 10
1749.416394255876
 20
864.5387797319161
 30
0.0
 11
1749.416394255876
 21
854.5387797319161
 31
0.0
 12
1719.416394255876
 22
859.5387797319165
 32
0.0
 13
1719.416394255876
 23
859.5387797319165
 33
0.0
  0
SOLID
  5
109F
330
1D18
100
AcDbEntity
  8
DIM
100
AcDbTrace
 10
2359.418394255881
 20
864.5387797319161
 30
0.0
 11
2359.418394255881
 21
854.5387797319161
 31
0.0
 12
2389.41839425588
 22
859.5387797319165
 32
0.0
 13
2389.41839425588
 23
859.5387797319165
 33
0.0
  0
LINE
  5
10A1
330
1D18
100
AcDbEntity
  8
DIM
100
AcDbLine
 10
1634.076394255876
 20
836.7830775023088
 30
0.0
 11
1634.076394255876
 21
943.4454019475742
 31
0.0
  0
LINE
  5
10A2
330
1D18
100
AcDbEntity
  8
DIM
100
AcDbLine
 10
2789.67639425588
 20
836.7830775023088
 30
0.0
 11
2789.67639425588
 21
943.4454019475742
 31
0.0
  0
LINE
  5
10A3
330
1D18
100
AcDbEntity
  8
DIM
100
AcDbLine
 10
1664.076394255876
 20
923.4454019475741
 30
0.0
 11
2069.376394255877
 21
923.4454019475741
 31
0.0
  0
LINE
  5
10A4
330
1D18
100
AcDbEntity
  8
DIM
100
AcDbLine
 10
2759.676394255879
 20
923.4454019475741
 30
0.0
 11
2309.376394255878
 21
923.4454019475741
 31
0.0
  0
SOLID
  5
10A5
330
1D18
100
AcDbEntity
  8
DIM
100
AcDbTrace
 10
1664.076394255876
 20
928.4454019475743
 30
0.0
 11
1664.076394255876
 21
918.4454019475742
 31
0.0
 12
1634.076394255876
 22
923.4454019475741
 32
0.0
 13
1634.076394255876
 23
923.4454019475741
 33
0.0
  0
SOLID
  5
10A6
330
1D18
100
AcDbEntity
  8
DIM
100
AcDbTrace
 10
2759.676394255879
 20
928.4454019475743
 30
0.0
 11
2759.676394255879
 21
918.4454019475742
 31
0.0
 12
2789.67639425588
 22
923.4454019475741
 32
0.0
 13
2789.67639425588
 23
923.4454019475741
 33
0.0
  0
LINE
  5
10A8
330
1D18
100
AcDbEntity
  8
DIM
100
AcDbLine
 10
1614.076394255876
 20
816.7830775023086
 30
0.0
 11
1496.711091623167
 21
816.7830775023086
 31
0.0
  0
LINE
  5
10A9
330
1D18
100
AcDbEntity
  8
DIM
100
AcDbLine
 10
1635.076394255877
 20
400.7830775023087
 30
0.0
 11
1496.711091623167
 21
400.7830775023087
 31
0.0
  0
LINE
  5
10AA
330
1D18
100
AcDbEntity
  8
DIM
100
AcDbLine
 10
1516.711091623167
 20
786.7830775023086
 30
0.0
 11
1516.711091623167
 21
725.9218484080202
 31
0.0
  0
LINE
  5
10AB
330
1D18
100
AcDbEntity
  8
DIM
100
AcDbLine
 10
1516.711091623167
 20
430.7830775023087
 30
0.0
 11
1516.711091623167
 21
512.7858460815905
 31
0.0
  0
SOLID
  5
10AC
330
1D18
100
AcDbEntity
  8
DIM
100
AcDbTrace
 10
1511.711091623167
 20
786.7830775023086
 30
0.0
 11
1521.711091623167
 21
786.7830775023086
 31
0.0
 12
1516.711091623167
 22
816.7830775023086
 32
0.0
 13
1516.711091623167
 23
816.7830775023086
 33
0.0
  0
SOLID
  5
10AD
330
1D18
100
AcDbEntity
  8
DIM
100
AcDbTrace
 10
1511.711091623167
 20
430.7830775023087
 30
0.0
 11
1521.711091623167
 21
430.7830775023087
 31
0.0
 12
1516.711091623167
 22
400.7830775023087
 32
0.0
 13
1516.711091623167
 23
400.7830775023087
 33
0.0
  0
LINE
  5
10AF
330
1D18
100
AcDbEntity
  8
DIM
100
AcDbLine
 10
2809.676394255877
 20
816.7830775023086
 30
0.0
 11
2950.16551784755
 21
816.7830775023086
 31
0.0
  0
LINE
  5
10B0
330
1D18
100
AcDbEntity
  8
DIM
100
AcDbLine
 10
2788.676394255877
 20
413.7830775023087
 30
0.0
 11
2950.16551784755
 21
413.7830775023087
 31
0.0
  0
LINE
  5
10B1
330
1D18
100
AcDbEntity
  8
DIM
100
AcDbLine
 10
2930.16551784755
 20
786.7830775023086
 30
0.0
 11
2930.16551784755
 21
703.2830775023088
 31
0.0
  0
LINE
  5
10B2
330
1D18
100
AcDbEntity
  8
DIM
100
AcDbLine
 10
2930.16551784755
 20
443.7830775023087
 30
0.0
 11
2930.16551784755
 21
588.2830775023087
 31
0.0
  0
SOLID
  5
10B3
330
1D18
100
AcDbEntity
  8
DIM
100
AcDbTrace
 10
2925.165517847551
 20
786.7830775023086
 30
0.0
 11
2935.165517847551
 21
786.7830775023086
 31
0.0
 12
2930.16551784755
 22
816.7830775023086
 32
0.0
 13
2930.16551784755
 23
816.7830775023086
 33
0.0
  0
SOLID
  5
10B4
330
1D18
100
AcDbEntity
  8
DIM
100
AcDbTrace
 10
2925.165517847551
 20
443.7830775023087
 30
0.0
 11
2935.165517847551
 21
443.7830775023087
 31
0.0
 12
2930.16551784755
 22
413.7830775023087
 32
0.0
 13
2930.16551784755
 23
413.7830775023087
 33
0.0
  0
LINE
  5
10B6
330
1D18
100
AcDbEntity
  8
DIM
100
AcDbLine
 10
2854.676394255877
 20
704.7794354485131
 30
0.0
 11
2890.305335407327
 21
704.7794354485131
 31
0.0
  0
LINE
  5
10B7
330
1D18
100
AcDbEntity
  8
DIM
100
AcDbLine
 10
2809.676394255877
 20
816.7830775023086
 30
0.0
 11
2890.305335407327
 21
816.7830775023086
 31
0.0
  0
LINE
  5
10B8
330
1D18
100
AcDbEntity
  8
DIM
100
AcDbLine
 10
2870.305335407327
 20
735.7830775023086
 30
0.0
 11
2870.305335407327
 21
786.7830775023086
 31
0.0
  0
SOLID
  5
10BA
330
1D18
100
AcDbEntity
  8
DIM
100
AcDbTrace
 10
2865.305335407327
 20
734.7794354485129
 30
0.0
 11
2875.305335407328
 21
734.7794354485129
 31
0.0
 12
2870.305335407327
 22
704.7794354485131
 32
0.0
 13
2870.305335407327
 23
704.7794354485131
 33
0.0
  0
SOLID
  5
10BB
330
1D18
100
AcDbEntity
  8
DIM
100
AcDbTrace
 10
2865.305335407327
 20
786.7830775023086
 30
0.0
 11
2875.305335407328
 21
786.7830775023086
 31
0.0
 12
2870.305335407327
 22
816.7830775023086
 32
0.0
 13
2870.305335407327
 23
816.7830775023086
 33
0.0
  0
LINE
  5
1100
330
1D18
100
AcDbEntity
  8
DIM
100
AcDbLine
 10
3202.71018238691
 20
816.7830775023086
 30
0.0
 11
3095.697266222858
 21
816.7830775023086
 31
0.0
  0
LINE
  5
1101
330
1D18
100
AcDbEntity
  8
DIM
100
AcDbLine
 10
3115.697266222858
 20
742.7830775023086
 30
0.0
 11
3115.697266222858
 21
712.7830775023086
 31
0.0
  0
LINE
  5
1102
330
1D18
100
AcDbEntity
  8
DIM
100
AcDbLine
 10
3115.697266222858
 20
846.7830775023086
 30
0.0
 11
3115.697266222858
 21
876.7830775023085
 31
0.0
  0
SOLID
  5
1104
330
1D18
100
AcDbEntity
  8
DIM
100
AcDbTrace
 10
3110.697266222858
 20
846.7830775023086
 30
0.0
 11
3120.697266222859
 21
846.7830775023086
 31
0.0
 12
3115.697266222858
 22
816.7830775023086
 32
0.0
 13
3115.697266222858
 23
816.7830775023086
 33
0.0
  0
LINE
  5
1106
330
1D18
100
AcDbEntity
  8
DIM
100
AcDbLine
 10
3142.990182386909
 20
746.7830775023083
 30
0.0
 11
3095.681924010312
 21
746.7830775023083
 31
0.0
  0
LINE
  5
1107
330
1D18
100
AcDbEntity
  8
DIM
100
AcDbLine
 10
3142.990182386909
 20
548.783077502309
 30
0.0
 11
3095.681924010312
 21
548.783077502309
 31
0.0
  0
LINE
  5
1108
330
1D18
100
AcDbEntity
  8
DIM
100
AcDbLine
 10
3115.68192401031
 20
716.7830775023083
 30
0.0
 11
3115.68192401031
 21
678.2830775023085
 31
0.0
  0
SOLID
  5
110A
330
1D18
100
AcDbEntity
  8
DIM
100
AcDbTrace
 10
3110.681924010311
 20
716.7830775023083
 30
0.0
 11
3120.681924010312
 21
716.7830775023083
 31
0.0
 12
3115.68192401031
 22
746.7830775023083
 32
0.0
 13
3115.68192401031
 23
746.7830775023083
 33
0.0
  0
LINE
  5
110E
330
1D18
100
AcDbEntity
  8
DIM
100
AcDbLine
 10
3806.910182386911
 20
816.7830775023086
 30
0.0
 11
3886.023572455177
 21
816.7830775023086
 31
0.0
  0
LINE
  5
110F
330
1D18
100
AcDbEntity
  8
DIM
100
AcDbLine
 10
3866.023572455176
 20
771.7830775023086
 30
0.0
 11
3866.023572455176
 21
669.8640761401675
 31
0.0
  0
LINE
  5
1110
330
1D18
100
AcDbEntity
  8
DIM
100
AcDbLine
 10
3866.023572455176
 20
846.7830775023086
 30
0.0
 11
3866.023572455176
 21
876.7830775023085
 31
0.0
  0
SOLID
  5
1112
330
1D18
100
AcDbEntity
  8
DIM
100
AcDbTrace
 10
3861.023572455177
 20
846.7830775023086
 30
0.0
 11
3871.023572455176
 21
846.7830775023086
 31
0.0
 12
3866.023572455176
 22
816.7830775023086
 32
0.0
 13
3866.023572455176
 23
816.7830775023086
 33
0.0
  0
LINE
  5
1114
330
1D18
100
AcDbEntity
  8
DIM
100
AcDbLine
 10
3848.110182386911
 20
801.7830775023085
 30
0.0
 11
3886.023572455177
 21
801.7830775023085
 31
0.0
  0
LINE
  5
1115
330
1D18
100
AcDbEntity
  8
DIM
100
AcDbLine
 10
3848.110182386923
 20
446.8626060554397
 30
0.0
 11
3886.023572455177
 21
446.8626060554396
 31
0.0
  0
SOLID
  5
1118
330
1D18
100
AcDbEntity
  8
DIM
100
AcDbTrace
 10
3861.023572455177
 20
771.7830775023086
 30
0.0
 11
3871.023572455176
 21
771.7830775023086
 31
0.0
 12
3866.023572455176
 22
801.7830775023085
 32
0.0
 13
3866.023572455176
 23
801.7830775023085
 33
0.0
  0
LINE
  5
11BC
330
1D18
100
AcDbEntity
  8
DIM
100
AcDbLine
 10
2836.676394255877
 20
1386.190735559124
 30
0.0
 11
3004.461792250693
 21
1386.190735559124
 31
0.0
  0
LINE
  5
11BD
330
1D18
100
AcDbEntity
  8
DIM
100
AcDbLine
 10
2984.461792250693
 20
1836.290735559122
 30
0.0
 11
2984.461792250693
 21
1669.337334534042
 31
0.0
  0
LINE
  5
11BE
330
1D18
100
AcDbEntity
  8
DIM
100
AcDbLine
 10
2984.461792250693
 20
1423.490735559124
 30
0.0
 11
2984.461792250693
 21
1556.760715585782
 31
0.0
  0
SOLID
  5
11BF
330
1D18
100
AcDbEntity
  8
DIM
100
AcDbTrace
 10
2979.461792250693
 20
1836.290735559122
 30
0.0
 11
2989.461792250693
 21
1836.290735559122
 31
0.0
 12
2984.461792250693
 22
1866.290735559122
 32
0.0
 13
2984.461792250693
 23
1866.290735559122
 33
0.0
  0
SOLID
  5
11C0
330
1D18
100
AcDbEntity
  8
DIM
100
AcDbTrace
 10
2979.461792250693
 20
1423.490735559124
 30
0.0
 11
2989.461792250693
 21
1423.490735559124
 31
0.0
 12
2984.461792250693
 22
1386.190735559124
 32
0.0
 13
2984.461792250693
 23
1386.190735559124
 33
0.0
  0
LINE
  5
11C3
330
1D18
100
AcDbEntity
  8
DIM
100
AcDbLine
 10
2804.126394255877
 20
1406.090735559124
 30
0.0
 11
2932.596627950758
 21
1406.090735559124
 31
0.0
  0
LINE
  5
11C4
330
1D18
100
AcDbEntity
  8
DIM
100
AcDbLine
 10
2912.596627950758
 20
1816.090737333959
 30
0.0
 11
2912.596627950758
 21
1672.793352316858
 31
0.0
  0
LINE
  5
11C5
330
1D18
100
AcDbEntity
  8
DIM
100
AcDbLine
 10
2912.596627950758
 20
1436.090735559124
 30
0.0
 11
2912.596627950758
 21
1558.054697802967
 31
0.0
  0
SOLID
  5
11C6
330
1D18
100
AcDbEntity
  8
DIM
100
AcDbTrace
 10
2907.596627950758
 20
1816.090737333959
 30
0.0
 11
2917.596627950758
 21
1816.090737333959
 31
0.0
 12
2912.596627950758
 22
1846.090737333957
 32
0.0
 13
2912.596627950758
 23
1846.090737333957
 33
0.0
  0
SOLID
  5
11C7
330
1D18
100
AcDbEntity
  8
DIM
100
AcDbTrace
 10
2907.596627950758
 20
1436.090735559124
 30
0.0
 11
2917.596627950758
 21
1436.090735559124
 31
0.0
 12
2912.596627950758
 22
1406.090735559124
 32
0.0
 13
2912.596627950758
 23
1406.090735559124
 33
0.0
  0
CIRCLE
  5
11CD
330
1D18
100
AcDbEntity
  8
DIM
100
AcDbCircle
 10
3698.910182386908
 20
786.7830775023086
 30
0.0
 40
10.25
  0
CIRCLE
  5
11CE
330
1D18
100
AcDbEntity
  8
DIM
100
AcDbCircle
 10
3698.910182386908
 20
711.7830775023086
 30
0.0
 40
10.25
  0
LINE
  5
11CF
330
1D18
100
AcDbEntity
  8
DIM
100
AcDbLine
 10
3697.910182386909
 20
836.7830775023088
 30
0.0
 11
3697.910182386909
 21
898.8776756258937
 31
0.0
  0
LINE
  5
11D1
330
1D18
100
AcDbEntity
  8
DIM
100
AcDbLine
 10
3727.91018238691
 20
878.8776756258938
 30
0.0
 11
3756.910182386909
 21
878.8776756258938
 31
0.0
  0
SOLID
  5
11D3
330
1D18
100
AcDbEntity
  8
DIM
100
AcDbTrace
 10
3727.91018238691
 20
883.8776756258937
 30
0.0
 11
3727.91018238691
 21
873.8776756258937
 31
0.0
 12
3697.910182386909
 22
878.8776756258938
 32
0.0
 13
3697.910182386909
 23
878.8776756258938
 33
0.0
  0
SOLID
  5
11D4
330
1D18
100
AcDbEntity
  8
DIM
100
AcDbTrace
 10
3756.910182386909
 20
883.8776756258937
 30
0.0
 11
3756.910182386909
 21
873.8776756258937
 31
0.0
 12
3786.910182386908
 22
878.8776756258938
 32
0.0
 13
3786.910182386908
 23
878.8776756258938
 33
0.0
  0
LINE
  5
11D6
330
1D18
100
AcDbEntity
  8
DIM
100
AcDbLine
 10
3605.810536526897
 20
786.7830775023086
 30
0.0
 11
3676.146612427639
 21
786.7830775023086
 31
0.0
  0
LINE
  5
11D7
330
1D18
100
AcDbEntity
  8
DIM
100
AcDbLine
 10
3605.810536526897
 20
711.7830775023086
 30
0.0
 11
3676.146612427639
 21
711.7830775023085
 31
0.0
  0
LINE
  5
11DE
330
1D18
100
AcDbEntity
  8
DIM
100
AcDbLine
 10
3641.90049260282
 20
711.7830775023072
 30
0.0
 11
3641.90049260282
 21
816.7830775023086
 31
0.0
  0
LINE
  5
11E5
330
1D18
100
AcDbEntity
  8
DIM
100
AcDbLine
 10
3636.712453459464
 20
811.5950383589529
 30
0.0
 11
3641.90049260282
 21
816.7830775023086
 31
0.0
  0
LINE
  5
11E6
330
1D18
100
AcDbEntity
  8
DIM
100
AcDbLine
 10
3641.90049260282
 20
816.7830775023086
 30
0.0
 11
3647.088531746174
 21
811.5950383589526
 31
0.0
  0
LINE
  5
11E7
330
1D18
100
AcDbEntity
  8
DIM
100
AcDbLine
 10
3636.712453459464
 20
781.5950383589529
 30
0.0
 11
3647.088531746174
 21
791.9711166456643
 31
0.0
  0
LINE
  5
11E8
330
1D18
100
AcDbEntity
  8
DIM
100
AcDbLine
 10
3636.712453459464
 20
791.971116645664
 30
0.0
 11
3647.088531746174
 21
781.5950383589529
 31
0.0
  0
LINE
  5
11E9
330
1D18
100
AcDbEntity
  8
DIM
100
AcDbLine
 10
3641.90049260282
 20
711.7830775023087
 30
0.0
 11
3647.088531746174
 21
716.9711166456642
 31
0.0
  0
LINE
  5
11EA
330
1D18
100
AcDbEntity
  8
DIM
100
AcDbLine
 10
3636.712453459464
 20
716.9711166456639
 30
0.0
 11
3641.900492602819
 21
711.7830775023086
 31
0.0
  0
LINE
  5
11EB
330
1D18
100
AcDbEntity
  8
DIM
100
AcDbLine
 10
1654.076394255877
 20
1934.690735559121
 30
0.0
 11
1496.698602351978
 21
1934.690735559121
 31
0.0
  0
LINE
  5
11EC
330
1D18
100
AcDbEntity
  8
DIM
100
AcDbLine
 10
1665.011525486376
 20
1264.890735559124
 30
0.0
 11
1496.698602351978
 21
1264.890735559124
 31
0.0
  0
LINE
  5
11ED
330
1D18
100
AcDbEntity
  8
DIM
100
AcDbLine
 10
1516.698602351979
 20
1904.690735559121
 30
0.0
 11
1516.698602351979
 21
1716.230735559122
 31
0.0
  0
LINE
  5
11EE
330
1D18
100
AcDbEntity
  8
DIM
100
AcDbLine
 10
1516.698602351978
 20
1294.890735559124
 30
0.0
 11
1516.698602351978
 21
1476.230735559122
 31
0.0
  0
SOLID
  5
11EF
330
1D18
100
AcDbEntity
  8
DIM
100
AcDbTrace
 10
1511.698602351979
 20
1904.690735559121
 30
0.0
 11
1521.698602351978
 21
1904.690735559121
 31
0.0
 12
1516.698602351979
 22
1934.690735559121
 32
0.0
 13
1516.698602351979
 23
1934.690735559121
 33
0.0
  0
SOLID
  5
11F0
330
1D18
100
AcDbEntity
  8
DIM
100
AcDbTrace
 10
1511.698602351978
 20
1294.890735559124
 30
0.0
 11
1521.698602351978
 21
1294.890735559124
 31
0.0
 12
1516.698602351978
 22
1264.890735559124
 32
0.0
 13
1516.698602351978
 23
1264.890735559124
 33
0.0
  0
LINE
  5
1464
330
1D18
100
AcDbEntity
  8
DIM
100
AcDbLine
 10
2836.676394255877
 20
1866.290735559122
 30
0.0
 11
3004.230765222468
 21
1866.290735559122
 31
0.0
  0
SOLID
  5
1468
330
1D18
100
AcDbEntity
  8
DIM
100
AcDbTrace
 10
2979.230765222468
 20
1836.290735559122
 30
0.0
 11
2989.230765222468
 21
1836.290735559122
 31
0.0
 12
2984.230765222469
 22
1866.290735559122
 32
0.0
 13
2984.230765222469
 23
1866.290735559122
 33
0.0
  0
LINE
  5
146B
330
1D18
100
AcDbEntity
  8
DIM
100
AcDbLine
 10
2804.126394255877
 20
1846.090737333957
 30
0.0
 11
2932.598134009931
 21
1846.090737333957
 31
0.0
  0
LINE
  5
146D
330
1D18
100
AcDbEntity
  8
DIM
100
AcDbLine
 10
2912.598134009931
 20
1816.090737333959
 30
0.0
 11
2912.598134009931
 21
1786.090737333958
 31
0.0
  0
SOLID
  5
146F
330
1D18
100
AcDbEntity
  8
DIM
100
AcDbTrace
 10
2907.598134009931
 20
1816.090737333959
 30
0.0
 11
2917.598134009931
 21
1816.090737333959
 31
0.0
 12
2912.598134009931
 22
1846.090737333957
 32
0.0
 13
2912.598134009931
 23
1846.090737333957
 33
0.0
  0
TEXT
  5
1774
330
1D18
100
AcDbEntity
  8
DIM
100
AcDbText
 10
1529.651830312681
 20
1496.230735559123
 30
0.0
 40
30.0
  1
670 O/A
 50
90.0
100
AcDbText
  0
TEXT
  5
1775
330
1D18
100
AcDbEntity
  8
DIM
100
AcDbText
 10
3577.72333985297
 20
823.0022499690303
 30
0.0
 40
30.0
  1
30
100
AcDbText
  0
TEXT
  5
1776
330
1D18
100
AcDbEntity
  8
DIM
100
AcDbText
 10
3577.483702964207
 20
736.2799415894994
 30
0.0
 40
30.0
  1
75
100
AcDbText
  0
TEXT
  5
1777
330
1D18
100
AcDbEntity
  8
DIM
100
AcDbText
 10
3640.753481643385
 20
862.5600232784389
 30
0.0
 40
30.0
  1
89
100
AcDbText
  0
TEXT
  5
1778
330
1D18
100
AcDbEntity
  8
DIM
100
AcDbText
 10
2927.596627950757
 20
1578.947832640779
 30
0.0
 40
30.0
  1
440
 50
90.0
100
AcDbText
  0
TEXT
  5
1779
330
1D18
100
AcDbEntity
  8
DIM
100
AcDbText
 10
2999.461792250693
 20
1576.447832640779
 30
0.0
 40
30.0
  1
480
 50
90.0
100
AcDbText
  0
TEXT
  5
177A
330
1D18
100
AcDbEntity
  8
DIM
100
AcDbText
 10
3880.650228430449
 20
578.2853446057197
 30
0.0
 40
30.0
  1
355
 50
90.0
100
AcDbText
  0
TEXT
  5
177B
330
1D18
100
AcDbEntity
  8
DIM
100
AcDbText
 10
3881.023572455176
 20
896.7830775023093
 30
0.0
 40
30.0
  1
15
 50
90.0
100
AcDbText
  0
TEXT
  5
177C
330
1D18
100
AcDbEntity
  8
DIM
100
AcDbText
 10
3130.169311793333
 20
468.5039743779706
 30
0.0
 40
30.0
  1
200
 50
90.0
100
AcDbText
  0
TEXT
  5
177D
330
1D18
100
AcDbEntity
  8
DIM
100
AcDbText
 10
3130.697266222859
 20
896.783077502309
 30
0.0
 40
30.0
  1
70
 50
90.0
100
AcDbText
  0
TEXT
  5
177E
330
1D18
100
AcDbEntity
  8
DIM
100
AcDbText
 10
2885.305335407327
 20
613.4760216695017
 30
0.0
 40
30.0
  1
112
 50
90.0
100
AcDbText
  0
TEXT
  5
177F
330
1D18
100
AcDbEntity
  8
DIM
100
AcDbText
 10
2945.165517847549
 20
608.2830775023093
 30
0.0
 40
30.0
  1
399
 50
90.0
100
AcDbText
  0
TEXT
  5
1780
330
1D18
100
AcDbEntity
  8
DIM
100
AcDbText
 10
1527.662116134049
 20
526.2715877498207
 30
0.0
 40
30.0
  1
416 O/A
 50
90.0
100
AcDbText
  0
TEXT
  5
1781
330
1D18
100
AcDbEntity
  8
DIM
100
AcDbText
 10
2089.376394255877
 20
908.4454019475741
 30
0.0
 40
30.0
  1
1159 O/A
100
AcDbText
  0
TEXT
  5
1782
330
1D18
100
AcDbEntity
  8
DIM
100
AcDbText
 10
2017.076394255877
 20
844.5387797319163
 30
0.0
 40
30.0
  1
670
100
AcDbText
  0
TEXT
  5
1783
330
1D18
100
AcDbEntity
  8
DIM
100
AcDbText
 10
1502.02962221658
 20
844.6206068740226
 30
0.0
 40
30.0
  1
85
100
AcDbText
  0
TEXT
  5
1784
330
1D18
100
AcDbEntity
  8
DIM
100
AcDbText
 10
2005.276394255877
 20
1961.578120686029
 30
0.0
 40
30.0
  1
651
100
AcDbText
  0
TEXT
  5
1785
330
1D18
100
AcDbEntity
  8
DIM
100
AcDbText
 10
1513.394593252177
 20
1961.823848306443
 30
0.0
 40
30.0
  1
68
100
AcDbText
  0
TEXT
  5
1786
330
1D18
100
AcDbEntity
  8
DIM
100
AcDbText
 10
1789.376394255876
 20
1107.627356150924
 30
0.0
 40
30.0
  1
1210 OPTIONAL SPRING MTG CTRS
100
AcDbText
  0
TEXT
  5
1787
330
1D18
100
AcDbEntity
  8
DIM
100
AcDbText
 10
1959.376394255876
 20
1169.650276091011
 30
0.0
 40
30.0
  1
1134 HANGING CTRS
100
AcDbText
  0
LINE
  5
17A7
330
1D18
100
AcDbEntity
  8
DIM
100
AcDbLine
 10
2834.676394255879
 20
716.7830775023087
 30
0.0
 11
2780.676394255878
 21
716.7830775023087
 31
0.0
  0
LINE
  5
17A8
330
1D18
100
AcDbEntity
  8
DIM
100
AcDbLine
 10
2834.676394255879
 20
704.7830775023087
 30
0.0
 11
2770.351394255879
 21
704.7830775023086
 31
0.0
  0
LINE
  5
17B2
330
1D18
100
AcDbEntity
  8
OUTLINE
100
AcDbLine
 10
3828.110182386911
 20
801.7830775023085
 30
0.0
 11
3766.110182386909
 21
801.7830775023085
 31
0.0
  0
LINE
  5
1A26
330
1D18
100
AcDbEntity
  8
DIM
100
AcDbLine
 10
2809.676394255877
 20
1902.096522454372
 30
0.0
 11
3004.230765222468
 21
1902.096522454372
 31
0.0
  0
LINE
  5
1A27
330
1D18
100
AcDbEntity
  8
DIM
100
AcDbLine
 10
2984.230765222469
 20
1932.096522454372
 30
0.0
 11
2984.230765222469
 21
1962.096522454372
 31
0.0
  0
SOLID
  5
1A28
330
1D18
100
AcDbEntity
  8
DIM
100
AcDbTrace
 10
2979.230765222468
 20
1932.096522454372
 30
0.0
 11
2989.230765222468
 21
1932.096522454372
 31
0.0
 12
2984.230765222469
 22
1902.096522454372
 32
0.0
 13
2984.230765222469
 23
1902.096522454372
 33
0.0
  0
TEXT
  5
1A29
330
1D18
100
AcDbEntity
  8
DIM
100
AcDbText
 10
2999.230765222468
 20
1982.096522454372
 30
0.0
 40
30.0
  1
36
 50
90.0
100
AcDbText
  0
LINE
  5
1A2A
330
1D18
100
AcDbEntity
  8
DIM
100
AcDbLine
 10
2809.676394255877
 20
1902.096522454372
 30
0.0
 11
2932.598134009931
 21
1902.096522454372
 31
0.0
  0
LINE
  5
1A2B
330
1D18
100
AcDbEntity
  8
DIM
100
AcDbLine
 10
2912.598134009931
 20
1932.096522454372
 30
0.0
 11
2912.598134009931
 21
1962.096522454372
 31
0.0
  0
SOLID
  5
1A2C
330
1D18
100
AcDbEntity
  8
DIM
100
AcDbTrace
 10
2907.598134009931
 20
1932.096522454372
 30
0.0
 11
2917.598134009931
 21
1932.096522454372
 31
0.0
 12
2912.598134009931
 22
1902.096522454372
 32
0.0
 13
2912.598134009931
 23
1902.096522454372
 33
0.0
  0
TEXT
  5
1A2D
330
1D18
100
AcDbEntity
  8
DIM
100
AcDbText
 10
2927.598134009931
 20
1982.096522454372
 30
0.0
 40
30.0
  1
56
 50
90.0
100
AcDbText
  0
LINE
  5
1B5D
330
1D18
100
AcDbEntity
  8
DIM
100
AcDbLine
 10
1645.076394255877
 20
1384.440735559124
 30
0.0
 11
1645.076394255877
 21
1164.650276091011
 31
0.0
  0
LINE
  5
1B60
330
1D18
100
AcDbEntity
  8
DIM
100
AcDbLine
 10
2778.676394255879
 20
1384.440735559124
 30
0.0
 11
2778.676394255879
 21
1164.650276091011
 31
0.0
  0
LINE
  5
1B61
330
1D18
100
AcDbEntity
  8
OUTLINE
100
AcDbLine
 10
2778.676394255879
 20
821.7830775023086
 30
0.0
 11
2778.676394255879
 21
811.7830775023088
 31
0.0
  0
LINE
  5
1B62
330
1D18
100
AcDbEntity
  8
OUTLINE
100
AcDbLine
 10
1645.076394255877
 20
821.7830775023086
 30
0.0
 11
1645.076394255877
 21
811.7830775023088
 31
0.0
  0
LINE
  5
1DA4
330
1D18
100
AcDbEntity
  8
OUTLINE
100
AcDbLine
 10
2470.67639425588
 20
1264.890735559124
 30
0.0
 11
2770.351394255879
 21
1264.890735559124
 31
0.0
  0
LINE
  5
1DA7
330
1D18
100
AcDbEntity
  8
DIM
100
AcDbLine
 10
2834.676394255879
 20
1362.790735559124
 30
0.0
 11
2770.351394255879
 21
1362.790735559124
 31
0.0
  0
LINE
  5
1DA8
330
1D18
100
AcDbEntity
  8
DIM
100
AcDbLine
 10
2770.351452544923
 20
1371.02680922817
 30
0.0
 11
2770.351394255879
 21
1264.890735559124
 31
0.0
  0
LINE
  5
1DAD
330
1D18
100
AcDbEntity
  8
DIM
100
AcDbLine
 10
2389.41839425588
 20
1264.890735559124
 30
0.0
 11
2389.41839425588
 21
1350.290735559123
 31
0.0
  0
LINE
  5
1DD4
330
1D18
100
AcDbEntity
  8
DIM
100
AcDbLine
 10
2768.676394255877
 20
1846.090737333958
 30
0.0
 11
2768.676394255877
 21
1902.090737333958
 31
0.0
  0
LINE
  5
1DD7
330
1D18
100
AcDbEntity
  8
DIM
100
AcDbLine
 10
1702.076394255876
 20
1934.690735559121
 30
0.0
 11
1702.076394255876
 21
1902.090737333958
 31
0.0
  0
LINE
  5
1DD8
330
1D18
100
AcDbEntity
  8
DIM
100
AcDbLine
 10
1702.076394255876
 20
1934.690735559122
 30
0.0
 11
2353.076394255876
 21
1934.690735559145
 31
0.0
  0
LINE
  5
1DD9
330
1D18
100
AcDbEntity
  8
DIM
100
AcDbLine
 10
2353.076394255876
 20
1934.690735559145
 30
0.0
 11
2353.076394255876
 21
1902.090737333958
 31
0.0
  0
LINE
  5
1DDB
330
1D18
100
AcDbEntity
  8
DIM
100
AcDbLine
 10
2780.676394255877
 20
779.7830775023086
 30
0.0
 11
2780.676394255877
 21
716.7830775023087
 31
0.0
  0
LINE
  5
1DDC
330
1D18
100
AcDbEntity
  8
DIM
100
AcDbLine
 10
2780.676394255877
 20
563.7830775023086
 30
0.0
 11
2770.351394255881
 21
563.7830775023084
 31
0.0
  0
LINE
  5
1DDD
330
1D18
100
AcDbEntity
  8
DIM
100
AcDbLine
 10
2470.67639425588
 20
730.7830775023088
 30
0.0
 11
2470.67639425588
 21
452.7830775023087
 31
0.0
  0
LINE
  5
1DDE
330
1D18
100
AcDbEntity
  8
DIM
100
AcDbLine
 10
2389.41839425588
 20
746.7830775023087
 30
0.0
 11
2389.41839425588
 21
546.7830775023088
 31
0.0
  0
LINE
  5
1DDF
330
1D18
100
AcDbEntity
  8
DIM
100
AcDbLine
 10
1719.416394255877
 20
746.7830775023086
 30
0.0
 11
1719.416394255877
 21
546.7830775023089
 31
0.0
  0
LINE
  5
1DE0
330
1D18
100
AcDbEntity
  8
DIM
100
AcDbLine
 10
1749.416394255876
 20
859.538779731916
 30
0.0
 11
1996.657727230811
 21
859.538779731916
 31
0.0
  0
LINE
  5
1DE1
330
1D18
100
AcDbEntity
  8
DIM
100
AcDbLine
 10
1634.076394255876
 20
816.7830775023086
 30
0.0
 11
1719.076394255876
 21
816.7830775023086
 31
0.0
  0
LINE
  5
1DE3
330
1D18
100
AcDbEntity
  8
DIM
100
AcDbLine
 10
1719.416394255876
 20
746.7830775023086
 30
0.0
 11
2389.41839425588
 21
746.7830775023086
 31
0.0
  0
LINE
  5
1DE4
330
1D18
100
AcDbEntity
  8
DIM
100
AcDbLine
 10
2768.676394255877
 20
816.7830775023086
 30
0.0
 11
2768.676394255877
 21
730.7830775023086
 31
0.0
  0
LINE
  5
1DEA
330
1D18
100
AcDbEntity
  8
DIM
100
AcDbLine
 10
2768.676394255877
 20
452.7830775023087
 30
0.0
 11
2768.676394255877
 21
417.7830775023086
 31
0.0
  0
LINE
  5
1DEB
330
1D18
100
AcDbEntity
  8
DIM
100
AcDbLine
 10
3158.11018238691
 20
730.7830775023086
 30
0.0
 11
3238.81018238691
 21
730.7830775023086
 31
0.0
  0
LINE
  5
1DEC
330
1D18
100
AcDbEntity
  8
DIM
100
AcDbLine
 10
3158.110182386909
 20
452.7830775023086
 30
0.0
 11
3243.510182386908
 21
452.7830775023087
 31
0.0
  0
LINE
  5
1DED
330
1D18
100
AcDbEntity
  8
DIM
  6
HIDDEN
100
AcDbLine
 10
3158.110182386909
 20
546.7830775023088
 30
0.0
 11
3243.510182386908
 21
546.7830775023088
 31
0.0
  0
LINE
  5
1DEE
330
1D18
100
AcDbEntity
  8
DIM
100
AcDbLine
 10
3158.11018238691
 20
746.7830775023086
 30
0.0
 11
3238.81018238691
 21
746.7830775023086
 31
0.0
  0
SOLID
  5
1E05
330
1D18
100
AcDbEntity
  8
DIM
100
AcDbTrace
 10
3110.681924010312
 20
578.783077502309
 30
0.0
 11
3120.681924010312
 21
578.783077502309
 31
0.0
 12
3115.68192401031
 22
548.783077502309
 32
0.0
 13
3115.68192401031
 23
548.783077502309
 33
0.0
  0
LINE
  5
1E06
330
1D18
100
AcDbEntity
  8
DIM
100
AcDbLine
 10
3115.681924010312
 20
578.783077502309
 30
0.0
 11
3115.681924010312
 21
681.6714508409034
 31
0.0
  0
LINE
  5
1E16
330
1D18
100
AcDbEntity
  8
DIM
100
AcDbLine
 10
3786.910182386908
 20
816.7830775023086
 30
0.0
 11
3698.910182386908
 21
816.7830775023086
 31
0.0
  0
LINE
  5
1E1F
330
1D18
100
AcDbEntity
  8
DIM
100
AcDbLine
 10
3786.910182386908
 20
836.7830775023088
 30
0.0
 11
3786.910182386908
 21
898.8776756258937
 31
0.0
  0
SOLID
  5
1E38
330
1D18
100
AcDbEntity
  8
DIM
100
AcDbTrace
 10
3861.023572455178
 20
476.8626060554397
 30
0.0
 11
3871.023572455178
 21
476.8626060554397
 31
0.0
 12
3866.023572455176
 22
446.8626060554397
 32
0.0
 13
3866.023572455176
 23
446.8626060554397
 33
0.0
  0
LINE
  5
1E39
330
1D18
100
AcDbEntity
  8
DIM
100
AcDbLine
 10
3866.023572455178
 20
476.8626060554397
 30
0.0
 11
3866.023572455178
 21
562.017216181649
 31
0.0
  0
LINE
  5
1E6E
330
1D18
100
AcDbEntity
  8
DIM
100
AcDbLine
 10
2780.676394255877
 20
704.7830775023087
 30
0.0
 11
2780.676394255877
 21
563.7830775023086
 31
0.0
  0
ENDSEC
  0
SECTION
  2
OBJECTS
  0
DICTIONARY
  5
1CEE
330
0
100
AcDbDictionary
281
     1
  3
ACAD_COLOR
350
1D11
  3
ACAD_GROUP
350
1CEF
  3
ACAD_LAYOUT
350
1D10
  3
ACAD_MATERIAL
350
1CF2
  3
ACAD_MLINESTYLE
350
1D0D
  3
ACAD_PLOTSETTINGS
350
1D0F
  3
ACAD_PLOTSTYLENAME
350
1CF0
  3
ACAD_TABLESTYLE
350
1D12
  3
ACAD_VISUALSTYLE
350
1CF6
  3
AcDbVariableDictionary
350
1D7F
  3
DWGPROPS
350
1E7C
  0
DICTIONARY
  5
1DA5
330
1D18
100
AcDbDictionary
280
     1
281
     1
  3
ACAD_SORTENTS
360
1DA6
  0
DICTIONARY
  5
1D11
102
{ACAD_REACTORS
330
1CEE
102
}
330
1CEE
100
AcDbDictionary
281
     1
  0
DICTIONARY
  5
1CEF
102
{ACAD_REACTORS
330
1CEE
102
}
330
1CEE
100
AcDbDictionary
281
     1
  0
DICTIONARY
  5
1D10
102
{ACAD_REACTORS
330
1CEE
102
}
330
1CEE
100
AcDbDictionary
281
     1
  3
Layout1
350
1D17
  3
Model
350
1D1B
  0
DICTIONARY
  5
1CF2
102
{ACAD_REACTORS
330
1CEE
102
}
330
1CEE
100
AcDbDictionary
281
     1
  3
ByBlock
350
1CF4
  3
ByLayer
350
1CF3
  3
Global
350
1CF5
  0
DICTIONARY
  5
1D0D
102
{ACAD_REACTORS
330
1CEE
102
}
330
1CEE
100
AcDbDictionary
281
     1
  3
Standard
350
1D0E
  0
DICTIONARY
  5
1D0F
102
{ACAD_REACTORS
330
1CEE
102
}
330
1CEE
100
AcDbDictionary
281
     1
  0
ACDBDICTIONARYWDFLT
  5
1CF0
102
{ACAD_REACTORS
330
1CEE
102
}
330
1CEE
100
AcDbDictionary
281
     1
  3
Normal
350
1CF1
100
AcDbDictionaryWithDefault
340
1CF1
  0
DICTIONARY
  5
1D12
102
{ACAD_REACTORS
330
1CEE
102
}
330
1CEE
100
AcDbDictionary
281
     1
  3
Standard
350
1D13
  0
DICTIONARY
  5
1CF6
102
{ACAD_REACTORS
330
1CEE
102
}
330
1CEE
100
AcDbDictionary
281
     1
  3
2dWireframe
350
1CFC
  3
3D Hidden
350
1CFE
  3
3dWireframe
350
1CFD
  3
Basic
350
1CFB
  3
Brighten
350
1D02
  3
ColorChange
350
1D06
  3
Conceptual
350
1CFF
  3
Dim
350
1D01
  3
Facepattern
350
1D05
  3
Flat
350
1CF7
  3
FlatWithEdges
350
1CF8
  3
Gouraud
350
1CF9
  3
GouraudWithEdges
350
1CFA
  3
Linepattern
350
1D04
  3
Realistic
350
1D00
  3
Thicken
350
1D03
  0
DICTIONARY
  5
1D7F
102
{ACAD_REACTORS
330
1CEE
102
}
330
1CEE
100
AcDbDictionary
281
     1
  3
CTABLESTYLE
350
1D80
  3
DIMASSOC
350
1D83
  3
INDEXCTL
350
1D82
  3
SORTENTS
350
1D81
  0
XRECORD
  5
1E7C
102
{ACAD_REACTORS
330
1CEE
102
}
330
1CEE
100
AcDbXrecord
280
     1
  1
DWGPROPS COOKIE
  2

  3

  4

  6

  7

  8
kthompson
  9

300
=
301
=
302
=
303
=
304
=
305
=
306
=
307
=
308
=
309
=
 40
0.8061450810185185
 41
2451409.611953009
 42
2454447.471140486
  1

 90
        0
  0
SORTENTSTABLE
  5
1DA6
102
{ACAD_REACTORS
330
1DA5
102
}
330
1DA5
100
AcDbSortentsTable
330
1D18
331
11D4
  5
11D6
331
FFF
  5
1000
331
1A2D
  5
1B5D
331
1029
  5
102A
331
105B
  5
105C
331
E5A
  5
E5A
331
10B7
  5
10B8
331
177A
  5
177B
331
11C3
  5
11C4
331
11E5
  5
11E6
331
146F
  5
1774
331
F94
  5
F94
331
EF0
  5
EF0
331
EBE
  5
EBE
331
E1D
  5
E1D
331
10A6
  5
10A8
331
ECF
  5
ECF
331
E9D
  5
E9D
331
DFC
  5
DFC
331
C59
  5
C59
331
B77
  5
B77
331
1118
  5
1119
331
1DD4
  5
1DD4
331
FFD
  5
FFE
331
1A2B
  5
1A2C
331
F69
  5
F69
331
1059
  5
105A
331
1027
  5
1028
331
E7A
  5
E7A
331
1107
  5
1108
331
17B2
  5
1A26
331
1778
  5
1779
331
146D
  5
146F
331
1082
  5
1083
331
1038
  5
1051
331
101E
  5
1021
331
F48
  5
F48
331
EBC
  5
EBC
331
E1B
  5
E1B
331
10A4
  5
10A5
331
ECD
  5
ECD
331
DFA
  5
DFA
331
B75
  5
B75
331
1A29
  5
1A2A
331
FFB
  5
FFC
331
FC9
  5
FC9
331
1025
  5
1026
331
1057
  5
1058
331
1776
  5
1777
331
10B3
  5
10B4
331
1B62
  5
1DA4
331
11BF
  5
11C0
331
1DE3
  5
1DE4
331
1036
  5
1037
331
146B
  5
146D
331
1091
  5
1093
331
E3E
  5
E3E
331
1080
  5
1081
331
E67
  5
E67
331
10A2
  5
10A3
331
1787
  5
17A7
331
F67
  5
F67
331
ECB
  5
ECB
331
E99
  5
E99
331
D9E
  5
D9E
331
B73
  5
B73
331
11F0
  5
1464
331
1055
  5
1056
331
1023
  5
1024
331
FF9
  5
FFA
331
10B1
  5
10B2
331
108F
  5
1090
331
1774
  5
1775
331
1DE1
  5
1DE3
331
1B60
  5
1B61
331
11BD
  5
11BE
331
107E
  5
107F
331
1034
  5
1035
331
F44
  5
F44
331
1114
  5
1115
331
1785
  5
1786
331
11CE
  5
11CF
331
1A27
  5
1A28
331
FC7
  5
FC7
331
F65
  5
F65
331
EC9
  5
EC9
331
E97
  5
E97
331
E76
  5
E76
331
1021
  5
1022
331
1053
  5
1054
331
1DDF
  5
1DE0
331
1101
  5
1102
331
10AF
  5
10B0
331
108D
  5
108E
331
DC3
  5
DC3
331
C49
  5
C49
331
107C
  5
107E
331
1032
  5
1033
331
109E
  5
109F
331
1112
  5
1114
331
1783
  5
1784
331
11EE
  5
11EF
331
FF7
  5
FF8
331
FC5
  5
FC5
331
F63
  5
F63
331
EC7
  5
EC7
331
E95
  5
E95
331
DDC
  5
DDC
331
B80
  5
B80
331
10AD
  5
10AF
331
1051
  5
1052
331
1DDD
  5
1DDE
331
F72
  5
F72
331
ED6
  5
ED6
331
B7E
  5
B7E
331
1030
  5
1031
331
107A
  5
107B
331
E61
  5
E61
331
1DEE
  5
1E05
331
1781
  5
1782
331
1110
  5
1111
331
11EC
  5
11ED
331
FC3
  5
FC3
331
EC5
  5
EC5
331
E93
  5
E93
331
DDA
  5
DDA
331
B6F
  5
B6F
331
1089
  5
108A
331
1E16
  5
1E1F
331
1E38
  5
1E39
331
1DDB
  5
1DDB
331
17A8
  5
17AD
331
1004
  5
1005
331
F70
  5
F70
331
ED4
  5
ED4
331
10AB
  5
10AC
331
109A
  5
109B
331
102E
  5
102F
331
1E05
  5
1E06
331
1DEC
  5
1DED
331
1DA8
  5
1DA8
331
177F
  5
1780
331
110E
  5
110F
331
11EA
  5
11EB
331
EC3
  5
EC3
331
E22
  5
E22
331
DAF
  5
DAF
331
B7C
  5
B7C
331
10A9
  5
10AA
331
1DD9
  5
1DD9
331
11D7
  5
11DE
331
1002
  5
1003
331
F6E
  5
F6E
331
F0C
  5
F0C
331
ED2
  5
ED2
331
1DEA
  5
1DEB
331
177D
  5
177E
331
10BA
  5
10BB
331
1098
  5
109A
331
105E
  5
1079
331
102C
  5
102D
331
11E8
  5
11E9
331
11C6
  5
11C7
331
1087
  5
1088
331
E6E
  5
E6E
331
DFF
  5
DFF
331
B7A
  5
B7A
331
1DD7
  5
1DD7
331
1000
  5
1001
331
ED0
  5
ED0
331
102A
  5
102B
331
1096
  5
1097
331
105C
  5
105D
331
10B8
  5
10B9
331
177B
  5
177C
331
110A
  5
110B
331
11C4
  5
11C5
331
1DA4
  5
FEA
331
11E6
  5
11E7
331
F95
  5
F95
331
EF1
  5
EF1
331
EBF
  5
EBF
331
E5B
  5
E5B
331
DFD
  5
DFD
331
B78
  5
B78
331
11D3
  5
11D4
331
1A2C
  5
1A2D
331
FFE
  5
FFF
331
FCC
  5
FCC
331
F6A
  5
F6A
331
1E6E
  5
1DDC
331
1028
  5
1029
331
1094
  5
1095
331
105A
  5
105B
331
E59
  5
E59
331
10B6
  5
10B7
331
1108
  5
1109
331
1779
  5
177A
331
1083
  5
1085
331
F93
  5
F93
331
F49
  5
F49
331
EEF
  5
EEF
331
EBD
  5
EBD
331
E1C
  5
E1C
331
ECE
  5
ECE
331
10A5
  5
10A6
331
B76
  5
B76
331
11D1
  5
11D2
331
1A2A
  5
1A2B
331
FFC
  5
FFD
331
FCA
  5
FCA
331
F68
  5
F68
331
1026
  5
1027
331
1058
  5
1059
331
1106
  5
1107
331
10B4
  5
10B6
331
1E1F
  5
1E38
331
1777
  5
1778
331
1DE4
  5
1DEA
331
11C0
  5
11C2
331
1037
  5
1038
331
F47
  5
F47
331
E79
  5
E79
331
1081
  5
1082
331
E68
  5
E68
331
E3F
  5
E3F
331
10A3
  5
10A4
331
ECC
  5
ECC
331
E9A
  5
E9A
331
B74
  5
B74
331
1A28
  5
1A29
331
FFA
  5
FFB
331
FC8
  5
FC8
331
1024
  5
1025
331
1056
  5
1057
331
1775
  5
1776
331
1104
  5
1106
331
10B2
  5
10B3
331
1B61
  5
1B62
331
1035
  5
1036
331
11BE
  5
11BF
331
E77
  5
E77
331
107F
  5
1080
331
10A1
  5
10A2
331
1115
  5
1116
331
1786
  5
1787
331
11CF
  5
11D0
331
F66
  5
F66
331
ECA
  5
ECA
331
E98
  5
E98
331
E66
  5
E66
331
E3D
  5
E3D
331
B72
  5
B72
331
FF8
  5
FF9
331
1054
  5
1055
331
1022
  5
1023
331
11BC
  5
11BD
331
1102
  5
1103
331
10B0
  5
10B1
331
108E
  5
108F
331
1DE0
  5
1DE1
331
1468
  5
146B
331
11DE
  5
11E5
331
E75
  5
E75
331
1033
  5
1034
331
109F
  5
10A1
331
1784
  5
1785
331
1DAD
  5
1DAD
331
11CD
  5
11CE
331
1A26
  5
1A27
331
11EF
  5
11F0
331
FC6
  5
FC6
331
F64
  5
F64
331
EC8
  5
EC8
331
E96
  5
E96
331
DDD
  5
DDD
331
B81
  5
B81
331
B70
  5
B70
331
1052
  5
1053
331
1100
  5
1101
331
108C
  5
108D
331
1DDE
  5
1DDF
331
1B5D
  5
1B60
331
F73
  5
F73
331
E73
  5
E73
331
107B
  5
107C
331
1031
  5
1032
331
109D
  5
109E
331
1782
  5
1783
331
11ED
  5
11EE
331
FF6
  5
FF7
331
FC4
  5
FC4
331
F62
  5
F62
331
EC6
  5
EC6
331
E94
  5
E94
331
DDB
  5
DDB
331
B7F
  5
B7F
331
10AC
  5
10AD
331
108A
  5
108C
331
1E39
  5
1E6E
331
1DDC
  5
1DDD
331
1464
  5
1466
331
1005
  5
101E
331
F71
  5
F71
331
ED5
  5
ED5
331
109B
  5
109C
331
1079
  5
107A
331
102F
  5
1030
331
1E06
  5
1E16
331
1DED
  5
1DEE
331
1780
  5
1781
331
110F
  5
1110
331
11EB
  5
11EC
331
EC4
  5
EC4
331
E23
  5
E23
331
B7D
  5
B7D
331
1088
  5
1089
331
10AA
  5
10AB
331
17A7
  5
17A8
331
1003
  5
1004
331
FD1
  5
FD1
331
F6F
  5
F6F
331
F0D
  5
F0D
331
ED3
  5
ED3
331
E00
  5
E00
331
102D
  5
102E
331
1DEB
  5
1DEC
331
177E
  5
177F
331
10BB
  5
10FF
331
1DA7
  5
1DA7
331
11E9
  5
11EA
331
11C7
  5
11CD
331
EC2
  5
EC2
331
E6F
  5
E6F
331
DD7
  5
DD7
331
B7B
  5
B7B
331
10A8
  5
10A9
331
11D6
  5
11D7
331
1DD8
  5
1DD8
331
1001
  5
1002
331
FCF
  5
FCF
331
F6D
  5
F6D
331
ED1
  5
ED1
331
102B
  5
102C
331
105D
  5
105E
331
177C
  5
177D
331
11C5
  5
11C6
331
11E7
  5
11E8
331
F96
  5
F96
331
EF2
  5
EF2
331
EC0
  5
EC0
331
E5C
  5
E5C
331
1086
  5
1087
331
E9F
  5
E9F
331
C1A
  5
C1A
331
B79
  5
B79
  0
LAYOUT
  5
1D17
102
{ACAD_XDICTIONARY
360
1E85
102
}
102
{ACAD_REACTORS
330
1D10
102
}
330
1D10
100
AcDbPlotSettings
  1

  2
RICOH Aficio 2228C PCL 5c
  4

  6

 40
0.0
 41
0.0
 42
0.0
 43
0.0
 44
0.0
 45
0.0
 46
0.0
 47
0.0
 48
0.0
 49
0.0
140
0.0
141
0.0
142
1.0
143
1.0
 70
   688
 72
     0
 73
     0
 74
     5
  7

 75
    16
147
1.0
148
0.0
149
0.0
100
AcDbLayout
  1
Layout1
 70
     0
 71
     1
 10
0.0
 20
0.0
 11
12.0
 21
9.0
 12
0.0
 22
0.0
 32
0.0
 14
1.000000000000000E+20
 24
1.000000000000000E+20
 34
1.000000000000000E+20
 15
-1.000000000000000E+20
 25
-1.000000000000000E+20
 35
-1.000000000000000E+20
146
0.0
 13
0.0
 23
0.0
 33
0.0
 16
1.0
 26
0.0
 36
0.0
 17
0.0
 27
1.0
 37
0.0
 76
     0
330
1D14
  0
LAYOUT
  5
1D1B
102
{ACAD_XDICTIONARY
360
1E87
102
}
102
{ACAD_REACTORS
330
1D10
102
}
330
1D10
100
AcDbPlotSettings
  1

  2
RICOH Aficio 2228C PCL 5c
  4

  6

 40
0.0
 41
0.0
 42
0.0
 43
0.0
 44
0.0
 45
0.0
 46
0.0
 47
0.0
 48
0.0
 49
0.0
140
0.0
141
0.0
142
1.0
143
1.0
 70
  1712
 72
     0
 73
     0
 74
     0
  7

 75
     0
147
1.0
148
0.0
149
0.0
100
AcDbLayout
  1
Model
 70
     1
 71
     0
 10
0.0
 20
0.0
 11
12.0
 21
9.0
 12
0.0
 22
0.0
 32
0.0
 14
0.0
 24
0.0
 34
0.0
 15
0.0
 25
0.0
 35
0.0
146
0.0
 13
0.0
 23
0.0
 33
0.0
 16
1.0
 26
0.0
 36
0.0
 17
0.0
 27
1.0
 37
0.0
 76
     0
330
1D18
331
1D1E
  0
MATERIAL
  5
1CF4
102
{ACAD_XDICTIONARY
360
1E7F
102
}
102
{ACAD_REACTORS
330
1CF2
102
}
330
1CF2
100
AcDbMaterial
  1
ByBlock
  0
MATERIAL
  5
1CF3
102
{ACAD_XDICTIONARY
360
1E7D
102
}
102
{ACAD_REACTORS
330
1CF2
102
}
330
1CF2
100
AcDbMaterial
  1
ByLayer
  0
MATERIAL
  5
1CF5
102
{ACAD_XDICTIONARY
360
1E81
102
}
102
{ACAD_REACTORS
330
1CF2
102
}
330
1CF2
100
AcDbMaterial
  1
Global
  0
MLINESTYLE
  5
1D0E
102
{ACAD_REACTORS
330
1D0D
102
}
330
1D0D
100
AcDbMlineStyle
  2
STANDARD
 70
     0
  3

 62
   256
 51
90.0
 52
90.0
 71
     2
 49
0.5
 62
   256
  6
BYLAYER
 49
-0.5
 62
   256
  6
BYLAYER
  0
ACDBPLACEHOLDER
  5
1CF1
102
{ACAD_REACTORS
330
1CF0
102
}
330
1CF0
  0
TABLESTYLE
  5
1D13
102
{ACAD_XDICTIONARY
360
1E83
102
}
102
{ACAD_REACTORS
330
1D12
102
}
330
1D12
100
AcDbTableStyle
  3
Standard
 70
     0
 71
     0
 40
0.06
 41
0.06
280
     0
281
     0
  7
STANDARD
140
0.18
170
     2
 62
     0
 63
     7
283
     0
274
    -2
284
     1
 64
     0
275
    -2
285
     1
 65
     0
276
    -2
286
     1
 66
     0
277
    -2
287
     1
 67
     0
278
    -2
288
     1
 68
     0
279
    -2
289
     1
 69
     0
  7
STANDARD
140
0.25
170
     5
 62
     0
 63
     7
283
     0
274
    -2
284
     1
 64
     0
275
    -2
285
     1
 65
     0
276
    -2
286
     1
 66
     0
277
    -2
287
     1
 67
     0
278
    -2
288
     1
 68
     0
279
    -2
289
     1
 69
     0
  7
STANDARD
140
0.18
170
     5
 62
     0
 63
     7
283
     0
274
    -2
284
     1
 64
     0
275
    -2
285
     1
 65
     0
276
    -2
286
     1
 66
     0
277
    -2
287
     1
 67
     0
278
    -2
288
     1
 68
     0
279
    -2
289
     1
 69
     0
  0
VISUALSTYLE
  5
1CFC
102
{ACAD_REACTORS
330
1CF6
102
}
330
1CF6
100
AcDbVisualStyle
  2
2dWireframe
 70
     4
 71
     0
 72
     2
 73
     0
 90
        0
 40
-0.6
 41
-30.0
 62
     5
 63
     7
 74
     1
 91
        4
 64
     7
 65
   257
 75
     1
175
     1
 42
1.0
 92
        0
 66
   257
 43
1.0
 76
     1
 77
     6
 78
     2
 67
     7
 79
     5
170
     0
171
     0
290
     0
174
     0
 93
        1
 44
0.0
173
     0
291
     0
 45
0.0
1001
ACAD
1000
AcDbSavedByObjectVersion
1070
     0
  0
VISUALSTYLE
  5
1CFE
102
{ACAD_REACTORS
330
1CF6
102
}
330
1CF6
100
AcDbVisualStyle
  2
3D Hidden
 70
     6
 71
     1
 72
     2
 73
     2
 90
        0
 40
-0.6
 41
-30.0
 62
     5
 63
     7
 74
     2
 91
        2
 64
     7
 65
   257
 75
     2
175
     1
 42
40.0
 92
        0
 66
   257
 43
1.0
 76
     1
 77
     6
 78
     2
 67
     7
 79
     3
170
     0
171
     0
290
     0
174
     0
 93
        1
 44
0.0
173
     0
291
     0
 45
0.0
1001
ACAD
1000
AcDbSavedByObjectVersion
1070
     0
  0
VISUALSTYLE
  5
1CFD
102
{ACAD_REACTORS
330
1CF6
102
}
330
1CF6
100
AcDbVisualStyle
  2
3dWireframe
 70
     5
 71
     0
 72
     2
 73
     0
 90
        0
 40
-0.6
 41
-30.0
 62
     5
 63
     7
 74
     1
 91
        4
 64
     7
 65
   257
 75
     1
175
     1
 42
1.0
 92
        0
 66
   257
 43
1.0
 76
     1
 77
     6
 78
     2
 67
     7
 79
     5
170
     0
171
     0
290
     0
174
     0
 93
        1
 44
0.0
173
     0
291
     0
 45
0.0
1001
ACAD
1000
AcDbSavedByObjectVersion
1070
     0
  0
VISUALSTYLE
  5
1CFB
102
{ACAD_REACTORS
330
1CF6
102
}
330
1CF6
100
AcDbVisualStyle
  2
Basic
 70
     7
 71
     1
 72
     0
 73
     1
 90
        0
 40
-0.6
 41
-30.0
 62
     5
 63
     7
 74
     0
 91
        4
 64
     7
 65
   257
 75
     1
175
     1
 42
1.0
 92
        8
 66
     7
 43
1.0
 76
     1
 77
     6
 78
     2
 67
     7
 79
     5
170
     0
171
     0
290
     0
174
     0
 93
        1
 44
0.0
173
     0
291
     1
 45
0.0
1001
ACAD
1000
AcDbSavedByObjectVersion
1070
     0
  0
VISUALSTYLE
  5
1D02
102
{ACAD_REACTORS
330
1CF6
102
}
330
1CF6
100
AcDbVisualStyle
  2
Brighten
 70
    12
 71
     2
 72
     2
 73
     0
 90
        0
 40
-0.6
 41
-30.0
 62
     5
 63
     7
 74
     1
 91
        4
 64
     7
 65
   257
 75
     1
175
     1
 42
1.0
 92
        8
 66
     7
 43
1.0
 76
     1
 77
     6
 78
     2
 67
     7
 79
     5
170
     0
171
     0
290
     0
174
     0
 93
        1
 44
50.0
173
     0
291
     1
 45
0.0
1001
ACAD
1000
AcDbSavedByObjectVersion
1070
     0
  0
VISUALSTYLE
  5
1D06
102
{ACAD_REACTORS
330
1CF6
102
}
330
1CF6
100
AcDbVisualStyle
  2
ColorChange
 70
    16
 71
     2
 72
     2
 73
     3
 90
        0
 40
-0.6
 41
-30.0
 62
     5
 63
     8
 74
     1
 91
        4
 64
     7
 65
   257
 75
     1
175
     1
 42
1.0
 92
        8
 66
     8
 43
1.0
 76
     1
 77
     6
 78
     2
 67
     7
 79
     5
170
     0
171
     0
290
     0
174
     0
 93
        1
 44
0.0
173
     0
291
     1
 45
0.0
1001
ACAD
1000
AcDbSavedByObjectVersion
1070
     0
  0
VISUALSTYLE
  5
1CFF
102
{ACAD_REACTORS
330
1CF6
102
}
330
1CF6
100
AcDbVisualStyle
  2
Conceptual
 70
     9
 71
     3
 72
     2
 73
     0
 90
        0
 40
-0.6
 41
-30.0
 62
     5
 63
     7
 74
     2
 91
        2
 64
     7
 65
   257
 75
     1
175
     1
 42
40.0
 92
        8
 66
     7
 43
1.0
 76
     1
 77
     6
 78
     2
 67
     7
 79
     3
170
     0
171
     0
290
     0
174
     0
 93
        1
 44
0.0
173
     0
291
     0
 45
0.0
1001
ACAD
1000
AcDbSavedByObjectVersion
1070
     0
  0
VISUALSTYLE
  5
1D01
102
{ACAD_REACTORS
330
1CF6
102
}
330
1CF6
100
AcDbVisualStyle
  2
Dim
 70
    11
 71
     2
 72
     2
 73
     0
 90
        0
 40
-0.6
 41
-30.0
 62
     5
 63
     7
 74
     1
 91
        4
 64
     7
 65
   257
 75
     1
175
     1
 42
1.0
 92
        8
 66
     7
 43
1.0
 76
     1
 77
     6
 78
     2
 67
     7
 79
     5
170
     0
171
     0
290
     0
174
     0
 93
        1
 44
-50.0
173
     0
291
     1
 45
0.0
1001
ACAD
1000
AcDbSavedByObjectVersion
1070
     0
  0
VISUALSTYLE
  5
1D05
102
{ACAD_REACTORS
330
1CF6
102
}
330
1CF6
100
AcDbVisualStyle
  2
Facepattern
 70
    15
 71
     2
 72
     2
 73
     0
 90
        0
 40
-0.6
 41
-30.0
 62
     5
 63
     7
 74
     1
 91
        4
 64
     7
 65
   257
 75
     1
175
     1
 42
1.0
 92
        8
 66
     7
 43
1.0
 76
     1
 77
     6
 78
     2
 67
     7
 79
     5
170
     0
171
     0
290
     0
174
     0
 93
        1
 44
0.0
173
     0
291
     1
 45
0.0
1001
ACAD
1000
AcDbSavedByObjectVersion
1070
     0
  0
VISUALSTYLE
  5
1CF7
102
{ACAD_REACTORS
330
1CF6
102
}
330
1CF6
100
AcDbVisualStyle
  2
Flat
 70
     0
 71
     2
 72
     1
 73
     1
 90
        2
 40
-0.6
 41
30.0
 62
     5
 63
     7
 74
     0
 91
        4
 64
     7
 65
   257
 75
     1
175
     1
 42
1.0
 92
        8
 66
     7
 43
1.0
 76
     1
 77
     6
 78
     2
 67
     7
 79
     5
170
     0
171
     0
290
     0
174
     0
 93
       13
 44
0.0
173
     0
291
     1
 45
0.0
1001
ACAD
1000
AcDbSavedByObjectVersion
1070
     0
  0
VISUALSTYLE
  5
1CF8
102
{ACAD_REACTORS
330
1CF6
102
}
330
1CF6
100
AcDbVisualStyle
  2
FlatWithEdges
 70
     1
 71
     2
 72
     1
 73
     1
 90
        2
 40
-0.6
 41
30.0
 62
     5
 63
     7
 74
     1
 91
        4
 64
     7
 65
   257
 75
     1
175
     1
 42
1.0
 92
        0
 66
   257
 43
1.0
 76
     1
 77
     6
 78
     2
 67
     7
 79
     5
170
     0
171
     0
290
     0
174
     0
 93
       13
 44
0.0
173
     0
291
     1
 45
0.0
1001
ACAD
1000
AcDbSavedByObjectVersion
1070
     0
  0
VISUALSTYLE
  5
1CF9
102
{ACAD_REACTORS
330
1CF6
102
}
330
1CF6
100
AcDbVisualStyle
  2
Gouraud
 70
     2
 71
     2
 72
     2
 73
     1
 90
        2
 40
-0.6
 41
30.0
 62
     5
 63
     7
 74
     0
 91
        4
 64
     7
 65
   257
 75
     1
175
     1
 42
1.0
 92
        0
 66
     7
 43
1.0
 76
     1
 77
     6
 78
     2
 67
     7
 79
     5
170
     0
171
     0
290
     0
174
     0
 93
       13
 44
0.0
173
     0
291
     1
 45
0.0
1001
ACAD
1000
AcDbSavedByObjectVersion
1070
     0
  0
VISUALSTYLE
  5
1CFA
102
{ACAD_REACTORS
330
1CF6
102
}
330
1CF6
100
AcDbVisualStyle
  2
GouraudWithEdges
 70
     3
 71
     2
 72
     2
 73
     1
 90
        2
 40
-0.6
 41
30.0
 62
     5
 63
     7
 74
     1
 91
        4
 64
     7
 65
   257
 75
     1
175
     1
 42
1.0
 92
        0
 66
   257
 43
1.0
 76
     1
 77
     6
 78
     2
 67
     7
 79
     5
170
     0
171
     0
290
     0
174
     0
 93
       13
 44
0.0
173
     0
291
     1
 45
0.0
1001
ACAD
1000
AcDbSavedByObjectVersion
1070
     0
  0
VISUALSTYLE
  5
1D04
102
{ACAD_REACTORS
330
1CF6
102
}
330
1CF6
100
AcDbVisualStyle
  2
Linepattern
 70
    14
 71
     2
 72
     2
 73
     0
 90
        0
 40
-0.6
 41
-30.0
 62
     5
 63
     7
 74
     1
 91
        4
 64
     7
 65
   257
 75
     7
175
     7
 42
1.0
 92
        8
 66
     7
 43
1.0
 76
     1
 77
     6
 78
     2
 67
     7
 79
     5
170
     0
171
     0
290
     0
174
     0
 93
        1
 44
0.0
173
     0
291
     1
 45
0.0
1001
ACAD
1000
AcDbSavedByObjectVersion
1070
     0
  0
VISUALSTYLE
  5
1D00
102
{ACAD_REACTORS
330
1CF6
102
}
330
1CF6
100
AcDbVisualStyle
  2
Realistic
 70
     8
 71
     2
 72
     2
 73
     0
 90
        0
 40
-0.6
 41
-30.0
 62
     5
 63
     7
 74
     1
 91
        0
 64
     7
 65
   257
 75
     1
175
     1
 42
1.0
 92
        8
 66
     8
 43
1.0
 76
     1
 77
     6
 78
     2
 67
     7
 79
     5
170
     0
171
     0
290
     0
174
     0
 93
       13
 44
0.0
173
     0
291
     0
 45
0.0
1001
ACAD
1000
AcDbSavedByObjectVersion
1070
     0
  0
VISUALSTYLE
  5
1D03
102
{ACAD_REACTORS
330
1CF6
102
}
330
1CF6
100
AcDbVisualStyle
  2
Thicken
 70
    13
 71
     2
 72
     2
 73
     0
 90
        0
 40
-0.6
 41
-30.0
 62
     5
 63
     7
 74
     1
 91
        4
 64
     7
 65
   257
 75
     1
175
     1
 42
1.0
 92
       12
 66
     7
 43
1.0
 76
     1
 77
     6
 78
     2
 67
     7
 79
     5
170
     0
171
     0
290
     0
174
     0
 93
        1
 44
0.0
173
     0
291
     1
 45
0.0
1001
ACAD
1000
AcDbSavedByObjectVersion
1070
     0
  0
DICTIONARYVAR
  5
1D80
102
{ACAD_REACTORS
330
1D7F
102
}
330
1D7F
100
DictionaryVariables
280
     0
  1
STANDARD
  0
DICTIONARYVAR
  5
1D83
102
{ACAD_REACTORS
330
1D7F
102
}
330
1D7F
100
DictionaryVariables
280
     0
  1
0
  0
DICTIONARYVAR
  5
1D82
102
{ACAD_REACTORS
330
1D7F
102
}
330
1D7F
100
DictionaryVariables
280
     0
  1
0
  0
DICTIONARYVAR
  5
1D81
102
{ACAD_REACTORS
330
1D7F
102
}
330
1D7F
100
DictionaryVariables
280
     0
  1
127
  0
DICTIONARY
  5
1E85
330
1D17
100
AcDbDictionary
280
     1
281
     1
  3
ACAD_XREC_ROUNDTRIP
360
1E86
  0
DICTIONARY
  5
1E87
330
1D1B
100
AcDbDictionary
280
     1
281
     1
  3
ACAD_XREC_ROUNDTRIP
360
1E88
  0
DICTIONARY
  5
1E7F
330
1CF4
100
AcDbDictionary
280
     1
281
     1
  3
ACAD_XREC_ROUNDTRIP
360
1E80
  0
DICTIONARY
  5
1E7D
330
1CF3
100
AcDbDictionary
280
     1
281
     1
  3
ACAD_XREC_ROUNDTRIP
360
1E7E
  0
DICTIONARY
  5
1E81
330
1CF5
100
AcDbDictionary
280
     1
281
     1
  3
ACAD_XREC_ROUNDTRIP
360
1E82
  0
DICTIONARY
  5
1E83
330
1D13
100
AcDbDictionary
280
     1
281
     1
  3
ACAD_XREC_ROUNDTRIP
360
1E84
  0
XRECORD
  5
1E86
102
{ACAD_REACTORS
330
1E85
102
}
330
1E85
100
AcDbXrecord
280
     1
102
SHADEPLOT
 70
     0
102
SHADEPLOTRESLEVEL
 70
     2
102
SHADEPLOTCUSTOMDPI
 70
   300
  0
XRECORD
  5
1E88
102
{ACAD_REACTORS
330
1E87
102
}
330
1E87
100
AcDbXrecord
280
     1
102
SHADEPLOT
 70
     0
102
SHADEPLOTRESLEVEL
 70
     2
102
SHADEPLOTCUSTOMDPI
 70
   300
  0
XRECORD
  5
1E80
102
{ACAD_REACTORS
330
1E7F
102
}
330
1E7F
100
AcDbXrecord
280
     1
102
MATERIAL
148
0.0
149
0.0
149
0.0
 93
        0
 94
       63
282
     0
 72
     1
 77
     1
171
     1
175
     1
179
     1
273
     0
  0
XRECORD
  5
1E7E
102
{ACAD_REACTORS
330
1E7D
102
}
330
1E7D
100
AcDbXrecord
280
     1
102
MATERIAL
148
0.0
149
0.0
149
0.0
 93
        0
 94
       63
282
     0
 72
     1
 77
     1
171
     1
175
     1
179
     1
273
     0
  0
XRECORD
  5
1E82
102
{ACAD_REACTORS
330
1E81
102
}
330
1E81
100
AcDbXrecord
280
     1
102
MATERIAL
148
0.0
149
0.0
149
0.0
 93
        0
 94
       63
282
     0
 72
     1
 77
     1
171
     1
175
     1
179
     1
273
     0
  0
XRECORD
  5
1E84
102
{ACAD_REACTORS
330
1E83
102
}
330
1E83
100
AcDbXrecord
280
     1
102
ACAD_ROUNDTRIP_PRE2007_TABLESTYLE
 90
      512
 91
        0
  1

 92
      512
 93
        0
  2

 94
      512
 95
        0
  3

  0
ENDSEC
  0
EOF
