  0
SECTION
  2
HEADER
  9
$ACADVER
  1
AC1009
  9
$INSBASE
 10
0.0
 20
0.0
 30
0.0
  9
$EXTMIN
 10
1166.7329972213281
 20
0.0
 30
0.0
  9
$EXTMAX
 10
3890.0
 20
2660.0
 30
0.0
  9
$LIMMIN
 10
0.0
 20
0.0
  9
$LIMMAX
 10
3890.0
 20
2660.0
  9
$ORTHOMODE
 70
     1
  9
$REGENMODE
 70
     1
  9
$FILLMODE
 70
     1
  9
$QTEXTMODE
 70
     0
  9
$MIRRTEXT
 70
     0
  9
$DRAGMODE
 70
     2
  9
$LTSCALE
 40
100.0
  9
$OSMODE
 70
     0
  9
$ATTMODE
 70
     1
  9
$TEXTSIZE
 40
30.0
  9
$TRACEWID
 40
0.05
  9
$TEXTSTYLE
  7
TITLE3
  9
$CLAYER
  8
DIM
  9
$CELTYPE
  6
BYLAYER
  9
$CECOLOR
 62
   256
  9
$DIMSCALE
 40
1.0
  9
$DIMASZ
 40
0.12
  9
$DIMEXO
 40
0.05
  9
$DIMDLI
 40
0.5
  9
$DIMRND
 40
0.0
  9
$DIMDLE
 40
0.0
  9
$DIMEXE
 40
0.1
  9
$DIMTP
 40
0.1
  9
$DIMTM
 40
0.1
  9
$DIMTXT
 40
0.12
  9
$DIMCEN
 40
0.0
  9
$DIMTSZ
 40
0.0
  9
$DIMTOL
 70
     0
  9
$DIMLIM
 70
     0
  9
$DIMTIH
 70
     1
  9
$DIMTOH
 70
     1
  9
$DIMSE1
 70
     0
  9
$DIMSE2
 70
     0
  9
$DIMTAD
 70
     0
  9
$DIMZIN
 70
     7
  9
$DIMBLK
  1

  9
$DIMASO
 70
     0
  9
$DIMSHO
 70
     0
  9
$DIMPOST
  1

  9
$DIMAPOST
  1
mm
  9
$DIMALT
 70
     0
  9
$DIMALTD
 70
     2
  9
$DIMALTF
 40
25.399999999999999
  9
$DIMLFAC
 40
1.0
  9
$DIMTOFL
 70
     0
  9
$DIMTVP
 40
0.0
  9
$DIMTIX
 70
     0
  9
$DIMSOXD
 70
     0
  9
$DIMSAH
 70
     0
  9
$DIMBLK1
  1

  9
$DIMBLK2
  1

  9
$DIMSTYLE
  2
AM_ANSI
  9
$DIMCLRD
 70
   256
  9
$DIMCLRE
 70
   256
  9
$DIMCLRT
 70
     2
  9
$DIMTFAC
 40
0.71
  9
$DIMGAP
 40
0.06
  9
$LUNITS
 70
     2
  9
$LUPREC
 70
     2
  9
$SKETCHINC
 40
0.1
  9
$FILLETRAD
 40
0.0
  9
$AUNITS
 70
     0
  9
$AUPREC
 70
     2
  9
$MENU
  1
\acad12\support\cnc
  9
$ELEVATION
 40
0.0
  9
$PELEVATION
 40
0.0
  9
$THICKNESS
 40
0.0
  9
$LIMCHECK
 70
     0
  9
$BLIPMODE
 70
     0
  9
$CHAMFERA
 40
0.0
  9
$CHAMFERB
 40
0.0
  9
$SKPOLY
 70
     0
  9
$TDCREATE
 40
2451400.3099162038
  9
$TDUPDATE
 40
2454699.4945592359
  9
$TDINDWG
 40
0.8047041898
  9
$TDUSRTIMER
 40
0.8047040162
  9
$USRTIMER
 70
     1
  9
$ANGBASE
 50
0.0
  9
$ANGDIR
 70
     0
  9
$PDMODE
 70
     2
  9
$PDSIZE
 40
10.0
  9
$PLINEWID
 40
0.0
  9
$COORDS
 70
     1
  9
$SPLFRAME
 70
     0
  9
$SPLINETYPE
 70
     6
  9
$SPLINESEGS
 70
     8
  9
$ATTDIA
 70
     1
  9
$ATTREQ
 70
     1
  9
$HANDLING
 70
     1
  9
$HANDSEED
  5
E60
  9
$SURFTAB1
 70
     6
  9
$SURFTAB2
 70
     6
  9
$SURFTYPE
 70
     6
  9
$SURFU
 70
     6
  9
$SURFV
 70
     6
  9
$UCSNAME
  2

  9
$UCSORG
 10
0.0
 20
0.0
 30
0.0
  9
$UCSXDIR
 10
1.0
 20
0.0
 30
0.0
  9
$UCSYDIR
 10
0.0
 20
1.0
 30
0.0
  9
$PUCSNAME
  2

  9
$PUCSORG
 10
0.0
 20
0.0
 30
0.0
  9
$PUCSXDIR
 10
1.0
 20
0.0
 30
0.0
  9
$PUCSYDIR
 10
0.0
 20
1.0
 30
0.0
  9
$USERI1
 70
     0
  9
$USERI2
 70
     0
  9
$USERI3
 70
     0
  9
$USERI4
 70
     0
  9
$USERI5
 70
     0
  9
$USERR1
 40
0.0
  9
$USERR2
 40
0.0
  9
$USERR3
 40
0.0
  9
$USERR4
 40
0.0
  9
$USERR5
 40
0.0
  9
$WORLDVIEW
 70
     1
  9
$SHADEDGE
 70
     3
  9
$SHADEDIF
 70
    70
  9
$TILEMODE
 70
     1
  9
$MAXACTVP
 70
    16
  9
$PLIMCHECK
 70
     0
  9
$PEXTMIN
 10
1.0000000000000000E+020
 20
1.0000000000000000E+020
 30
1.0000000000000000E+020
  9
$PEXTMAX
 10
-1.0000000000000000E+020
 20
-1.0000000000000000E+020
 30
-1.0000000000000000E+020
  9
$PLIMMIN
 10
0.0
 20
0.0
  9
$PLIMMAX
 10
12.0
 20
9.0
  9
$UNITMODE
 70
     0
  9
$VISRETAIN
 70
     0
  9
$PLINEGEN
 70
     0
  9
$PSLTSCALE
 70
     0
  0
ENDSEC
  0
SECTION
  2
TABLES
  0
TABLE
  2
VPORT
 70
     1
  0
VPORT
  2
*ACTIVE
 70
     0
 10
0.0
 20
0.0
 11
1.0
 21
1.0
 12
2577.4401554078559
 22
1415.063504111238
 13
0.0
 23
0.0
 14
25.0
 24
25.0
 15
100.0
 25
100.0
 16
0.0
 26
0.0
 36
1.0
 17
0.0
 27
0.0
 37
0.0
 40
2859.5262067026938
 41
1.5308953341740219
 42
50.0
 43
0.0
 44
0.0
 50
0.0
 51
0.0
 71
     0
 72
   100
 73
     1
 74
     0
 75
     0
 76
     0
 77
     0
 78
     0
  0
ENDTAB
  0
TABLE
  2
LTYPE
 70
    17
  0
LTYPE
  2
CONTINUOUS
 70
     0
  3
Solid line
 72
    65
 73
     0
 40
0.0
  0
LTYPE
  2
HIDDEN
 70
     0
  3
_ _ _ _ _ _ _ _ _ _ _ _ _ _ _ _ _ _ _ _ _ _ _
 72
    65
 73
     2
 40
0.375
 49
0.25
 49
-0.125
  0
LTYPE
  2
PHANTOM
 70
     0
  3
Phantom ______  __  __  ______  __  __  ______
 72
    65
 73
     6
 40
2.5
 49
1.25
 49
-0.25
 49
0.25
 49
-0.25
 49
0.25
 49
-0.25
  0
LTYPE
  2
PHANTOM2
 70
     0
  3
Phantom (.5x) ___ _ _ ___ _ _ ___ _ _ ___ _ _
 72
    65
 73
     6
 40
1.25
 49
0.625
 49
-0.125
 49
0.125
 49
-0.125
 49
0.125
 49
-0.125
  0
LTYPE
  2
CENTER
 70
     0
  3
Center ____ _ ____ _ ____ _ ____ _ ____ _ ____
 72
    65
 73
     4
 40
2.0
 49
1.25
 49
-0.25
 49
0.25
 49
-0.25
  0
LTYPE
  2
AM_ISO02W050
 70
     0
  3
__ __ __ __ __ __ __ __ __ __ __ __ __ __ __
 72
    65
 73
     2
 40
7.5
 49
6.0
 49
-1.5
  0
LTYPE
  2
AM_ISO08W050
 70
     0
  3
____ . ____ . ____ . ____ . ____ . ____ . ____
 72
    65
 73
     4
 40
18.0
 49
12.0
 49
-1.5
 49
3.0
 49
-1.5
  0
LTYPE
  2
AM_ISO09W050
 70
     0
  3
_____ . . _____ . . _____ . . ____ .. ____
 72
    65
 73
     6
 40
22.5
 49
12.0
 49
-1.5
 49
3.0
 49
-1.5
 49
3.0
 49
-1.5
  0
LTYPE
  2
AMCONSTR
 70
     0
  3
_______________________
 72
    65
 73
     2
 40
9999.0
 49
9999.0
 49
0.0
  0
LTYPE
  2
AM_ISO08W050X2
 70
     0
  3
__ . __ . __ . __ . __ . __
 72
    65
 73
     4
 40
9.0
 49
6.0
 49
-0.75
 49
1.5
 49
-0.75
  0
LTYPE
  2
AM_ISO02W050X2
 70
     0
  3
 _ _ _ _ _ _ _ _ _ _ _ _
 72
    65
 73
     2
 40
3.75
 49
3.0
 49
-0.75
  0
LTYPE
  2
AMZIGZAG
 70
     0
  3
/\/-/\/-/\/-/\/-/\/-/\/
 72
    65
 73
     2
 40
11.0001
 49
0.0001
 49
-11.0
  0
LTYPE
  2
CENTER2
 70
     0
  3
Center (.5x) ___ _ ___ _ ___ _ ___ _ ___ _ ___
 72
    65
 73
     4
 40
1.125
 49
0.75
 49
-0.125
 49
0.125
 49
-0.125
  0
LTYPE
  2
HIDDEN2
 70
     0
  3
Hidden (.5x) _ _ _ _ _ _ _ _ _ _ _ _ _ _ _ _ _
 72
    65
 73
     2
 40
0.1875
 49
0.125
 49
-0.0625
  0
LTYPE
  2
AMZIGZAG2
 70
     0
  3
/\/-/\/-/\/-/\/-/\/-/\/
 72
    65
 73
     2
 40
0.4401
 49
0.0001
 49
-0.4400000000000001
  0
LTYPE
  2
ACANSTGB
 70
     0
  3
__ . . __ . .
 72
    65
 73
     6
 40
0.35433070866
 49
0.15748031496
 49
-0.03937007874
 49
0.03937007874
 49
-0.03937007874
 49
0.03937007874
 49
-0.03937007874
  0
LTYPE
  2
ACANSTGL
 70
     0
  3
_ _ _ _ _
 72
    65
 73
     2
 40
0.11811023622
 49
0.07874015748
 49
-0.03937007874
  0
ENDTAB
  0
TABLE
  2
LAYER
 70
     6
  0
LAYER
  2
0
 70
     0
 62
     7
  6
CONTINUOUS
  0
LAYER
  2
DIM
 70
     0
 62
     7
  6
CONTINUOUS
  0
LAYER
  2
OUTLINE
 70
     0
 62
     7
  6
CONTINUOUS
  0
LAYER
  2
OVERLAY-A3
 70
     0
 62
     7
  6
CONTINUOUS
  0
LAYER
  2
TEXT
 70
     0
 62
   100
  6
CONTINUOUS
  0
LAYER
  2
CLEAR
 70
     0
 62
     1
  6
PHANTOM
  0
ENDTAB
  0
TABLE
  2
STYLE
 70
     8
  0
STYLE
  2
STANDARD
 70
     0
 40
0.0
 41
1.0
 50
0.0
 71
     0
 42
0.2
  3
txt
  4

  0
STYLE
  2
ANNOTATIVE
 70
     0
 40
0.0
 41
1.0
 50
0.0
 71
     0
 42
0.2
  3
txt
  4

  0
STYLE
  2
TITLE3
 70
     0
 40
30.0
 41
1.0
 50
0.0
 71
     0
 42
30.0
  3
SIMPLEX
  4

  0
STYLE
  2
SIMPLEX
 70
     0
 40
40.0
 41
1.0
 50
0.0
 71
     0
 42
25.0
  3
SIMPLEX
  4

  0
STYLE
  2
TITLE5
 70
     0
 40
50.0
 41
1.0
 50
0.0
 71
     0
 42
50.0
  3
SIMPLEX.shx
  4

  0
STYLE
  2

 70
     1
 40
0.0
 41
1.0
 50
0.0
 71
     0
 42
30.0
  3
genltshp.shx
  4

  0
STYLE
  2
ACANSTS
 70
     0
 40
1.0
 41
1.0
 50
0.0
 71
     0
 42
30.0
  3
romans.shx
  4

  0
STYLE
  2
ACANSGDT
 70
     0
 40
0.0
 41
1.0
 50
0.0
 71
     0
 42
30.0
  3
amgdt.shx
  4

  0
ENDTAB
  0
TABLE
  2
VIEW
 70
     0
  0
ENDTAB
  0
TABLE
  2
UCS
 70
     0
  0
ENDTAB
  0
TABLE
  2
APPID
 70
    10
  0
APPID
  2
ACAD
 70
     0
  0
APPID
  2
ACADANNOTATIVE
 70
     0
  0
APPID
  2
ACAD_MLEADERVER
 70
     0
  0
APPID
  2
MCAD_NO_VIS
 70
     0
  0
APPID
  2
ACAD_TEMP_GRAPHIC
 70
     0
  0
APPID
  2
AD_DRAW
 70
     0
  0
APPID
  2
ACATTRIBSERVICES
 70
     0
  0
APPID
  2
DESIGNERASSEMBLIES
 70
     0
  0
APPID
  2
ACADM_DIM_EDIT
 70
     0
  0
APPID
  2
AMDT_DM_ADJ
 70
     0
  0
ENDTAB
  0
TABLE
  2
DIMSTYLE
 70
     8
  0
DIMSTYLE
  2
STANDARD
 70
     0
  3

  4

  5

  6

  7

 40
1.0
 41
0.18
 42
0.0625
 43
0.38
 44
0.18
 45
0.0
 46
0.0
 47
0.0
 48
0.0
140
0.18
141
0.09
142
0.0
143
25.399999999999999
144
1.0
145
0.0
146
1.0
147
0.09
 71
     0
 72
     0
 73
     1
 74
     1
 75
     0
 76
     0
 77
     0
 78
     0
170
     0
171
     2
172
     0
173
     0
174
     0
175
     0
176
     0
177
     0
178
     0
  0
DIMSTYLE
  2
ANNOTATIVE
 70
     0
  3

  4

  5

  6

  7

 40
1.0
 41
0.18
 42
0.0625
 43
0.38
 44
0.18
 45
0.0
 46
0.0
 47
0.0
 48
0.0
140
0.18
141
0.09
142
0.0
143
25.399999999999999
144
1.0
145
0.0
146
1.0
147
0.09
 71
     0
 72
     0
 73
     1
 74
     1
 75
     0
 76
     0
 77
     0
 78
     0
170
     0
171
     2
172
     0
173
     0
174
     0
175
     0
176
     0
177
     0
178
     0
  0
DIMSTYLE
  2
AM_ANSI
 70
     0
  3

  4
mm
  5

  6

  7

 40
1.0
 41
0.12
 42
0.05
 43
0.5
 44
0.1
 45
0.0
 46
0.0
 47
0.1
 48
0.1
140
0.12
141
0.0
142
0.0
143
25.399999999999999
144
1.0
145
0.0
146
0.71
147
0.06
 71
     0
 72
     0
 73
     1
 74
     1
 75
     0
 76
     0
 77
     0
 78
     7
170
     0
171
     2
172
     0
173
     0
174
     0
175
     0
176
   256
177
   256
178
     2
  0
DIMSTYLE
  2
AM_ANSI$3
 70
     0
  3

  4
mm
  5

  6

  7

 40
1.0
 41
0.12
 42
0.05
 43
0.5
 44
0.1
 45
0.0
 46
0.0
 47
0.1
 48
0.1
140
0.12
141
0.0
142
0.0
143
25.399999999999999
144
1.0
145
0.0
146
0.71
147
0.06
 71
     0
 72
     0
 73
     1
 74
     1
 75
     0
 76
     0
 77
     0
 78
     7
170
     0
171
     2
172
     0
173
     0
174
     0
175
     0
176
   256
177
   256
178
     2
  0
DIMSTYLE
  2
AM_ANSI$4
 70
     0
  3

  4
mm
  5

  6

  7

 40
1.0
 41
0.12
 42
0.05
 43
0.5
 44
0.1
 45
0.0
 46
0.0
 47
0.1
 48
0.1
140
0.12
141
0.0
142
0.0
143
25.399999999999999
144
1.0
145
0.0
146
0.71
147
0.06
 71
     0
 72
     0
 73
     1
 74
     1
 75
     0
 76
     0
 77
     0
 78
     7
170
     0
171
     2
172
     0
173
     0
174
     0
175
     0
176
   256
177
   256
178
     2
  0
DIMSTYLE
  2
AM_ANSI$7
 70
     0
  3

  4
mm
  5

  6

  7

 40
1.0
 41
0.12
 42
0.05
 43
0.5
 44
0.1
 45
0.0
 46
0.0
 47
0.1
 48
0.1
140
0.12
141
0.0
142
0.0
143
25.399999999999999
144
1.0
145
0.0
146
0.71
147
0.06
 71
     0
 72
     0
 73
     1
 74
     1
 75
     0
 76
     0
 77
     0
 78
     7
170
     0
171
     2
172
     0
173
     0
174
     0
175
     0
176
   256
177
   256
178
     2
  0
DIMSTYLE
  2
AM_ANSI$SF
 70
     0
  3

  4
mm
  5

  6

  7

 40
1.0
 41
0.12
 42
0.05
 43
0.5
 44
0.1
 45
0.0
 46
0.0
 47
0.1
 48
0.1
140
0.12
141
0.0
142
0.0
143
25.399999999999999
144
1.0
145
0.0
146
0.71
147
0.06
 71
     0
 72
     0
 73
     1
 74
     1
 75
     1
 76
     1
 77
     0
 78
     7
170
     0
171
     2
172
     0
173
     0
174
     0
175
     0
176
   256
177
   256
178
     2
  0
DIMSTYLE
  2
AM_ANSI$SH
 70
     0
  3

  4
mm
  5

  6
GENAXEH
  7

 40
1.0
 41
0.12
 42
0.05
 43
0.5
 44
0.1
 45
0.0
 46
0.0
 47
0.1
 48
0.1
140
0.12
141
0.0
142
0.0
143
25.399999999999999
144
1.0
145
0.0
146
0.71
147
0.06
 71
     0
 72
     0
 73
     1
 74
     1
 75
     1
 76
     1
 77
     0
 78
     7
170
     0
171
     2
172
     0
173
     1
174
     0
175
     0
176
   256
177
   256
178
     2
  0
ENDTAB
  0
ENDSEC
  0
SECTION
  2
BLOCKS
  0
BLOCK
  8
0
  2
$MODEL_SPACE
 70
     0
 10
0.0
 20
0.0
 30
0.0
  3
$MODEL_SPACE
  1

  0
ENDBLK
  5
D86
  8
0
  0
BLOCK
 67
     1
  8
0
  2
$PAPER_SPACE
 70
     0
 10
0.0
 20
0.0
 30
0.0
  3
$PAPER_SPACE
  1

  0
ENDBLK
  5
D82
 67
     1
  8
0
  0
BLOCK
  8
0
  2
NEW_BLOCK
 70
     0
 10
0.0
 20
0.0
 30
0.0
  3
NEW_BLOCK
  1

  0
TEXT
  5
BEB
  8
TEXT
 10
27.285946821803002
 20
25.27142175952417
 30
0.0
 40
40.0
  1
available on request
  7
TITLE3
  0
TEXT
  5
BEC
  8
TEXT
 10
27.285946821803002
 20
93.842850330952714
 30
0.0
 40
40.0
  1
Certified dimensions
  7
TITLE3
  0
TEXT
  5
BED
  8
TEXT
 10
27.285946821803002
 20
162.4142789023812
 30
0.0
 40
40.0
  1
without notice or obligation.
  7
TITLE3
  0
TEXT
  5
BEE
  8
TEXT
 10
27.285946821803002
 20
230.9857074738097
 30
0.0
 40
40.0
  1
specifications at any time
  7
TITLE3
  0
TEXT
  5
BEF
  8
TEXT
 10
27.285946821803002
 20
299.55713604523839
 30
0.0
 40
40.0
  1
the right to change 
  7
TITLE3
  0
TEXT
  5
BF0
  8
TEXT
 10
27.285946821803002
 20
436.69999318809528
 30
0.0
 40
40.0
  1
NOTE
  7
TITLE3
  0
TEXT
  5
BF1
  8
TEXT
 10
27.285946821803002
 20
368.12856461666678
 30
0.0
 40
40.0
  1
The manufacturer reserves
  7
TITLE3
  0
ENDBLK
  5
BF2
  8
0
  0
BLOCK
  8
0
  2
GENAXEH
 70
     0
 10
0.0
 20
0.0
 30
0.0
  3
GENAXEH
  1

  0
LINE
  5
E26
  8
0
 10
-1.0
 20
0.0
 30
0.0
 11
1.0
 21
0.0
 31
0.0
  0
ENDBLK
  5
E28
  8
0
  0
ENDSEC
  0
SECTION
  2
ENTITIES
  0
LINE
  5
BF3
  8
OUTLINE
 10
2916.1699088890882
 20
1236.311939137815
 30
0.0
 11
1735.169908889088
 21
1236.3119391378159
 31
0.0
  0
LINE
  5
BF4
  8
OUTLINE
 10
1735.169908889088
 20
2470.3091428580092
 30
0.0
 11
2927.1699088890891
 21
2470.3091428580092
 31
0.0
  0
LINE
  5
BF5
  8
OUTLINE
 10
1708.169908889088
 20
2112.3091428580092
 30
0.0
 11
2943.16990888909
 21
2112.3091428580092
 31
0.0
  0
LINE
  5
BF6
  8
OUTLINE
 10
1735.169908889088
 20
1739.3119391378159
 30
0.0
 11
2916.1699088890882
 21
1739.3119391378159
 31
0.0
  0
LINE
  5
BF7
  8
OUTLINE
 10
1708.169908889088
 20
1263.311939137815
 30
0.0
 11
1762.169908889088
 21
1209.311939137815
 31
0.0
  0
LINE
  5
BF8
  8
OUTLINE
 10
1810.169908889088
 20
1174.3119391378141
 30
0.0
 11
2872.1699088890882
 21
1174.3119391378141
 31
0.0
  0
CIRCLE
  5
BF9
  8
OUTLINE
 10
1747.669908889088
 20
1190.3167471798661
 30
0.0
 40
9.5
  0
LINE
  5
BFA
  8
OUTLINE
 10
1772.669908889088
 20
1170.3167471798661
 30
0.0
 11
1772.669908889088
 21
1209.311939137815
 31
0.0
  0
LINE
  5
BFB
  8
OUTLINE
 10
1722.669908889088
 20
1170.3167471798661
 30
0.0
 11
1722.669908889088
 21
1248.811939137815
 31
0.0
  0
LINE
  5
BFC
  8
OUTLINE
 10
1772.669908889088
 20
1170.3167471798661
 30
0.0
 11
1722.669908889088
 21
1170.3167471798661
 31
0.0
  0
LINE
  5
BFD
  8
OUTLINE
 10
2771.1699088890882
 20
1801.311939137815
 30
0.0
 11
1911.169908889088
 21
1801.311939137815
 31
0.0
  0
LINE
  5
BFE
  8
OUTLINE
 10
1735.169908889088
 20
1236.3119391378159
 30
0.0
 11
1735.169908889088
 21
1739.3119391378159
 31
0.0
  0
LINE
  5
BFF
  8
OUTLINE
 10
1722.669908889088
 20
1805.307131095765
 30
0.0
 11
1722.669908889088
 21
1726.8119391378159
 31
0.0
  0
LINE
  5
C00
  8
OUTLINE
 10
1772.669908889088
 20
1805.307131095765
 30
0.0
 11
1772.669908889088
 21
1765.3119391378159
 31
0.0
  0
LINE
  5
C01
  8
OUTLINE
 10
1708.169908889088
 20
1712.311939137817
 30
0.0
 11
1761.16990888909
 21
1765.3119391378159
 31
0.0
  0
CIRCLE
  5
C02
  8
OUTLINE
 10
1747.669908889088
 20
1785.307131095765
 30
0.0
 40
9.5
  0
LINE
  5
C03
  8
OUTLINE
 10
1772.669908889088
 20
1805.307131095765
 30
0.0
 11
1722.669908889088
 21
1805.307131095765
 31
0.0
  0
LINE
  5
C04
  8
OUTLINE
 10
1735.169908889088
 20
2470.3091428580092
 30
0.0
 11
1735.169908889088
 21
2243.8091428580078
 31
0.0
  0
LINE
  5
C05
  8
OUTLINE
 10
1772.669908889088
 20
2166.8091428580078
 30
0.0
 11
1772.669908889088
 21
2236.8091428580092
 31
0.0
  0
LINE
  5
C06
  8
OUTLINE
 10
1722.669908889088
 20
2236.8091428580092
 30
0.0
 11
1722.669908889088
 21
2166.8091428580078
 31
0.0
  0
LINE
  5
C07
  8
OUTLINE
 10
1708.169908889088
 20
2121.3091428580092
 30
0.0
 11
1708.169908889088
 21
2112.3091428580092
 31
0.0
  0
LINE
  5
C08
  8
OUTLINE
 10
1772.669908889088
 20
2166.8091428580078
 30
0.0
 11
1722.669908889088
 21
2166.8091428580078
 31
0.0
  0
LINE
  5
C09
  8
OUTLINE
 10
1772.669908889088
 20
2236.8091428580092
 30
0.0
 11
1722.669908889088
 21
2236.8091428580092
 31
0.0
  0
LINE
  5
C0A
  8
OUTLINE
 10
1729.169908889088
 20
2243.8091428580078
 30
0.0
 11
1766.169908889088
 21
2243.8091428580078
 31
0.0
  0
LINE
  5
C0B
  8
OUTLINE
 10
1763.169908889088
 20
2236.8091428580092
 30
0.0
 11
1732.169908889088
 21
2236.8091428580092
 31
0.0
  0
LINE
  5
C0C
  8
OUTLINE
 10
1729.169908889088
 20
2239.8091428580092
 30
0.0
 11
1729.169908889088
 21
2243.8091428580078
 31
0.0
  0
ARC
  5
C0D
  8
OUTLINE
 10
1732.169908889088
 20
2239.8091428580092
 30
0.0
 40
3.0
 50
180.0
 51
270.0
  0
ARC
  5
C0E
  8
OUTLINE
 10
1763.169908889088
 20
2239.8091428580092
 30
0.0
 40
3.0
 50
270.0
 51
0.0
  0
LINE
  5
C0F
  8
OUTLINE
 10
1766.169908889088
 20
2239.8091428580092
 30
0.0
 11
1766.169908889088
 21
2243.8091428580078
 31
0.0
  0
LINE
  5
C10
  8
OUTLINE
 10
1735.169908889088
 20
2470.3091428580092
 30
0.0
 11
1724.169908889088
 21
2470.3091428580092
 31
0.0
  0
LINE
  5
C11
  8
OUTLINE
 10
2943.1699088890891
 20
1263.3119391378141
 30
0.0
 11
2889.1699088890891
 21
1209.311939137815
 31
0.0
  0
LINE
  5
C12
  8
OUTLINE
 10
2879.66990888909
 20
1170.3167471798661
 30
0.0
 11
2927.66990888909
 21
1170.3167471798661
 31
0.0
  0
CIRCLE
  5
C13
  8
OUTLINE
 10
2903.6699088890891
 20
1190.3167471798661
 30
0.0
 40
9.5
  0
LINE
  5
C14
  8
OUTLINE
 10
2879.66990888909
 20
1170.3167471798661
 30
0.0
 11
2879.66990888909
 21
1209.311939137815
 31
0.0
  0
LINE
  5
C15
  8
OUTLINE
 10
2927.66990888909
 20
1170.3167471798661
 30
0.0
 11
2927.66990888909
 21
1247.811939137815
 31
0.0
  0
LINE
  5
C16
  8
OUTLINE
 10
2916.1699088890882
 20
1739.3119391378159
 30
0.0
 11
2916.1699088890882
 21
1236.3119391378159
 31
0.0
  0
LINE
  5
C17
  8
OUTLINE
 10
2928.6699088890891
 20
1805.307131095765
 30
0.0
 11
2928.66990888909
 21
1726.8119391378159
 31
0.0
  0
LINE
  5
C18
  8
OUTLINE
 10
2878.6699088890891
 20
1805.307131095765
 30
0.0
 11
2878.6699088890891
 21
1766.3119391378159
 31
0.0
  0
LINE
  5
C19
  8
OUTLINE
 10
2890.1699088890891
 20
1765.3119391378159
 30
0.0
 11
2943.1699088890891
 21
1712.3119391378159
 31
0.0
  0
LINE
  5
C1A
  8
OUTLINE
 10
2878.6699088890891
 20
1805.307131095765
 30
0.0
 11
2928.6699088890891
 21
1805.307131095765
 31
0.0
  0
CIRCLE
  5
C1B
  8
OUTLINE
 10
2903.6699088890891
 20
1785.307131095765
 30
0.0
 40
9.5
  0
LINE
  5
C1C
  8
OUTLINE
 10
2916.1699088890882
 20
2470.3091428580092
 30
0.0
 11
2916.1699088890882
 21
2243.8091428580078
 31
0.0
  0
LINE
  5
C1D
  8
OUTLINE
 10
2916.166558711916
 20
2470.3091428580092
 30
0.0
 11
2916.166558711916
 21
2243.8091428580078
 31
0.0
  0
LINE
  5
C1E
  8
OUTLINE
 10
2928.6699088890891
 20
2236.8091428580092
 30
0.0
 11
2928.6699088890891
 21
2166.8091428580078
 31
0.0
  0
LINE
  5
C1F
  8
OUTLINE
 10
2878.6699088890891
 20
2166.8091428580078
 30
0.0
 11
2878.6699088890891
 21
2236.8091428580092
 31
0.0
  0
LINE
  5
C20
  8
OUTLINE
 10
2878.6699088890891
 20
2166.8091428580078
 30
0.0
 11
2928.6699088890891
 21
2166.8091428580078
 31
0.0
  0
LINE
  5
C21
  8
OUTLINE
 10
2943.16990888909
 20
2112.3091428580092
 30
0.0
 11
2943.1699088890891
 21
2121.3091428580092
 31
0.0
  0
LINE
  5
C22
  8
OUTLINE
 10
2878.6699088890891
 20
2236.8091428580092
 30
0.0
 11
2928.6699088890891
 21
2236.8091428580092
 31
0.0
  0
LINE
  5
C23
  8
OUTLINE
 10
2922.1699088890891
 20
2243.8091428580078
 30
0.0
 11
2885.1699088890882
 21
2243.8091428580078
 31
0.0
  0
ARC
  5
C24
  8
OUTLINE
 10
2888.1699088890882
 20
2239.8091428580092
 30
0.0
 40
3.0
 50
180.0
 51
270.0
  0
LINE
  5
C25
  8
OUTLINE
 10
2885.1699088890882
 20
2239.8091428580092
 30
0.0
 11
2885.1699088890882
 21
2243.8091428580078
 31
0.0
  0
LINE
  5
C26
  8
OUTLINE
 10
2888.1699088890882
 20
2236.8091428580092
 30
0.0
 11
2919.1699088890882
 21
2236.8091428580092
 31
0.0
  0
ARC
  5
C27
  8
OUTLINE
 10
2919.1699088890882
 20
2239.8091428580092
 30
0.0
 40
3.0
 50
270.0
 51
0.0
  0
LINE
  5
C28
  8
OUTLINE
 10
2922.1699088890891
 20
2239.8091428580092
 30
0.0
 11
2922.1699088890891
 21
2243.8091428580078
 31
0.0
  0
TEXT
  5
C29
  8
TEXT
 10
2956.666666666667
 20
268.55308472992402
 30
0.0
 40
50.0
  1
temperzone ISD 150
  7
TITLE5
 72
     1
 11
3340.0
 21
268.55308472992402
 31
0.0
  0
TEXT
  5
C2A
  8
TEXT
 10
3430.0
 20
70.0
 30
0.0
 40
30.0
  1
ISD150
 41
2.0505050505050502
  7
TITLE3
 72
     5
 11
3720.0
 21
70.0
 31
0.0
  0
LINE
  5
C2B
  8
OUTLINE
 10
1911.169908889085
 20
2125.3071244444591
 30
0.0
 11
2771.1699088890882
 21
2125.3071244444591
 31
0.0
  0
LINE
  5
C2C
  8
OUTLINE
 10
1911.169908889085
 20
2350.3071244444591
 30
0.0
 11
2771.1699088890882
 21
2350.3071244444568
 31
0.0
  0
LINE
  5
C2D
  8
OUTLINE
 10
1911.169908889085
 20
2350.3071244444591
 30
0.0
 11
1911.169908889085
 21
2125.3071244444591
 31
0.0
  0
LINE
  5
C2E
  8
OUTLINE
 10
2771.1699088890882
 20
2125.3071244444591
 30
0.0
 11
2771.1699088890882
 21
2350.3071244444568
 31
0.0
  0
LINE
  5
C2F
  8
OUTLINE
 10
2872.1699088890882
 20
1174.3119391378141
 30
0.0
 11
2872.1699088890882
 21
1209.311939137815
 31
0.0
  0
LINE
  5
C30
  8
OUTLINE
 10
1810.169908889088
 20
1174.3119391378141
 30
0.0
 11
1810.169908889088
 21
1209.311939137815
 31
0.0
  0
LINE
  5
C31
  8
DIM
 10
2894.4696213451962
 20
1222.8119391378159
 30
0.0
 11
3083.3736952157478
 21
1222.8119391378159
 31
0.0
  0
LINE
  5
C32
  8
DIM
 10
2895.7275178023142
 20
1752.811939137815
 30
0.0
 11
3083.3736952157478
 21
1752.811939137815
 31
0.0
  0
LINE
  5
C33
  8
DIM
 10
3063.3736952157478
 20
1252.8119391378141
 30
0.0
 11
3063.3736952157478
 21
1391.0262248521019
 31
0.0
  0
LINE
  5
C34
  8
DIM
 10
3063.3736952157478
 20
1722.811939137815
 30
0.0
 11
3063.3736952157478
 21
1584.597653423529
 31
0.0
  0
SOLID
  5
C35
  8
DIM
 10
3068.3736952157492
 20
1252.8119391378141
 30
0.0
 11
3058.3736952157478
 21
1252.8119391378141
 31
0.0
 12
3063.3736952157478
 22
1222.8119391378159
 32
0.0
 13
3063.3736952157478
 23
1222.8119391378159
 33
0.0
  0
SOLID
  5
C36
  8
DIM
 10
3068.3736952157492
 20
1722.811939137815
 30
0.0
 11
3058.3736952157478
 21
1722.811939137815
 31
0.0
 12
3063.3736952157478
 22
1752.811939137815
 32
0.0
 13
3063.3736952157478
 23
1752.811939137815
 33
0.0
  0
TEXT
  5
C37
  8
DIM
 10
3078.3736952157478
 20
1449.240510566387
 30
0.0
 40
30.0
  1
530
 50
90.0
  7
TITLE3
 72
     4
 11
3063.3736952157478
 21
1487.8119391378159
 31
0.0
  0
LINE
  5
C38
  8
DIM
 10
2906.7839930356909
 20
1785.307131095765
 30
0.0
 11
3207.2560613211699
 21
1785.307131095765
 31
0.0
  0
LINE
  5
C39
  8
DIM
 10
2906.9411959416202
 20
1190.3167471798661
 30
0.0
 11
3207.2560613211699
 21
1190.3167471798661
 31
0.0
  0
LINE
  5
C3A
  8
DIM
 10
3187.2560613211699
 20
1755.307131095765
 30
0.0
 11
3187.2560613211699
 21
1582.0976534235299
 31
0.0
  0
LINE
  5
C3B
  8
DIM
 10
3187.2560613211699
 20
1220.3167471798661
 30
0.0
 11
3187.2560613211699
 21
1393.526224852101
 31
0.0
  0
SOLID
  5
C3C
  8
DIM
 10
3192.256061321169
 20
1755.307131095765
 30
0.0
 11
3182.256061321169
 21
1755.307131095765
 31
0.0
 12
3187.2560613211699
 22
1785.307131095765
 32
0.0
 13
3187.2560613211699
 23
1785.307131095765
 33
0.0
  0
SOLID
  5
C3D
  8
DIM
 10
3192.256061321169
 20
1220.3167471798661
 30
0.0
 11
3182.256061321169
 21
1220.3167471798661
 31
0.0
 12
3187.2560613211699
 22
1190.3167471798661
 32
0.0
 13
3187.2560613211699
 23
1190.3167471798661
 33
0.0
  0
TEXT
  5
C3E
  8
DIM
 10
3202.2560613211699
 20
1449.240510566387
 30
0.0
 40
30.0
  1
595
 50
90.0
  7
TITLE3
 72
     1
 11
3187.2560613211699
 21
1487.8119391378159
 31
0.0
 73
     2
  0
TEXT
  5
C3F
  8
DIM
 10
3036.182481543578
 20
1362.799577413816
 30
0.0
 40
30.0
  1
FIXING CTRS.
 50
90.0
  7
TITLE3
  0
TEXT
  5
C40
  8
DIM
 10
3155.3706309848162
 20
1234.2035209482001
 30
0.0
 40
30.0
  1
(OPTIONAL HANGER CTRS.)
 50
90.0
 41
0.8374249188316904
  7
TITLE3
 72
     5
 11
3155.3706309848162
 21
1746.2290427481471
 31
0.0
  0
TEXT
  5
C41
  8
TEXT
 10
2949.4895271762598
 20
110.0
 30
0.0
 40
30.0
  1
11.11.02
 41
0.9491525423728811
  7
TITLE3
 72
     5
 11
3109.4895271762598
 21
110.0
 31
0.0
  0
LINE
  5
C42
  8
OUTLINE
 10
1911.169908889088
 20
1801.311939137815
 30
0.0
 11
1911.169908889088
 21
1765.3119391378159
 31
0.0
  0
LINE
  5
C43
  8
OUTLINE
 10
2771.1699088890882
 20
1801.311939137815
 30
0.0
 11
2771.1699088890882
 21
1765.3119391378159
 31
0.0
  0
LINE
  5
C44
  8
OUTLINE
 10
2889.1699088890891
 20
1209.311939137815
 30
0.0
 11
1762.169908889088
 21
1209.311939137815
 31
0.0
  0
LINE
  5
C45
  8
OUTLINE
 10
1708.169908889088
 20
1263.311939137815
 30
0.0
 11
1708.169908889088
 21
1712.311939137817
 31
0.0
  0
LINE
  5
C46
  8
OUTLINE
 10
2943.1699088890891
 20
1712.3119391378159
 30
0.0
 11
2943.1699088890891
 21
1263.3119391378141
 31
0.0
  0
LINE
  5
C47
  8
OUTLINE
 10
3456.5428324073041
 20
1235.307131095765
 30
0.0
 11
3456.5428324073041
 21
1174.307131095765
 31
0.0
  0
LINE
  5
C48
  8
OUTLINE
 10
3742.5428324073041
 20
1236.307131095765
 30
0.0
 11
3742.5428324073032
 21
1174.307131095765
 31
0.0
  0
LINE
  5
C49
  8
OUTLINE
 10
3572.0428324073041
 20
1174.307131095765
 30
0.0
 11
3742.5428324073032
 21
1174.307131095765
 31
0.0
  0
LINE
  5
C4A
  8
OUTLINE
 10
3456.5428324073041
 20
1174.307131095765
 30
0.0
 11
3557.0428324073041
 21
1174.307131095765
 31
0.0
  0
LINE
  5
C4B
  8
OUTLINE
 10
3565.0428324073041
 20
1236.307131095766
 30
0.0
 11
3565.0428324073041
 21
1170.3071310957671
 31
0.0
  0
LINE
  5
C4C
  8
OUTLINE
 10
3557.0428324073032
 20
1227.3071310957671
 30
0.0
 11
3557.0428324073032
 21
1170.3071310957671
 31
0.0
  0
LINE
  5
C4D
  8
OUTLINE
 10
3572.0428324073041
 20
1208.8071310957671
 30
0.0
 11
3572.0428324073041
 21
1171.8071310957671
 31
0.0
  0
LINE
  5
C4E
  8
OUTLINE
 10
3565.0428324073041
 20
1174.8071310957671
 30
0.0
 11
3565.0428324073041
 21
1205.8071310957671
 31
0.0
  0
LINE
  5
C4F
  8
OUTLINE
 10
3568.0428324073018
 20
1171.8071310957671
 30
0.0
 11
3572.0428324073041
 21
1171.8071310957671
 31
0.0
  0
LINE
  5
C50
  8
OUTLINE
 10
3557.0428324073032
 20
1170.3071310957671
 30
0.0
 11
3565.0428324073041
 21
1170.3071310957671
 31
0.0
  0
ARC
  5
C51
  8
OUTLINE
 10
3568.0428324073018
 20
1174.8071310957671
 30
0.0
 40
3.0
 50
180.0
 51
270.0
  0
ARC
  5
C52
  8
OUTLINE
 10
3568.0428324073018
 20
1205.8071310957671
 30
0.0
 40
3.0
 50
90.0
 51
180.0
  0
LINE
  5
C53
  8
OUTLINE
 10
3568.0428324073018
 20
1208.8071310957671
 30
0.0
 11
3572.0428324073041
 21
1208.8071310957671
 31
0.0
  0
LINE
  5
C54
  8
OUTLINE
 10
3440.5428324073018
 20
1209.307131095768
 30
0.0
 11
3449.5428324073041
 21
1209.307131095768
 31
0.0
  0
ARC
  5
C55
  8
OUTLINE
  6
HIDDEN
 10
3636.5828324073018
 20
1579.421939137814
 30
0.0
 40
143.75
 50
358.70163791046571
 51
56.958102002170421
  0
CIRCLE
  5
C56
  8
OUTLINE
  6
HIDDEN
 10
3639.232832407301
 20
1584.011939137815
 30
0.0
 40
85.0
  0
LINE
  5
C57
  8
OUTLINE
  6
HIDDEN
 10
3455.0428324073032
 20
1723.211939137816
 30
0.0
 11
3455.0428324073032
 21
1597.421939137814
 31
0.0
  0
LINE
  5
C58
  8
OUTLINE
 10
3440.5428324073018
 20
1750.307131095765
 30
0.0
 11
3440.5428324073018
 21
1740.3071310957639
 31
0.0
  0
LINE
  5
C59
  8
OUTLINE
 10
3440.5428324073018
 20
1766.307131095765
 30
0.0
 11
3440.5428324073018
 21
1237.307131095768
 31
0.0
  0
LINE
  5
C5A
  8
OUTLINE
 10
3798.5428324073018
 20
1750.307131095765
 30
0.0
 11
3798.5428324073018
 21
1227.307131095765
 31
0.0
  0
ARC
  5
C5B
  8
OUTLINE
  6
HIDDEN
 10
3628.322832407302
 20
1573.421939137814
 30
0.0
 40
152.0
 50
254.5371159686957
 51
295.78898702140572
  0
LINE
  5
C5C
  8
OUTLINE
 10
3440.5428324073018
 20
1236.3071310957671
 30
0.0
 11
3798.5428324073018
 21
1236.307131095765
 31
0.0
  0
ARC
  5
C5D
  8
OUTLINE
  6
HIDDEN
 10
3628.322832407302
 20
1573.421939137814
 30
0.0
 40
152.0
 50
295.78898702140572
 51
322.70432457911278
  0
ARC
  5
C5E
  8
OUTLINE
  6
HIDDEN
 10
3628.322832407302
 20
1573.421939137814
 30
0.0
 40
152.0
 50
322.70432457911278
 51
1.033926482545908
  0
ARC
  5
C5F
  8
OUTLINE
  6
HIDDEN
 10
3632.232832407301
 20
1603.441939137814
 30
0.0
 40
182.0199999999999
 50
214.26319426179069
 51
244.93350708534891
  0
ARC
  5
C60
  8
OUTLINE
  6
HIDDEN
 10
3632.232832407301
 20
1603.441939137814
 30
0.0
 40
182.0199999999999
 50
244.93350708534891
 51
255.87037031549119
  0
LINE
  5
C61
  8
OUTLINE
 10
3495.0428324073032
 20
1227.3071310957671
 30
0.0
 11
3557.0428324073032
 21
1227.3071310957671
 31
0.0
  0
LINE
  5
C62
  8
OUTLINE
 10
3495.0428324073032
 20
1236.3071310957671
 30
0.0
 11
3495.0428324073032
 21
1227.3071310957671
 31
0.0
  0
ARC
  5
C63
  8
OUTLINE
  6
HIDDEN
 10
3642.2328324073028
 20
1597.421939137814
 30
0.0
 40
187.19
 50
180.0
 51
211.01546950757131
  0
LINE
  5
C64
  8
OUTLINE
  6
HIDDEN
 10
3715.1875329456821
 20
1723.2119391378139
 30
0.0
 11
3455.0428324073032
 21
1723.211939137816
 31
0.0
  0
LINE
  5
C65
  8
OUTLINE
 10
3571.5428324073009
 20
1801.307131095765
 30
0.0
 11
3681.5428324073018
 21
1801.307131095765
 31
0.0
  0
LINE
  5
C66
  8
OUTLINE
 10
3440.5428324073018
 20
1740.3071310957639
 30
0.0
 11
3798.5428324073018
 21
1740.3071310957639
 31
0.0
  0
LINE
  5
C67
  8
OUTLINE
 10
3681.5428324073041
 20
1740.3071310957639
 30
0.0
 11
3681.5428324073018
 21
1801.307131095765
 31
0.0
  0
LINE
  5
C68
  8
OUTLINE
  6
HIDDEN
 10
3715.1875329456821
 20
1723.2119391378139
 30
0.0
 11
3715.1875329456821
 21
1699.777095044288
 31
0.0
  0
LINE
  5
C69
  8
OUTLINE
 10
3453.5428324073041
 20
1801.307131095765
 30
0.0
 11
3556.5428324073018
 21
1801.307131095765
 31
0.0
  0
LINE
  5
C6A
  8
OUTLINE
 10
3494.5428324073018
 20
1740.3071310957639
 30
0.0
 11
3494.5428324073018
 21
1748.307131095765
 31
0.0
  0
LINE
  5
C6B
  8
OUTLINE
 10
3494.5428324073018
 20
1740.3071310957639
 30
0.0
 11
3554.5428324073018
 21
1740.3071310957639
 31
0.0
  0
LINE
  5
C6C
  8
OUTLINE
 10
3494.5428324073018
 20
1748.307131095765
 30
0.0
 11
3556.5428324073018
 21
1748.307131095765
 31
0.0
  0
LINE
  5
C6D
  8
OUTLINE
 10
3564.5428324073009
 20
1800.807131095765
 30
0.0
 11
3564.5428324073009
 21
1769.807131095765
 31
0.0
  0
LINE
  5
C6E
  8
OUTLINE
 10
3571.5428324073009
 20
1766.807131095765
 30
0.0
 11
3571.5428324073009
 21
1803.807131095765
 31
0.0
  0
LINE
  5
C6F
  8
OUTLINE
 10
3564.5428324073009
 20
1740.3071310957639
 30
0.0
 11
3564.5428324073009
 21
1805.307131095765
 31
0.0
  0
LINE
  5
C70
  8
OUTLINE
 10
3556.5428324073018
 20
1748.307131095765
 30
0.0
 11
3556.5428324073018
 21
1805.307131095765
 31
0.0
  0
LINE
  5
C71
  8
OUTLINE
 10
3567.5428324073009
 20
1766.807131095765
 30
0.0
 11
3571.5428324073009
 21
1766.807131095765
 31
0.0
  0
ARC
  5
C72
  8
OUTLINE
 10
3567.5428324073009
 20
1769.807131095765
 30
0.0
 40
3.0
 50
180.0
 51
270.0
  0
LINE
  5
C73
  8
OUTLINE
 10
3567.5428324073009
 20
1803.807131095765
 30
0.0
 11
3571.5428324073009
 21
1803.807131095765
 31
0.0
  0
ARC
  5
C74
  8
OUTLINE
 10
3567.5428324073009
 20
1800.807131095765
 30
0.0
 40
3.0
 50
90.0
 51
180.0
  0
LINE
  5
C75
  8
OUTLINE
 10
3556.5428324073018
 20
1805.307131095765
 30
0.0
 11
3564.5428324073009
 21
1805.307131095765
 31
0.0
  0
LINE
  5
C76
  8
OUTLINE
 10
3453.5428324073041
 20
1740.3071310957639
 30
0.0
 11
3453.5428324073041
 21
1801.307131095765
 31
0.0
  0
LINE
  5
C77
  8
OUTLINE
 10
3440.5428324073018
 20
1766.307131095765
 30
0.0
 11
3449.5428324073041
 21
1766.307131095765
 31
0.0
  0
LINE
  5
C78
  8
OUTLINE
 10
3440.5428324073018
 20
1739.307131095765
 30
0.0
 11
3440.5428324073018
 21
1209.307131095768
 31
0.0
  0
LINE
  5
C79
  8
OUTLINE
 10
2916.1665587119151
 20
2166.8091428580078
 30
0.0
 11
2916.1665587119151
 21
2112.3091428580092
 31
0.0
  0
LINE
  5
C7A
  8
OUTLINE
 10
1735.169908889088
 20
2166.8091428580078
 30
0.0
 11
1735.169908889088
 21
2112.3091428580092
 31
0.0
  0
LINE
  5
C7B
  8
OUTLINE
 10
1708.169908889088
 20
865.34094710150976
 30
0.0
 11
2943.16990888909
 21
865.34094710150976
 31
0.0
  0
LINE
  5
C7C
  8
OUTLINE
 10
1735.169908889088
 20
507.34094710150958
 30
0.0
 11
2927.1699088890891
 21
507.34094710150958
 31
0.0
  0
LINE
  5
C7D
  8
OUTLINE
 10
2916.166558711916
 20
507.34094710150958
 30
0.0
 11
2916.166558711916
 21
733.84094710150976
 31
0.0
  0
LINE
  5
C7E
  8
OUTLINE
 10
2878.6699088890891
 20
810.84094710150976
 30
0.0
 11
2878.6699088890891
 21
740.84094710150976
 31
0.0
  0
LINE
  5
C7F
  8
OUTLINE
 10
2928.6699088890891
 20
740.84094710150976
 30
0.0
 11
2928.6699088890891
 21
810.84094710150976
 31
0.0
  0
LINE
  5
C80
  8
OUTLINE
 10
2878.6699088890891
 20
810.84094710150976
 30
0.0
 11
2928.6699088890891
 21
810.84094710150976
 31
0.0
  0
LINE
  5
C81
  8
OUTLINE
 10
2916.1665587119151
 20
810.84094710150976
 30
0.0
 11
2916.1665587119151
 21
865.34094710150976
 31
0.0
  0
LINE
  5
C82
  8
OUTLINE
 10
2943.16990888909
 20
865.34094710150976
 30
0.0
 11
2943.1699088890891
 21
856.34094710150976
 31
0.0
  0
LINE
  5
C83
  8
OUTLINE
 10
2878.6699088890891
 20
740.84094710150976
 30
0.0
 11
2928.6699088890891
 21
740.84094710150976
 31
0.0
  0
LINE
  5
C84
  8
OUTLINE
 10
2888.1699088890882
 20
740.84094710150976
 30
0.0
 11
2919.1699088890882
 21
740.84094710150976
 31
0.0
  0
LINE
  5
C85
  8
OUTLINE
 10
2922.1699088890891
 20
733.84094710150976
 30
0.0
 11
2885.1699088890882
 21
733.84094710150976
 31
0.0
  0
LINE
  5
C86
  8
OUTLINE
 10
2885.1699088890882
 20
737.84094710150976
 30
0.0
 11
2885.1699088890882
 21
733.84094710150976
 31
0.0
  0
ARC
  5
C87
  8
OUTLINE
 10
2888.1699088890882
 20
737.84094710150976
 30
0.0
 40
3.0
 50
90.0
 51
180.0
  0
LINE
  5
C88
  8
OUTLINE
 10
2922.1699088890891
 20
737.84094710150976
 30
0.0
 11
2922.1699088890891
 21
733.84094710150976
 31
0.0
  0
ARC
  5
C89
  8
OUTLINE
 10
2919.1699088890882
 20
737.84094710150976
 30
0.0
 40
3.0
 50
0.0
 51
90.0
  0
LINE
  5
C8A
  8
OUTLINE
 10
1735.169908889088
 20
507.34094710150958
 30
0.0
 11
1735.169908889088
 21
733.84094710150976
 31
0.0
  0
LINE
  5
C8B
  8
OUTLINE
 10
1722.669908889088
 20
740.84094710150976
 30
0.0
 11
1722.669908889088
 21
810.84094710150976
 31
0.0
  0
LINE
  5
C8C
  8
OUTLINE
 10
1772.669908889088
 20
810.84094710150976
 30
0.0
 11
1772.669908889088
 21
740.84094710150976
 31
0.0
  0
LINE
  5
C8D
  8
OUTLINE
 10
1708.169908889088
 20
856.34094710150976
 30
0.0
 11
1708.169908889088
 21
865.34094710150976
 31
0.0
  0
LINE
  5
C8E
  8
OUTLINE
 10
1772.669908889088
 20
810.84094710150976
 30
0.0
 11
1722.669908889088
 21
810.84094710150976
 31
0.0
  0
LINE
  5
C8F
  8
OUTLINE
 10
1735.169908889088
 20
810.84094710150976
 30
0.0
 11
1735.169908889088
 21
865.34094710150976
 31
0.0
  0
LINE
  5
C90
  8
OUTLINE
 10
1763.169908889088
 20
740.84094710150976
 30
0.0
 11
1732.169908889088
 21
740.84094710150976
 31
0.0
  0
LINE
  5
C91
  8
OUTLINE
 10
1729.169908889088
 20
733.84094710150976
 30
0.0
 11
1766.169908889088
 21
733.84094710150976
 31
0.0
  0
LINE
  5
C92
  8
OUTLINE
 10
1772.669908889088
 20
740.84094710150976
 30
0.0
 11
1722.669908889088
 21
740.84094710150976
 31
0.0
  0
ARC
  5
C93
  8
OUTLINE
 10
1732.169908889088
 20
737.84094710150976
 30
0.0
 40
3.0
 50
90.0
 51
180.0
  0
LINE
  5
C94
  8
OUTLINE
 10
1729.169908889088
 20
737.84094710150976
 30
0.0
 11
1729.169908889088
 21
733.84094710150976
 31
0.0
  0
LINE
  5
C95
  8
OUTLINE
 10
1766.169908889088
 20
737.84094710150976
 30
0.0
 11
1766.169908889088
 21
733.84094710150976
 31
0.0
  0
ARC
  5
C96
  8
OUTLINE
 10
1763.169908889088
 20
737.84094710150976
 30
0.0
 40
3.0
 50
0.0
 51
90.0
  0
LINE
  5
C97
  8
OUTLINE
 10
1735.169908889088
 20
538.84094710150976
 30
0.0
 11
1667.225323678676
 21
538.84094710150976
 31
0.0
  0
LINE
  5
C98
  8
OUTLINE
 10
1735.169908889088
 20
519.84094710150976
 30
0.0
 11
1667.225323678676
 21
519.84094710150976
 31
0.0
  0
LINE
  5
C99
  8
OUTLINE
 10
1667.225323678676
 20
519.84094710150976
 30
0.0
 11
1667.225323678676
 21
538.84094710150976
 31
0.0
  0
LINE
  5
C9A
  8
OUTLINE
 10
1735.169908889088
 20
507.34094710150958
 30
0.0
 11
1724.169908889088
 21
507.34094710150958
 31
0.0
  0
LINE
  5
C9B
  8
DIM
 10
3436.542832407305
 20
1174.307131095765
 30
0.0
 11
3283.1846885245882
 21
1174.307131095765
 31
0.0
  0
LINE
  5
C9C
  8
DIM
 10
3433.5428324073032
 20
1801.307131095765
 30
0.0
 11
3283.1846885245882
 21
1801.307131095765
 31
0.0
  0
LINE
  5
C9D
  8
DIM
 10
3303.1846885245882
 20
1204.307131095765
 30
0.0
 11
3303.1846885245882
 21
1384.235702524335
 31
0.0
  0
LINE
  5
C9E
  8
DIM
 10
3303.1846885245882
 20
1771.307131095765
 30
0.0
 11
3303.1846885245882
 21
1591.378559667193
 31
0.0
  0
SOLID
  5
C9F
  8
DIM
 10
3298.1846885245882
 20
1204.307131095765
 30
0.0
 11
3308.18468852459
 21
1204.307131095765
 31
0.0
 12
3303.1846885245882
 22
1174.307131095765
 32
0.0
 13
3303.1846885245882
 23
1174.307131095765
 33
0.0
  0
SOLID
  5
CA0
  8
DIM
 10
3298.1846885245882
 20
1771.307131095765
 30
0.0
 11
3308.18468852459
 21
1771.307131095765
 31
0.0
 12
3303.1846885245882
 22
1801.307131095765
 32
0.0
 13
3303.1846885245882
 23
1801.307131095765
 33
0.0
  0
TEXT
  5
CA1
  8
DIM
 10
3318.1846885245882
 20
1449.2357025243359
 30
0.0
 40
30.0
  1
627
 50
90.0
  7
TITLE3
 72
     1
 11
3303.1846885245882
 21
1487.807131095765
 31
0.0
 73
     2
  0
LINE
  5
CA2
  8
DIM
 10
3555.0428324073041
 20
1150.3071310957671
 30
0.0
 11
3555.0428324073041
 21
1093.9096347203961
 31
0.0
  0
LINE
  5
CA3
  8
DIM
 10
3440.5428324073018
 20
1189.307131095768
 30
0.0
 11
3440.5428324073018
 21
1093.9096347203961
 31
0.0
  0
LINE
  5
CA4
  8
DIM
 10
3585.0428324073032
 20
1113.9096347203979
 30
0.0
 11
3615.0428324073041
 21
1113.9096347203979
 31
0.0
  0
LINE
  5
CA5
  8
DIM
 10
3410.5428324073032
 20
1113.9096347203979
 30
0.0
 11
3380.5428324073018
 21
1113.9096347203979
 31
0.0
  0
SOLID
  5
CA6
  8
DIM
 10
3585.0428324073032
 20
1118.909634720397
 30
0.0
 11
3585.0428324073032
 21
1108.909634720397
 31
0.0
 12
3555.0428324073041
 22
1113.9096347203979
 32
0.0
 13
3555.0428324073041
 23
1113.9096347203979
 33
0.0
  0
SOLID
  5
CA7
  8
DIM
 10
3410.5428324073032
 20
1118.909634720397
 30
0.0
 11
3410.5428324073032
 21
1108.909634720397
 31
0.0
 12
3440.5428324073018
 22
1113.9096347203979
 32
0.0
 13
3440.5428324073018
 23
1113.9096347203979
 33
0.0
  0
TEXT
  5
CA8
  8
DIM
 10
3467.726493859117
 20
1098.9096347203979
 30
0.0
 40
30.0
  1
114
  7
TITLE3
 72
     1
 11
3501.297922430545
 21
1113.9096347203979
 31
0.0
 73
     2
  0
LINE
  5
CA9
  8
DIM
 10
1708.169908889088
 20
1732.3119391378159
 30
0.0
 11
1708.169908889088
 21
1879.112090630209
 31
0.0
  0
LINE
  5
CAA
  8
DIM
 10
2943.1699088890891
 20
1731.3119391378159
 30
0.0
 11
2943.1699088890891
 21
1879.112090630209
 31
0.0
  0
LINE
  5
CAB
  8
DIM
 10
1770.169908889088
 20
1772.811939137815
 30
0.0
 11
1770.169908889088
 21
1926.863817399106
 31
0.0
  0
LINE
  5
CAC
  8
DIM
 10
2881.16990888909
 20
1772.811939137815
 30
0.0
 11
2881.16990888909
 21
1926.863817399106
 31
0.0
  0
LINE
  5
CAD
  8
DIM
 10
1800.169908889088
 20
1906.8638173991069
 30
0.0
 11
2112.812766031946
 21
1906.8638173991069
 31
0.0
  0
LINE
  5
CAE
  8
DIM
 10
2861.16990888909
 20
1906.8638173991069
 30
0.0
 11
2548.5270517462318
 21
1906.8638173991069
 31
0.0
  0
SOLID
  5
CAF
  8
DIM
 10
1800.169908889088
 20
1911.863817399106
 30
0.0
 11
1800.169908889088
 21
1901.863817399106
 31
0.0
 12
1770.169908889088
 22
1906.8638173991069
 32
0.0
 13
1770.169908889088
 23
1906.8638173991069
 33
0.0
  0
SOLID
  5
CB0
  8
DIM
 10
2851.1699088890882
 20
1911.863817399106
 30
0.0
 11
2851.1699088890882
 21
1901.863817399106
 31
0.0
 12
2881.16990888909
 22
1906.8638173991069
 32
0.0
 13
2881.16990888909
 23
1906.8638173991069
 33
0.0
  0
TEXT
  5
CB1
  8
DIM
 10
2218.5270517462318
 20
1891.8638173991069
 30
0.0
 40
30.0
  1
1111 CTRS
  7
TITLE3
 72
     4
 11
2330.6699088890891
 21
1906.8638173991069
 31
0.0
  0
LINE
  5
CB2
  8
DIM
 10
1747.669908889088
 20
1805.307131095766
 30
0.0
 11
1747.669908889088
 21
1979.642046344592
 31
0.0
  0
LINE
  5
CB3
  8
DIM
 10
2903.6699088890891
 20
1805.307131095766
 30
0.0
 11
2903.6699088890891
 21
1979.642046344592
 31
0.0
  0
LINE
  5
CB4
  8
DIM
 10
1777.669908889088
 20
1959.642046344592
 30
0.0
 11
2098.52705174623
 21
1959.642046344592
 31
0.0
  0
LINE
  5
CB5
  8
DIM
 10
2883.6699088890891
 20
1959.642046344592
 30
0.0
 11
2562.812766031946
 21
1959.642046344592
 31
0.0
  0
SOLID
  5
CB6
  8
DIM
 10
1777.669908889088
 20
1964.642046344592
 30
0.0
 11
1777.669908889088
 21
1954.6420463445911
 31
0.0
 12
1747.669908889088
 22
1959.642046344592
 32
0.0
 13
1747.669908889088
 23
1959.642046344592
 33
0.0
  0
SOLID
  5
CB7
  8
DIM
 10
2873.6699088890882
 20
1964.642046344592
 30
0.0
 11
2873.6699088890882
 21
1954.6420463445911
 31
0.0
 12
2903.6699088890891
 22
1959.642046344592
 32
0.0
 13
2903.6699088890891
 23
1959.642046344592
 33
0.0
  0
TEXT
  5
CB8
  8
DIM
 10
2118.5270517462318
 20
1944.642046344592
 30
0.0
 40
30.0
  1
1156 SPRING CTRS
  7
TITLE3
 72
     4
 11
2330.6699088890891
 21
1959.642046344592
 31
0.0
  0
LINE
  5
CB9
  8
DIM
 10
1708.169908889088
 20
1752.3119391378159
 30
0.0
 11
1708.169908889088
 21
2032.420275290076
 31
0.0
  0
LINE
  5
CBA
  8
DIM
 10
2943.1699088890891
 20
1751.311939137815
 30
0.0
 11
2943.1699088890891
 21
2032.420275290076
 31
0.0
  0
LINE
  5
CBB
  8
DIM
 10
1738.169908889088
 20
2012.4202752900769
 30
0.0
 11
2215.6699088890882
 21
2012.4202752900769
 31
0.0
  0
LINE
  5
CBC
  8
DIM
 10
2913.16990888909
 20
2012.4202752900769
 30
0.0
 11
2445.6699088890891
 21
2012.4202752900769
 31
0.0
  0
SOLID
  5
CBD
  8
DIM
 10
1738.169908889088
 20
2017.420275290076
 30
0.0
 11
1738.169908889088
 21
2007.4202752900781
 31
0.0
 12
1708.169908889088
 22
2012.4202752900769
 32
0.0
 13
1708.169908889088
 23
2012.4202752900769
 33
0.0
  0
SOLID
  5
CBE
  8
DIM
 10
2913.16990888909
 20
2017.420275290076
 30
0.0
 11
2913.16990888909
 21
2007.4202752900781
 31
0.0
 12
2943.1699088890891
 22
2012.4202752900769
 32
0.0
 13
2943.1699088890891
 23
2012.4202752900769
 33
0.0
  0
TEXT
  5
CBF
  8
DIM
 10
2280.6699088890891
 20
1997.420275290076
 30
0.0
 40
30.0
  1
1235
  7
TITLE3
 72
     4
 11
2330.6699088890891
 21
2012.4202752900769
 31
0.0
  0
LINE
  5
CC0
  8
OUTLINE
 10
1810.169908889088
 20
848.84094710150976
 30
0.0
 11
1810.169908889088
 21
564.84094710150976
 31
0.0
  0
LINE
  5
CC1
  8
OUTLINE
 10
2872.1699088890882
 20
848.84094710150976
 30
0.0
 11
2872.1699088890882
 21
564.84094710150976
 31
0.0
  0
LINE
  5
CC2
  8
OUTLINE
 10
1810.169908889088
 20
848.84094710150976
 30
0.0
 11
2872.1699088890882
 21
848.84094710150976
 31
0.0
  0
LINE
  5
CC3
  8
OUTLINE
 10
1810.169908889088
 20
564.84094710150976
 30
0.0
 11
2872.1699088890882
 21
564.84094710150976
 31
0.0
  0
LINE
  5
CC4
  8
DIM
 10
2947.1699088890891
 20
507.34094710150958
 30
0.0
 11
3063.812510464792
 21
507.34094710150958
 31
0.0
  0
LINE
  5
CC5
  8
DIM
 10
2963.1699088890891
 20
865.34094710150976
 30
0.0
 11
3063.812510464792
 21
865.34094710150976
 31
0.0
  0
LINE
  5
CC6
  8
DIM
 10
3043.812510464792
 20
537.34094710150976
 30
0.0
 11
3043.812510464792
 21
582.7695185300812
 31
0.0
  0
LINE
  5
CC7
  8
DIM
 10
3043.812510464792
 20
835.34094710150976
 30
0.0
 11
3043.812510464792
 21
789.91237567293774
 31
0.0
  0
SOLID
  5
CC8
  8
DIM
 10
3038.812510464792
 20
537.34094710150976
 30
0.0
 11
3048.812510464792
 21
537.34094710150976
 31
0.0
 12
3043.812510464792
 22
507.34094710150958
 32
0.0
 13
3043.812510464792
 23
507.34094710150958
 33
0.0
  0
SOLID
  5
CC9
  8
DIM
 10
3038.812510464792
 20
835.34094710150976
 30
0.0
 11
3048.812510464792
 21
835.34094710150976
 31
0.0
 12
3043.812510464792
 22
865.34094710150976
 32
0.0
 13
3043.812510464792
 23
865.34094710150976
 33
0.0
  0
TEXT
  5
CCA
  8
DIM
 10
3058.812510464792
 20
647.76951853008109
 30
0.0
 40
30.0
  1
358
 50
90.0
  7
TITLE3
 72
     1
 11
3043.812510464792
 21
686.34094710150976
 31
0.0
 73
     2
  0
LINE
  5
CCB
  8
OUTLINE
 10
1760.169908889088
 20
1739.3119391378159
 30
0.0
 11
1735.169908889088
 21
1739.3119391378159
 31
0.0
  0
LINE
  5
CCC
  8
OUTLINE
 10
1735.169908889088
 20
1739.3119391378159
 30
0.0
 11
1735.169908889088
 21
1737.7119391378139
 31
0.0
  0
LINE
  5
CCD
  8
OUTLINE
 10
1761.16990888909
 20
1765.3119391378159
 30
0.0
 11
2890.1699088890891
 21
1765.3119391378159
 31
0.0
  0
TEXT
  5
CCE
  8
OVERLAY-A3
 10
2846.0745706584671
 20
110.8312138601009
 30
0.0
 40
24.0
  1
Date
  7
SIMPLEX
  0
TEXT
  5
CCF
  8
OVERLAY-A3
 10
3746.1111923736021
 20
129.50330202341121
 30
0.0
 40
24.0
  1
Revision
 41
0.7812095035934773
  7
SIMPLEX
 72
     5
 11
3851.4628740010648
 21
129.50330202341121
 31
0.0
  0
LINE
  5
CD0
  8
OVERLAY-A3
 10
3734.49134999016
 20
20.842492848317129
 30
0.0
 11
3734.49134999016
 21
168.2686557085465
 31
0.0
  0
LINE
  5
CD1
  8
OVERLAY-A3
 10
2819.3515294571471
 20
334.39557757824139
 30
0.0
 11
2819.3515294571471
 21
20.842492848317129
 31
0.0
  0
LINE
  5
CD2
  8
OVERLAY-A3
 10
3416.9136780130939
 20
20.842492848317129
 30
0.0
 11
3416.9136780130939
 21
168.2686557085465
 31
0.0
  0
LINE
  5
CD3
  8
OVERLAY-A3
 10
3416.9136780130939
 20
93.312599269463774
 30
0.0
 11
2819.3515294571471
 21
93.312599269463774
 31
0.0
  0
LINE
  5
CD4
  8
OVERLAY-A3
 10
3861.5754652378419
 20
168.2686557085465
 30
0.0
 11
2819.3515294571471
 21
168.2686557085465
 31
0.0
  0
LINE
  5
CD5
  8
OVERLAY-A3
 10
2819.3515294571471
 20
20.842492848317129
 30
0.0
 11
3861.2779580594911
 21
20.842492848317129
 31
0.0
  0
LINE
  5
CD6
  8
OVERLAY-A3
 10
3861.2779580594911
 20
20.842492848317129
 30
0.0
 11
3861.2779580594911
 21
334.39557757824139
 31
0.0
  0
LINE
  5
CD7
  8
OVERLAY-A3
 10
3861.2779580594911
 20
334.39557757824139
 30
0.0
 11
2819.3515294571471
 21
334.39557757824139
 31
0.0
  0
TEXT
  5
CD8
  8
OVERLAY-A3
 10
2844.483219103111
 20
47.922488065357669
 30
0.0
 40
20.0
  1
Scale
 41
1.370174796565947
  7
SIMPLEX
 72
     5
 11
2944.9627041846138
 21
47.922488065357669
 31
0.0
  0
TEXT
  5
CD9
  8
OVERLAY-A3
 10
3474.8591236007969
 20
128.8934315067097
 30
0.0
 40
20.0
  1
Drawing No.
  7
SIMPLEX
 72
     2
 11
3649.1448378865121
 21
128.8934315067097
 31
0.0
  0
LINE
  5
CDA
  8
OVERLAY-A3
 10
1166.7329972213281
 20
0.0
 30
0.0
 11
3890.0
 21
0.0
 31
0.0
  0
LINE
  5
CDB
  8
OVERLAY-A3
 10
3890.0
 20
0.0
 30
0.0
 11
3890.0
 21
2660.0
 31
0.0
  0
LINE
  5
CDC
  8
OVERLAY-A3
 10
3890.0
 20
2660.0
 30
0.0
 11
1166.7329972213281
 21
2660.0
 31
0.0
  0
LINE
  5
CDD
  8
OVERLAY-A3
 10
1166.7329972213281
 20
2660.0
 30
0.0
 11
1166.7329972213281
 21
0.0
 31
0.0
  0
TEXT
  5
CDE
  8
TEXT
 10
2987.06004134258
 20
47.743221339757817
 30
0.0
 40
30.0
  1
1:10
  7
TITLE3
  0
ARC
  5
CDF
  8
OUTLINE
 10
1764.669908889088
 20
1752.811939137815
 30
0.0
 40
4.5
 50
90.0
 51
270.0
  0
ARC
  5
CE0
  8
OUTLINE
 10
1775.669908889088
 20
1752.811939137815
 30
0.0
 40
4.5
 50
270.0
 51
90.0
  0
LINE
  5
CE1
  8
OUTLINE
 10
1764.669908889088
 20
1748.3119391378159
 30
0.0
 11
1775.669908889088
 21
1748.3119391378159
 31
0.0
  0
LINE
  5
CE2
  8
OUTLINE
 10
1775.669908889088
 20
1757.3119391378159
 30
0.0
 11
1764.669908889088
 21
1757.3119391378159
 31
0.0
  0
ARC
  5
CE3
  8
OUTLINE
 10
1764.669908889088
 20
1222.8119391378159
 30
0.0
 40
4.5
 50
90.0
 51
270.0
  0
ARC
  5
CE4
  8
OUTLINE
 10
1775.669908889088
 20
1222.8119391378159
 30
0.0
 40
4.5
 50
270.0
 51
90.0
  0
LINE
  5
CE5
  8
OUTLINE
 10
1764.669908889088
 20
1218.3119391378159
 30
0.0
 11
1775.669908889088
 21
1218.3119391378159
 31
0.0
  0
LINE
  5
CE6
  8
OUTLINE
 10
1775.669908889088
 20
1227.311939137815
 30
0.0
 11
1764.669908889088
 21
1227.311939137815
 31
0.0
  0
ARC
  5
CE7
  8
OUTLINE
 10
2875.66990888909
 20
1222.8119391378159
 30
0.0
 40
4.5
 50
90.0
 51
270.0
  0
ARC
  5
CE8
  8
OUTLINE
 10
2886.6699088890882
 20
1222.8119391378159
 30
0.0
 40
4.5
 50
270.0
 51
90.0
  0
LINE
  5
CE9
  8
OUTLINE
 10
2875.66990888909
 20
1218.3119391378159
 30
0.0
 11
2886.6699088890882
 21
1218.3119391378159
 31
0.0
  0
LINE
  5
CEA
  8
OUTLINE
 10
2886.6699088890882
 20
1227.311939137815
 30
0.0
 11
2875.66990888909
 21
1227.311939137815
 31
0.0
  0
ARC
  5
CEB
  8
OUTLINE
 10
2886.6699088890882
 20
1752.811939137815
 30
0.0
 40
4.5
 50
270.0
 51
90.0
  0
ARC
  5
CEC
  8
OUTLINE
 10
2875.66990888909
 20
1752.811939137815
 30
0.0
 40
4.5
 50
90.0
 51
270.0
  0
LINE
  5
CED
  8
OUTLINE
 10
2886.6699088890882
 20
1748.3119391378159
 30
0.0
 11
2875.66990888909
 21
1748.3119391378159
 31
0.0
  0
LINE
  5
CEE
  8
OUTLINE
 10
2875.66990888909
 20
1757.3119391378159
 30
0.0
 11
2886.6699088890882
 21
1757.3119391378159
 31
0.0
  0
LINE
  5
CEF
  8
CLEAR
 10
1235.169908889088
 20
1236.3119391378159
 30
0.0
 11
1235.169908889088
 21
1739.3119391378159
 31
0.0
  0
LINE
  5
CF0
  8
CLEAR
 10
1235.169908889088
 20
1739.3119391378159
 30
0.0
 11
1687.5909033552109
 21
1739.3119391378159
 31
0.0
  0
LINE
  5
CF1
  8
CLEAR
 10
1235.169908889088
 20
1236.3119391378159
 30
0.0
 11
1687.5909033552109
 21
1236.3119391378159
 31
0.0
  0
TEXT
  5
CF2
  8
TEXT
 10
1279.9514319406751
 20
1248.9439863457301
 30
0.0
 40
30.0
  1
500 min CLEARANCE
 50
90.0
  7
TITLE3
  0
LINE
  5
CF3
  8
DIM
 10
2365.6018522223239
 20
1116.651132519876
 30
0.0
 11
2365.6018522223239
 21
1061.665229812329
 31
0.0
  0
LINE
  5
CF4
  8
DIM
 10
2343.9478246262602
 20
1116.651132519876
 30
0.0
 11
2343.9478246262602
 21
1061.665229812329
 31
0.0
  0
LINE
  5
CF5
  8
DIM
 10
2343.9478246262602
 20
1061.665229812329
 30
0.0
 11
2365.6018522223239
 21
1061.665229812329
 31
0.0
  0
LINE
  5
CF6
  8
DIM
 10
2383.3508347759562
 20
1116.651132519876
 30
0.0
 11
2365.6018522223239
 21
1116.651132519876
 31
0.0
  0
LINE
  5
CF7
  8
DIM
 10
2354.7748384242918
 20
1163.6552140121939
 30
0.0
 11
2383.3508347759562
 21
1116.651132519876
 31
0.0
  0
LINE
  5
CF8
  8
DIM
 10
2354.7748384242918
 20
1163.6552140121939
 30
0.0
 11
2326.198842072627
 21
1116.651132519876
 31
0.0
  0
LINE
  5
CF9
  8
DIM
 10
2326.198842072627
 20
1116.651132519876
 30
0.0
 11
2343.9478246262602
 21
1116.651132519876
 31
0.0
  0
LINE
  5
CFA
  8
DIM
 10
2570.4435939366658
 20
1883.7492044896239
 30
0.0
 11
2599.0195902883311
 21
1836.7451229973069
 31
0.0
  0
LINE
  5
CFB
  8
DIM
 10
2599.0195902883311
 20
1836.7451229973069
 30
0.0
 11
2581.2706077347002
 21
1836.7451229973069
 31
0.0
  0
LINE
  5
CFC
  8
DIM
 10
2581.2706077347002
 20
1836.7451229973069
 30
0.0
 11
2581.2706077347002
 21
1781.7592202897599
 31
0.0
  0
LINE
  5
CFD
  8
DIM
 10
2559.6165801386351
 20
1836.7451229973069
 30
0.0
 11
2559.6165801386351
 21
1781.7592202897599
 31
0.0
  0
LINE
  5
CFE
  8
DIM
 10
2559.6165801386351
 20
1781.7592202897599
 30
0.0
 11
2581.2706077347002
 21
1781.7592202897599
 31
0.0
  0
LINE
  5
CFF
  8
DIM
 10
2541.8675975850028
 20
1836.7451229973069
 30
0.0
 11
2559.6165801386351
 21
1836.7451229973069
 31
0.0
  0
LINE
  5
D00
  8
DIM
 10
2570.4435939366658
 20
1883.7492044896239
 30
0.0
 11
2541.8675975850028
 21
1836.7451229973069
 31
0.0
  0
LINE
  5
D01
  8
DIM
 10
3500.2684308734451
 20
1886.571385675576
 30
0.0
 11
3500.2684308734451
 21
1831.58548296803
 31
0.0
  0
LINE
  5
D02
  8
DIM
 10
3521.9224584695112
 20
1886.571385675576
 30
0.0
 11
3521.9224584695112
 21
1831.58548296803
 31
0.0
  0
LINE
  5
D03
  8
DIM
 10
3500.2684308734451
 20
1831.58548296803
 30
0.0
 11
3521.9224584695112
 21
1831.58548296803
 31
0.0
  0
LINE
  5
D04
  8
DIM
 10
3539.6714410231411
 20
1886.571385675576
 30
0.0
 11
3521.9224584695112
 21
1886.571385675576
 31
0.0
  0
LINE
  5
D05
  8
DIM
 10
3511.0954446714791
 20
1933.575467167894
 30
0.0
 11
3539.6714410231411
 21
1886.571385675576
 31
0.0
  0
LINE
  5
D06
  8
DIM
 10
3511.0954446714791
 20
1933.575467167894
 30
0.0
 11
3482.5194483198129
 21
1886.571385675576
 31
0.0
  0
LINE
  5
D07
  8
DIM
 10
3482.5194483198129
 20
1886.571385675576
 30
0.0
 11
3500.2684308734451
 21
1886.571385675576
 31
0.0
  0
TEXT
  5
D08
  8
TEXT
 10
2135.463071822905
 20
1466.982451042117
 30
0.0
 40
75.0
  1
ISD150
  7
TITLE5
 72
     1
 11
2312.2487861086188
 21
1466.982451042117
 31
0.0
  0
INSERT
  5
D09
  8
OUTLINE
  2
NEW_BLOCK
 10
1212.1654284043991
 20
20.816146152164482
 30
0.0
 41
0.75
 42
0.75
 43
0.75
  0
ENDSEC
  0
EOF
