  0
SECTION
  2
HEADER
  9
$ACADVER
  1
AC1009
  9
$INSBASE
 10
0.0
 20
0.0
 30
0.0
  9
$EXTMIN
 10
769.16746608883113
 20
-0.1623436061636312
 30
-0.0000000349181948
  9
$EXTMAX
 10
3890.2374484958668
 20
2343.8880649630992
 30
0.0000000814935747
  9
$LIMMIN
 10
0.0
 20
0.0
  9
$LIMMAX
 10
3890.0
 20
2660.0
  9
$ORTHOMODE
 70
     1
  9
$REGENMODE
 70
     1
  9
$FILLMODE
 70
     1
  9
$QTEXTMODE
 70
     0
  9
$MIRRTEXT
 70
     0
  9
$DRAGMODE
 70
     2
  9
$LTSCALE
 40
100.0
  9
$OSMODE
 70
     0
  9
$ATTMODE
 70
     1
  9
$TEXTSIZE
 40
25.0
  9
$TRACEWID
 40
0.05
  9
$TEXTSTYLE
  7
TITLE3
  9
$CLAYER
  8
0
  9
$CELTYPE
  6
BYLAYER
  9
$CECOLOR
 62
   256
  9
$DIMSCALE
 40
1.0
  9
$DIMASZ
 40
0.12
  9
$DIMEXO
 40
0.05
  9
$DIMDLI
 40
0.5
  9
$DIMRND
 40
0.0
  9
$DIMDLE
 40
0.0
  9
$DIMEXE
 40
0.1
  9
$DIMTP
 40
0.1
  9
$DIMTM
 40
0.1
  9
$DIMTXT
 40
0.12
  9
$DIMCEN
 40
0.0
  9
$DIMTSZ
 40
0.0
  9
$DIMTOL
 70
     0
  9
$DIMLIM
 70
     0
  9
$DIMTIH
 70
     1
  9
$DIMTOH
 70
     1
  9
$DIMSE1
 70
     0
  9
$DIMSE2
 70
     0
  9
$DIMTAD
 70
     0
  9
$DIMZIN
 70
     7
  9
$DIMBLK
  1

  9
$DIMASO
 70
     0
  9
$DIMSHO
 70
     0
  9
$DIMPOST
  1

  9
$DIMAPOST
  1
mm
  9
$DIMALT
 70
     0
  9
$DIMALTD
 70
     2
  9
$DIMALTF
 40
25.399999999999999
  9
$DIMLFAC
 40
1.0
  9
$DIMTOFL
 70
     0
  9
$DIMTVP
 40
0.0
  9
$DIMTIX
 70
     0
  9
$DIMSOXD
 70
     0
  9
$DIMSAH
 70
     0
  9
$DIMBLK1
  1

  9
$DIMBLK2
  1

  9
$DIMSTYLE
  2
AM_ANSI
  9
$DIMCLRD
 70
   256
  9
$DIMCLRE
 70
   256
  9
$DIMCLRT
 70
     2
  9
$DIMTFAC
 40
0.71
  9
$DIMGAP
 40
0.06
  9
$LUNITS
 70
     2
  9
$LUPREC
 70
     2
  9
$SKETCHINC
 40
0.1
  9
$FILLETRAD
 40
0.0
  9
$AUNITS
 70
     0
  9
$AUPREC
 70
     2
  9
$MENU
  1
\acad12\support\cnc
  9
$ELEVATION
 40
0.0
  9
$PELEVATION
 40
0.0
  9
$THICKNESS
 40
0.0
  9
$LIMCHECK
 70
     0
  9
$BLIPMODE
 70
     0
  9
$CHAMFERA
 40
0.0
  9
$CHAMFERB
 40
0.0
  9
$SKPOLY
 70
     0
  9
$TDCREATE
 40
2450764.4272488421
  9
$TDUPDATE
 40
2455136.4134878358
  9
$TDINDWG
 40
0.8675199653
  9
$TDUSRTIMER
 40
0.8675185185
  9
$USRTIMER
 70
     1
  9
$ANGBASE
 50
0.0
  9
$ANGDIR
 70
     0
  9
$PDMODE
 70
     2
  9
$PDSIZE
 40
10.0
  9
$PLINEWID
 40
0.0
  9
$COORDS
 70
     0
  9
$SPLFRAME
 70
     0
  9
$SPLINETYPE
 70
     6
  9
$SPLINESEGS
 70
     8
  9
$ATTDIA
 70
     1
  9
$ATTREQ
 70
     1
  9
$HANDLING
 70
     1
  9
$HANDSEED
  5
4C0B
  9
$SURFTAB1
 70
     6
  9
$SURFTAB2
 70
     6
  9
$SURFTYPE
 70
     6
  9
$SURFU
 70
     6
  9
$SURFV
 70
     6
  9
$UCSNAME
  2

  9
$UCSORG
 10
0.0
 20
0.0
 30
0.0
  9
$UCSXDIR
 10
1.0
 20
0.0
 30
0.0
  9
$UCSYDIR
 10
0.0
 20
1.0
 30
0.0
  9
$PUCSNAME
  2

  9
$PUCSORG
 10
0.0
 20
0.0
 30
0.0
  9
$PUCSXDIR
 10
1.0
 20
0.0
 30
0.0
  9
$PUCSYDIR
 10
0.0
 20
1.0
 30
0.0
  9
$USERI1
 70
     0
  9
$USERI2
 70
     0
  9
$USERI3
 70
     0
  9
$USERI4
 70
     0
  9
$USERI5
 70
     0
  9
$USERR1
 40
0.0
  9
$USERR2
 40
0.0
  9
$USERR3
 40
0.0
  9
$USERR4
 40
0.0
  9
$USERR5
 40
0.0
  9
$WORLDVIEW
 70
     1
  9
$SHADEDGE
 70
     3
  9
$SHADEDIF
 70
    70
  9
$TILEMODE
 70
     1
  9
$MAXACTVP
 70
    16
  9
$PLIMCHECK
 70
     0
  9
$PEXTMIN
 10
1.0000000000000000E+020
 20
1.0000000000000000E+020
 30
1.0000000000000000E+020
  9
$PEXTMAX
 10
-1.0000000000000000E+020
 20
-1.0000000000000000E+020
 30
-1.0000000000000000E+020
  9
$PLIMMIN
 10
0.0
 20
0.0
  9
$PLIMMAX
 10
12.0
 20
9.0
  9
$UNITMODE
 70
     0
  9
$VISRETAIN
 70
     0
  9
$PLINEGEN
 70
     0
  9
$PSLTSCALE
 70
     0
  0
ENDSEC
  0
SECTION
  2
TABLES
  0
TABLE
  2
VPORT
 70
     1
  0
VPORT
  2
*ACTIVE
 70
     0
 10
0.0
 20
0.0
 11
1.0
 21
1.0
 12
49.302345140637158
 22
-0.0227161792606694
 13
0.0
 23
0.0
 14
25.0
 24
25.0
 15
100.0
 25
100.0
 16
0.0
 26
0.0
 36
1.0
 17
2280.4001121517122
 27
1171.885576857728
 37
0.0
 40
2358.6550840120608
 41
1.9095634095634091
 42
50.0
 43
0.0
 44
0.0
 50
0.0
 51
0.0
 71
     0
 72
   100
 73
     1
 74
     0
 75
     0
 76
     0
 77
     0
 78
     0
  0
ENDTAB
  0
TABLE
  2
LTYPE
 70
    19
  0
LTYPE
  2
CONTINUOUS
 70
     0
  3
Solid line
 72
    65
 73
     0
 40
0.0
  0
LTYPE
  2
PHANTOM
 70
     0
  3
Phantom ______  __  __  ______  __  __  ______
 72
    65
 73
     6
 40
2.5
 49
1.25
 49
-0.25
 49
0.25
 49
-0.25
 49
0.25
 49
-0.25
  0
LTYPE
  2
HIDDEN
 70
     0
  3
__ __ __ __ __ __ __ __ __ __ __ __ __ __ __ __
 72
    65
 73
     2
 40
0.375
 49
0.25
 49
-0.125
  0
LTYPE
  2
PHANTOM2
 70
     0
  3
Phantom (.5x) ___ _ _ ___ _ _ ___ _ _ ___ _ _
 72
    65
 73
     6
 40
1.25
 49
0.625
 49
-0.125
 49
0.125
 49
-0.125
 49
0.125
 49
-0.125
  0
LTYPE
  2
CENTER
 70
     0
  3
Center ____ _ ____ _ ____ _ ____ _ ____ _ ____
 72
    65
 73
     4
 40
2.0
 49
1.25
 49
-0.25
 49
0.25
 49
-0.25
  0
LTYPE
  2
AMCONSTR
 70
     0
  3
_______________________
 72
    65
 73
     2
 40
9999.0
 49
9999.0
 49
0.0
  0
LTYPE
  2
CENTER2
 70
     0
  3
Center (.5x) ___ _ ___ _ ___ _ ___ _ ___ _ ___
 72
    65
 73
     4
 40
1.125
 49
0.75
 49
-0.125
 49
0.125
 49
-0.125
  0
LTYPE
  2
HIDDEN2
 70
     0
  3
Hidden (.5x) _ _ _ _ _ _ _ _ _ _ _ _ _ _ _ _ _
 72
    65
 73
     2
 40
0.1875
 49
0.125
 49
-0.0625
  0
LTYPE
  2
AMZIGZAG2
 70
     0
  3
/\/-/\/-/\/-/\/-/\/-/\/
 72
    65
 73
     2
 40
0.4401
 49
0.0001
 49
-0.4400000000000003
  0
LTYPE
  2
ACANSTGB
 70
     0
  3
__ . . __ . .
 72
    65
 73
     6
 40
0.35433070866
 49
0.15748031496
 49
-0.03937007874
 49
0.03937007874
 49
-0.03937007874
 49
0.03937007874
 49
-0.03937007874
  0
LTYPE
  2
ACANSTGL
 70
     0
  3
_ _ _ _ _
 72
    65
 73
     2
 40
0.11811023622
 49
0.07874015748
 49
-0.03937007874
  0
LTYPE
  2
ASULTYPE
 70
     0
  3
Solid line
 72
    65
 73
     2
 40
3.0
 49
2.5
 49
0.5
  0
LTYPE
  2
ASVLTYPE
 70
     0
  3
__ __ __ __ __ __ __ __ __ __ __ __ __ __ __ __ __ __ __ __ __
 72
    65
 73
     2
 40
0.75
 49
0.5
 49
-0.25
  0
LTYPE
  2
AM_ISO02W050
 70
     0
  3
__ __ __ __ __ __ __ __ __ __ __ __ __ __ __
 72
    65
 73
     2
 40
7.5
 49
6.0
 49
-1.5
  0
LTYPE
  2
AM_ISO08W050
 70
     0
  3
____ . ____ . ____ . ____ . ____ . ____ . ____
 72
    65
 73
     4
 40
18.0
 49
12.0
 49
-1.5
 49
3.0
 49
-1.5
  0
LTYPE
  2
AM_ISO09W050
 70
     0
  3
_____ . . _____ . . _____ . . ____ .. ____
 72
    65
 73
     6
 40
22.5
 49
12.0
 49
-1.5
 49
3.0
 49
-1.5
 49
3.0
 49
-1.5
  0
LTYPE
  2
AM_ISO08W050X2
 70
     0
  3
__ . __ . __ . __ . __ . __
 72
    65
 73
     4
 40
9.0
 49
6.0
 49
-0.75
 49
1.5
 49
-0.75
  0
LTYPE
  2
AM_ISO02W050X2
 70
     0
  3
 _ _ _ _ _ _ _ _ _ _ _ _
 72
    65
 73
     2
 40
3.75
 49
3.0
 49
-0.75
  0
LTYPE
  2
AMZIGZAG
 70
     0
  3
/\/-/\/-/\/-/\/-/\/-/\/
 72
    65
 73
     2
 40
11.0001
 49
0.0001
 49
-11.0
  0
ENDTAB
  0
TABLE
  2
LAYER
 70
     1
  0
LAYER
  2
0
 70
     0
 62
     7
  6
CONTINUOUS
  0
ENDTAB
  0
TABLE
  2
STYLE
 70
     9
  0
STYLE
  2
STANDARD
 70
     0
 40
0.0
 41
1.0
 50
0.0
 71
     0
 42
0.2
  3
txt
  4

  0
STYLE
  2
ANNOTATIVE
 70
     0
 40
0.0
 41
1.0
 50
0.0
 71
     0
 42
0.2
  3
txt
  4

  0
STYLE
  2
TITLE3
 70
     0
 40
25.0
 41
1.0
 50
0.0
 71
     0
 42
25.0
  3
SIMPLEX.shx
  4

  0
STYLE
  2
SIMPLEX
 70
     0
 40
40.0
 41
1.0
 50
0.0
 71
     0
 42
25.0
  3
SIMPLEX
  4

  0
STYLE
  2
TITLE5
 70
     0
 40
25.0
 41
1.0
 50
0.0
 71
     0
 42
25.0
  3
SIMPLEX
  4

  0
STYLE
  2

 70
     1
 40
0.0
 41
1.0
 50
0.0
 71
     0
 42
25.0
  3
genltshp.shx
  4

  0
STYLE
  2
ACANSTS
 70
     0
 40
1.0
 41
1.0
 50
0.0
 71
     0
 42
25.0
  3
romans.shx
  4

  0
STYLE
  2
ACANSGDT
 70
     0
 40
0.0
 41
1.0
 50
0.0
 71
     0
 42
25.0
  3
amgdt.shx
  4

  0
ENDTAB
  0
TABLE
  2
VIEW
 70
     0
  0
ENDTAB
  0
TABLE
  2
UCS
 70
     0
  0
ENDTAB
  0
TABLE
  2
APPID
 70
    28
  0
APPID
  2
ACAD
 70
     0
  0
APPID
  2
ACADANNOTATIVE
 70
     0
  0
APPID
  2
ACAD_MLEADERVER
 70
     0
  0
APPID
  2
ACAD_EXEMPT_FROM_CAD_STANDARDS
 70
     0
  0
APPID
  2
ACAECLAYERSTANDARD
 70
     0
  0
APPID
  2
ACAD_DSTYLE_DIMTEXT_FILL
 70
     0
  0
APPID
  2
ACAD_DSTYLE_DIMEXT_LENGTH
 70
     0
  0
APPID
  2
ACAD_DSTYLE_DIMEXT_ENABLED
 70
     0
  0
APPID
  2
ACAD_DSTYLE_DIM_LINETYPE
 70
     0
  0
APPID
  2
ACAD_DSTYLE_DIM_EXT1_LINETYPE
 70
     0
  0
APPID
  2
ACAD_DSTYLE_DIM_EXT2_LINETYPE
 70
     0
  0
APPID
  2
ACAD_DSTYLE_DIMJOGGED_JOGA
 70
     0
  0
APPID
  2
ACAD_DSTYLE_DIMARC_LENGTH_
 70
     0
  0
APPID
  2
ACAD_PSEXT
 70
     0
  0
APPID
  2
CONTENTBLOCKICON
 70
     0
  0
APPID
  2
GENIUS_GENDIM_13
 70
     0
  0
APPID
  2
GENIUS_GENDTOL_13
 70
     0
  0
APPID
  2
GENIUS_GE3DTOL_13
 70
     0
  0
APPID
  2
MCAD_NO_VIS
 70
     0
  0
APPID
  2
ACAD_TEMP_GRAPHIC
 70
     0
  0
APPID
  2
AD_DRAW
 70
     0
  0
APPID
  2
ACATTRIBSERVICES
 70
     0
  0
APPID
  2
ASURF_PCURVE_APPNAME
 70
     0
  0
APPID
  2
AMG_3D2D_5_0
 70
     0
  0
APPID
  2
DESIGNERASSEMBLIES
 70
     0
  0
APPID
  2
ACADM_DIM_EDIT
 70
     0
  0
APPID
  2
AMDT_DM_ADJ
 70
     0
  0
APPID
  2
AMG_3D2D_5_00
 70
     0
  0
ENDTAB
  0
TABLE
  2
DIMSTYLE
 70
    10
  0
DIMSTYLE
  2
STANDARD
 70
     0
  3

  4

  5

  6

  7

 40
1.0
 41
0.18
 42
0.0625
 43
0.38
 44
0.18
 45
0.0
 46
0.0
 47
0.0
 48
0.0
140
0.18
141
0.09
142
0.0
143
25.399999999999999
144
1.0
145
0.0
146
1.0
147
0.09
 71
     0
 72
     0
 73
     1
 74
     1
 75
     0
 76
     0
 77
     0
 78
     0
170
     0
171
     2
172
     0
173
     0
174
     0
175
     0
176
     0
177
     0
178
     0
  0
DIMSTYLE
  2
ANNOTATIVE
 70
     0
  3

  4

  5

  6

  7

 40
1.0
 41
0.18
 42
0.0625
 43
0.38
 44
0.18
 45
0.0
 46
0.0
 47
0.0
 48
0.0
140
0.18
141
0.09
142
0.0
143
25.399999999999999
144
1.0
145
0.0
146
1.0
147
0.09
 71
     0
 72
     0
 73
     1
 74
     1
 75
     0
 76
     0
 77
     0
 78
     0
170
     0
171
     2
172
     0
173
     0
174
     0
175
     0
176
     0
177
     0
178
     0
  0
DIMSTYLE
  2
COPY_OF_STANDARD
 70
     0
  3

  4

  5

  6

  7

 40
1.0
 41
30.0
 42
20.0
 43
0.38
 44
20.0
 45
0.0
 46
0.0
 47
0.0
 48
0.0
140
25.0
141
0.09
142
0.0
143
25.399999999999999
144
1.0
145
0.0
146
1.0
147
20.0
 71
     0
 72
     0
 73
     0
 74
     0
 75
     0
 76
     0
 77
     0
 78
     0
170
     0
171
     2
172
     0
173
     0
174
     0
175
     0
176
     7
177
     7
178
     7
  0
DIMSTYLE
  2
AM_ANSI
 70
     0
  3

  4
mm
  5

  6

  7

 40
1.0
 41
0.12
 42
0.05
 43
0.5
 44
0.1
 45
0.0
 46
0.0
 47
0.1
 48
0.1
140
0.12
141
0.0
142
0.0
143
25.399999999999999
144
1.0
145
0.0
146
0.71
147
0.06
 71
     0
 72
     0
 73
     1
 74
     1
 75
     0
 76
     0
 77
     0
 78
     7
170
     0
171
     2
172
     0
173
     0
174
     0
175
     0
176
   256
177
   256
178
     2
  0
DIMSTYLE
  2
AM_ANSI$3
 70
     0
  3

  4
mm
  5

  6

  7

 40
1.0
 41
0.12
 42
0.05
 43
0.5
 44
0.1
 45
0.0
 46
0.0
 47
0.1
 48
0.1
140
0.12
141
0.0
142
0.0
143
25.399999999999999
144
1.0
145
0.0
146
0.71
147
0.06
 71
     0
 72
     0
 73
     1
 74
     1
 75
     0
 76
     0
 77
     0
 78
     7
170
     0
171
     2
172
     0
173
     0
174
     0
175
     0
176
   256
177
   256
178
     2
  0
DIMSTYLE
  2
AM_ANSI$4
 70
     0
  3

  4
mm
  5

  6

  7

 40
1.0
 41
0.12
 42
0.05
 43
0.5
 44
0.1
 45
0.0
 46
0.0
 47
0.1
 48
0.1
140
0.12
141
0.0
142
0.0
143
25.399999999999999
144
1.0
145
0.0
146
0.71
147
0.06
 71
     0
 72
     0
 73
     1
 74
     1
 75
     0
 76
     0
 77
     0
 78
     7
170
     0
171
     2
172
     0
173
     0
174
     0
175
     0
176
   256
177
   256
178
     2
  0
DIMSTYLE
  2
AM_ANSI$7
 70
     0
  3

  4
mm
  5

  6

  7

 40
1.0
 41
0.12
 42
0.05
 43
0.5
 44
0.1
 45
0.0
 46
0.0
 47
0.1
 48
0.1
140
0.12
141
0.0
142
0.0
143
25.399999999999999
144
1.0
145
0.0
146
0.71
147
0.06
 71
     0
 72
     0
 73
     1
 74
     1
 75
     0
 76
     0
 77
     0
 78
     7
170
     0
171
     2
172
     0
173
     0
174
     0
175
     0
176
   256
177
   256
178
     2
  0
DIMSTYLE
  2
AM_ANSI$SF
 70
     0
  3

  4
mm
  5

  6

  7

 40
1.0
 41
0.12
 42
0.05
 43
0.5
 44
0.1
 45
0.0
 46
0.0
 47
0.1
 48
0.1
140
0.12
141
0.0
142
0.0
143
25.399999999999999
144
1.0
145
0.0
146
0.71
147
0.06
 71
     0
 72
     0
 73
     1
 74
     1
 75
     1
 76
     1
 77
     0
 78
     7
170
     0
171
     2
172
     0
173
     0
174
     0
175
     0
176
   256
177
   256
178
     2
  0
DIMSTYLE
  2
AM_ANSI$SH
 70
     0
  3

  4
mm
  5

  6

  7

 40
1.0
 41
0.12
 42
0.05
 43
0.5
 44
0.1
 45
0.0
 46
0.0
 47
0.1
 48
0.1
140
0.12
141
0.0
142
0.0
143
25.399999999999999
144
1.0
145
0.0
146
0.71
147
0.06
 71
     0
 72
     0
 73
     1
 74
     1
 75
     1
 76
     1
 77
     0
 78
     7
170
     0
171
     2
172
     0
173
     1
174
     0
175
     0
176
   256
177
   256
178
     2
  0
ENDTAB
  0
ENDSEC
  0
SECTION
  2
BLOCKS
  0
BLOCK
  8
0
  2
$MODEL_SPACE
 70
     0
 10
0.0
 20
0.0
 30
0.0
  3
$MODEL_SPACE
  1

  0
ENDBLK
  5
4AEE
  8
0
  0
BLOCK
 67
     1
  8
0
  2
$PAPER_SPACE
 70
     0
 10
0.0
 20
0.0
 30
0.0
  3
$PAPER_SPACE
  1

  0
ENDBLK
  5
4AEA
 67
     1
  8
0
  0
BLOCK
  8
0
  2
GENAXEH
 70
     0
 10
0.0
 20
0.0
 30
0.0
  3
GENAXEH
  1

  0
LINE
  5
4286
  8
0
 10
-1.0
 20
0.0
 30
0.0
 11
1.0
 21
0.0
 31
0.0
  0
ENDBLK
  5
4288
  8
0
  0
BLOCK
  8
0
  2
*U3
 70
     1
 10
0.0
 20
0.0
 30
0.0
  3
*U3
  1

  0
TEXT
  5
45F4
  8
0
 62
     7
 10
1535.801945708899
 20
599.37521223834915
 30
0.0
 40
25.0
  1
1379
  0
ENDBLK
  5
45F6
  8
0
  0
BLOCK
  8
0
  2
*U4
 70
     1
 10
0.0
 20
0.0
 30
0.0
  3
*U4
  1

  0
TEXT
  5
45F8
  8
0
 62
     7
 10
1594.301945708899
 20
525.36937247759829
 30
0.0
 40
25.0
  1
1496
  0
ENDBLK
  5
45FA
  8
0
  0
BLOCK
  8
0
  2
*U5
 70
     1
 10
0.0
 20
0.0
 30
0.0
  3
*U5
  1

  0
TEXT
  5
45FC
  8
0
 62
     7
 10
1477.468612375565
 20
1155.570207392986
 30
0.0
 40
25.0
  1
1412 CTRS
  0
ENDBLK
  5
45FE
  8
0
  0
BLOCK
  8
0
  2
*U6
 70
     1
 10
0.0
 20
0.0
 30
0.0
  3
*U6
  1

  0
TEXT
  5
4600
  8
0
 62
     7
 10
1215.3686123755649
 20
1232.659259580003
 30
0.0
 40
25.0
  1
1472 (SPRING MTG CTRS - OPTION)
  0
ENDBLK
  5
4602
  8
0
  0
BLOCK
  8
0
  2
*U7
 70
     1
 10
0.0
 20
0.0
 30
0.0
  3
*U7
  1

  0
TEXT
  5
4604
  8
0
 62
     7
 10
1523.3019457088949
 20
1442.8475216272479
 30
0.0
 40
25.0
  1
861
  0
ENDBLK
  5
4606
  8
0
  0
BLOCK
  8
0
  2
*U8
 70
     1
 10
0.0
 20
0.0
 30
0.0
  3
*U8
  1

  0
TEXT
  5
4608
  8
0
 62
     7
 10
1510.801945708896
 20
2185.0165239304079
 30
0.0
 40
25.0
  1
1237
  0
ENDBLK
  5
460A
  8
0
  0
BLOCK
  8
0
  2
*U9
 70
     1
 10
0.0
 20
0.0
 30
0.0
  3
*U9
  1

  0
TEXT
  5
47DE
  8
0
 10
-0.000000000001819
 20
0.0000018156215305
 30
0.0
 40
50.0
  1
ISD160K
  7
TITLE3
  0
ENDBLK
  5
47E0
  8
0
  0
BLOCK
  8
0
  2
*U10
 70
     1
 10
0.0
 20
0.0
 30
0.0
  3
*U10
  1

  0
TEXT
  5
47E2
  8
0
 10
1425.7852526015399
 20
733.30560309864734
 30
0.0
 40
50.0
  1
ISD223K
  7
TITLE3
  0
ENDBLK
  5
47E4
  8
0
  0
BLOCK
  8
0
  2
*U11
 70
     1
 10
0.0
 20
0.0
 30
0.0
  3
*U11
  1

  0
TEXT
  5
47E6
  8
0
 10
1425.7852526015399
 20
1818.277555554547
 30
0.0
 40
50.0
  1
ISD223K
  7
TITLE3
  0
ENDBLK
  5
47E8
  8
0
  0
BLOCK
  8
0
  2
*U12
 70
     1
 10
0.0
 20
0.0
 30
0.0
  3
*U12
  1

  0
TEXT
  5
47EA
  8
0
 10
3216.9941725288868
 20
843.97594360285984
 30
0.0
 40
50.0
  1
ISD223K
  7
TITLE3
  0
ENDBLK
  5
47EC
  8
0
  0
ENDSEC
  0
SECTION
  2
ENTITIES
  0
LINE
  5
16A0
  8
0
  6
CONTINUOUS
 62
     7
 10
2594.9227983787791
 20
749.67222883198542
 30
0.0
 11
2594.9227983787791
 21
745.49736638387105
 31
0.0
  0
LINE
  5
16A6
  8
0
  6
CONTINUOUS
 62
     7
 10
2594.922798378781
 20
749.67222883198542
 30
0.0
 11
2594.9227983787791
 21
744.49736638387071
 31
0.0
  0
LINE
  5
16A9
  8
0
  6
CONTINUOUS
 62
     7
 10
2594.922798378781
 20
749.67222883198542
 30
0.0
 11
2594.922798378781
 21
742.49736638387071
 31
0.0
  0
LINE
  5
16F9
  8
0
 62
     7
 10
2528.222798378778
 20
1092.1103027039251
 30
0.0
 11
2528.222798378778
 21
1010.812813768925
 31
0.0
  0
LINE
  5
16FA
  8
0
 62
     7
 10
2525.722798378778
 20
1094.6103027039251
 30
0.0
 11
2525.722798378778
 21
1010.812813768925
 31
0.0
  0
LINE
  5
16FB
  8
0
 62
     7
 10
2528.222798378778
 20
1092.1103027039251
 30
0.0
 11
2556.2227984817782
 21
1092.1103027039251
 31
0.0
  0
LINE
  5
16FC
  8
0
 62
     7
 10
2525.722798378778
 20
1094.6103027039251
 30
0.0
 11
2556.2227984817782
 21
1094.6103027039251
 31
0.0
  0
POINT
  5
16FD
  8
0
 62
     7
 10
2542.2227983787789
 20
1092.1103027039251
 30
0.0
 50
0.000000000000007
  0
LINE
  5
16FE
  8
0
 62
     7
 10
2556.2227984817782
 20
1094.6103027039251
 30
0.0
 11
2556.2227984817782
 21
1092.1103027039251
 31
0.0
  0
LINE
  5
16FF
  8
0
 62
     7
 10
2528.222798378778
 20
1005.852813768925
 30
0.0
 11
2525.722798378778
 21
1005.852813768925
 31
0.0
  0
LINE
  5
170A
  8
0
 62
     7
 10
984.22279837878114
 20
1092.1103027039251
 30
0.0
 11
984.22279837878114
 21
1005.852813768925
 31
0.0
  0
LINE
  5
170B
  8
0
 62
     7
 10
986.72279837878148
 20
1094.6103027039251
 30
0.0
 11
986.72279837878204
 21
1005.852813768925
 31
0.0
  0
LINE
  5
170C
  8
0
 62
     7
 10
984.22279837878114
 20
1092.1103027039251
 30
0.0
 11
956.22279827578211
 21
1092.1103027039251
 31
0.0
  0
LINE
  5
170D
  8
0
 62
     7
 10
986.72279837878148
 20
1094.6103027039251
 30
0.0
 11
956.22279827578211
 21
1094.6103027039251
 31
0.0
  0
POINT
  5
170E
  8
0
 62
     7
 10
970.22279837878102
 20
1092.1103027039251
 30
0.0
 50
180.0
  0
LINE
  5
170F
  8
0
 62
     7
 10
956.22279827578211
 20
1094.6103027039251
 30
0.0
 11
956.22279827578211
 21
1092.1103027039251
 31
0.0
  0
LINE
  5
1710
  8
0
 62
     7
 10
984.22279837878114
 20
1005.852813768925
 30
0.0
 11
986.72279837878204
 21
1005.852813768925
 31
0.0
  0
ARC
  5
1711
  8
0
 62
     7
 10
971.70030944277607
 20
2074.0435774275929
 30
0.0
 40
6.0000000000000151
 50
270.0
 51
90.0
  0
LINE
  5
1712
  8
0
 62
     7
 10
968.70030944277596
 20
2080.0435774275929
 30
0.0
 11
971.70030944277607
 21
2080.0435774275929
 31
0.0
  0
ARC
  5
1713
  8
0
 62
     7
 10
968.70030944277596
 20
2074.0435774275929
 30
0.0
 40
6.0000000000000151
 50
90.0
 51
270.0
  0
LINE
  5
1714
  8
0
 62
     7
 10
971.70030944277607
 20
2068.0435774275929
 30
0.0
 11
968.70030944277596
 21
2068.0435774275929
 31
0.0
  0
LINE
  5
1715
  8
0
 62
     7
 10
956.20530944277652
 20
2060.0435774275929
 30
0.0
 11
986.72279837877579
 21
2060.0435774275929
 31
0.0
  0
LINE
  5
1716
  8
0
 62
     7
 10
986.72279837877579
 20
2088.043577427592
 30
0.0
 11
956.20530944277652
 21
2088.043577427592
 31
0.0
  0
LINE
  5
1717
  8
0
 62
     7
 10
956.20530944277652
 20
2088.043577427592
 30
0.0
 11
956.20530944277652
 21
2060.0435774275929
 31
0.0
  0
POINT
  5
171A
  8
0
 62
     7
 10
970.22279837877568
 20
2074.0435774275929
 30
0.0
 50
180.0
  0
LINE
  5
1819
  8
0
 62
     7
 10
2161.7227983787752
 20
1499.5403805683641
 30
0.0
 11
1300.722798378775
 21
1499.5403805683641
 31
0.0
  0
LINE
  5
181A
  8
0
 62
     7
 10
2161.7227983787752
 20
1558.5403805683659
 30
0.0
 11
2161.7227983787752
 21
1499.5403805683641
 31
0.0
  0
LINE
  5
181B
  8
0
 62
     7
 10
1300.722798378775
 20
1558.5403805683659
 30
0.0
 11
1300.722798378775
 21
1499.5403805683641
 31
0.0
  0
LINE
  5
1974
  8
0
 62
     7
 10
2553.7227983787789
 20
706.81281376892684
 30
0.0
 11
2553.7227983787789
 21
686.81281376892684
 31
0.0
  0
LINE
  5
1977
  8
0
 62
     7
 10
2553.7227983787789
 20
706.81281376892684
 30
0.0
 11
2524.7227983787802
 21
706.81281376892684
 31
0.0
  0
LINE
  5
1978
  8
0
 62
     7
 10
2553.7227983787789
 20
686.81281376892684
 30
0.0
 11
2524.7227983787802
 21
686.81281376892684
 31
0.0
  0
LINE
  5
1A14
  8
0
  6
CONTINUOUS
 62
     7
 10
2524.7227983787789
 20
838.74736638387128
 30
0.0
 11
2541.3227983787792
 21
838.74736638387128
 31
0.0
  0
LINE
  5
1A15
  8
0
  6
CONTINUOUS
 62
     7
 10
2524.7227983787789
 20
829.24736638387139
 30
0.0
 11
2541.3227983787792
 21
829.24736638387139
 31
0.0
  0
LINE
  5
1A16
  8
0
  6
CONTINUOUS
 62
     7
 10
2524.7227983787802
 20
764.49736638386935
 30
0.0
 11
2541.3227983787792
 21
764.49736638386935
 31
0.0
  0
LINE
  5
1A17
  8
0
  6
CONTINUOUS
 62
     7
 10
2524.7227983787789
 20
745.49736638386935
 30
0.0
 11
2594.922798378781
 21
745.49736638387071
 31
0.0
  0
LINE
  5
1A1B
  8
0
 62
     7
 10
2429.722798378778
 20
2148.540380568365
 30
0.0
 11
2429.722798378778
 21
2143.2346480674501
 31
0.0
  0
LINE
  5
1A1C
  8
0
 62
     7
 10
2429.722798378778
 20
2148.540380568365
 30
0.0
 11
2429.722798378778
 21
2089.540380568365
 31
0.0
  0
LINE
  5
1A2B
  8
0
 62
     7
 10
2429.722798378778
 20
2148.540380568365
 30
0.0
 11
1032.722798378778
 21
2148.540380568365
 31
0.0
  0
LINE
  5
1A2E
  8
0
 62
     7
 10
1032.722798378778
 20
2148.540380568365
 30
0.0
 11
1032.722798378778
 21
2089.540380568365
 31
0.0
  0
CIRCLE
  5
1BD0
  8
0
 62
     7
 10
3583.077229380764
 20
833.31141455178204
 30
0.0
 40
12.699999999999999
  0
CIRCLE
  5
1BD2
  8
0
 62
     7
 10
3583.077229380764
 20
757.99736638387185
 30
0.0
 40
16.0
  0
ARC
  5
1C86
  8
0
 62
     7
 10
971.70030944277607
 20
1574.04357742759
 30
0.0
 40
6.0000000000000151
 50
270.0
 51
90.0
  0
LINE
  5
1C87
  8
0
 62
     7
 10
968.70030944277596
 20
1568.04357742759
 30
0.0
 11
971.70030944277607
 21
1568.04357742759
 31
0.0
  0
ARC
  5
1C88
  8
0
 62
     7
 10
968.70030944277596
 20
1574.04357742759
 30
0.0
 40
6.0000000000000151
 50
90.0
 51
270.0
  0
LINE
  5
1C89
  8
0
 62
     7
 10
971.70030944277607
 20
1580.0435774275909
 30
0.0
 11
968.70030944277596
 21
1580.0435774275909
 31
0.0
  0
LINE
  5
1C8A
  8
0
 62
     7
 10
956.20530944277652
 20
1588.0435774275909
 30
0.0
 11
986.72279837877579
 21
1588.0435774275909
 31
0.0
  0
LINE
  5
1C8B
  8
0
 62
     7
 10
986.72279837877579
 20
1560.04357742759
 30
0.0
 11
956.20530944277652
 21
1560.04357742759
 31
0.0
  0
LINE
  5
1C8C
  8
0
 62
     7
 10
956.20530944277652
 20
1560.04357742759
 30
0.0
 11
956.20530944277652
 21
1588.0435774275909
 31
0.0
  0
POINT
  5
1C8D
  8
0
 62
     7
 10
970.22279837877568
 20
1574.04357742759
 30
0.0
 50
180.0
  0
LINE
  5
1D14
  8
0
  6
HIDDEN
 62
     7
 10
3105.5751772869412
 20
772.77788110254335
 30
0.0
 11
3098.2272293807619
 21
772.77788110254335
 31
0.0
  0
LINE
  5
1D16
  8
0
  6
HIDDEN
 62
     7
 10
3098.3039784998659
 20
1061.722695897477
 30
0.0
 11
3081.0772293807622
 21
1053.9086633984459
 31
0.0
  0
ARC
  5
1D18
  8
0
  6
HIDDEN
 62
     7
 10
3252.35850377304
 20
849.954213831071
 30
0.0
 40
97.0
 50
38.730173959169598
 51
346.49955254227717
  0
ARC
  5
1D19
  8
0
  6
HIDDEN
 62
     7
 10
3254.246303108047
 20
852.16697321905644
 30
0.0
 40
168.53999999999999
 50
208.1018304355255
 51
237.55498110534251
  0
ARC
  5
1D1B
  8
0
  6
HIDDEN
 62
     7
 10
3236.7685037730412
 20
873.26421383107072
 30
0.0
 40
199.0
 50
79.246585015435883
 51
95.146313648019856
  0
ARC
  5
1D1D
  8
0
  6
HIDDEN
 62
     7
 10
3233.2185037730401
 20
854.58421383107054
 30
0.0
 40
218.01000000000019
 50
60.159939162642878
 51
79.245879152937931
  0
ARC
  5
1D1F
  8
0
  6
HIDDEN
 62
     7
 10
3238.1185037730411
 20
863.204213831071
 30
0.0
 40
208.09999999999991
 50
29.910804609315498
 51
60.149386506433899
  0
ARC
  5
1D22
  8
0
  6
HIDDEN
 62
     7
 10
3246.738503773041
 20
868.08421383107054
 30
0.0
 40
199.19
 50
12.33676562944747
 51
29.930445573488061
  0
ARC
  5
1D23
  8
0
  6
HIDDEN
 62
     7
 10
3256.3485037730411
 20
867.93421383107102
 30
0.0
 40
188.57999999999981
 50
329.39430602613982
 51
347.55950956791793
  0
ARC
  5
1D25
  8
0
  6
HIDDEN
 62
     7
 10
3264.7285037730412
 20
862.95421383107089
 30
0.0
 40
178.84000000000009
 50
299.27011246215642
 51
329.40088322575969
  0
ARC
  5
1D27
  8
0
  6
HIDDEN
 62
     7
 10
3262.56850377304
 20
882.13421383107084
 30
0.0
 40
196.76999999999981
 50
283.53603139071549
 51
297.08764300777369
  0
ARC
  5
1D29
  8
0
  6
HIDDEN
 62
     7
 10
3255.258503773041
 20
938.87421383107028
 30
0.0
 40
253.7200000000002
 50
262.64276166541367
 51
282.1417912457232
  0
ARC
  5
1D2B
  8
0
  6
HIDDEN
 62
     7
 10
3252.6985037730419
 20
853.10421383107064
 30
0.0
 40
168.54000000000011
 50
238.16999999999391
 51
259.77085780000561
  0
LINE
  5
1D2E
  8
0
  6
HIDDEN
 62
     7
 10
3098.6393417407248
 20
1061.8128137689239
 30
0.0
 11
3218.8299716904598
 21
1072.4612335942511
 31
0.0
  0
LINE
  5
1D30
  8
0
  6
HIDDEN
 62
     7
 10
3097.2272293807619
 20
772.77788110254335
 30
0.0
 11
3097.7272293807619
 21
1060.816683374484
 31
0.0
  0
LINE
  5
2097
  8
0
 62
     7
 10
2524.7227983787789
 20
1054.672228831985
 30
0.0
 11
2642.7227983787789
 21
1054.672228831985
 31
0.0
  0
LINE
  5
209A
  8
0
 62
     7
 10
2642.7227983787789
 20
749.67222883198531
 30
0.0
 11
2541.3227983787792
 21
749.67222883198565
 31
0.0
  0
LINE
  5
20A4
  8
0
 62
     7
 10
2642.7227983787789
 20
1054.672228831985
 30
0.0
 11
2642.7227983787789
 21
749.67222883198542
 31
0.0
  0
LINE
  5
20A9
  8
0
 62
     7
 10
2541.3227983787792
 20
749.67222883198565
 30
0.0
 11
2541.3227983787792
 21
991.1534382250984
 31
0.0
  0
LINE
  5
21C5
  8
0
 62
     7
 10
2524.7227983787761
 20
1644.7382408348651
 30
0.0
 11
2642.722798378778
 21
1644.7382408348651
 31
0.0
  0
LINE
  5
21CF
  8
0
 62
     7
 10
2642.722798378778
 20
2006.5403805658659
 30
0.0
 11
2642.722798378778
 21
1631.940380570866
 31
0.0
  0
LINE
  5
21D3
  8
0
 62
     7
 10
2525.5227983787772
 20
1994.5425203018669
 30
0.0
 11
2642.722798378778
 21
1994.5425203018669
 31
0.0
  0
LINE
  5
21D8
  8
0
 62
     7
 10
2540.5227983787772
 20
1993.7425203018649
 30
0.0
 11
2540.5227983787772
 21
1644.738240834866
 31
0.0
  0
LINE
  5
221C
  8
0
 62
     7
 10
3022.0772293807631
 20
839.11483218247633
 30
0.0
 11
3022.0772293807631
 21
1063.114832182476
 31
0.0
  0
LINE
  5
2249
  8
0
 62
     7
 10
3671.077229380764
 20
1063.114832182476
 30
0.0
 11
3621.7714968798491
 21
1063.114832182476
 31
0.0
  0
LINE
  5
224A
  8
0
 62
     7
 10
3671.0772293807649
 20
1063.114832182476
 30
0.0
 11
3612.0772293807649
 21
1063.114832182476
 31
0.0
  0
LINE
  5
224F
  8
0
 62
     7
 10
3671.0772293807649
 20
1063.114832182476
 30
0.0
 11
3671.077229380764
 21
727.11483218247372
 31
0.0
  0
LINE
  5
2250
  8
0
 62
     7
 10
3671.077229380764
 20
727.11483218247315
 30
0.0
 11
3621.7714968798491
 21
727.11483218247315
 31
0.0
  0
LINE
  5
2251
  8
0
 62
     7
 10
3671.077229380764
 20
727.11483218247372
 30
0.0
 11
3612.077229380764
 21
727.11483218247315
 31
0.0
  0
LINE
  5
2257
  8
0
 62
     7
 10
3022.0772293807631
 20
1063.114832182476
 30
0.0
 11
3081.0772293807622
 21
1063.114832182476
 31
0.0
  0
LINE
  5
225C
  8
0
 62
     7
 10
3022.0772293807631
 20
839.11483218247633
 30
0.0
 11
3081.0772293807622
 21
839.11483218247645
 31
0.0
  0
ARC
  5
2260
  8
0
 62
     7
 10
3389.5272293807629
 20
695.11281376892612
 30
0.0
 40
12.699999999999999
 50
270.0
 51
90.0
  0
ARC
  5
2261
  8
0
 62
     7
 10
3389.5272293807702
 20
695.11281376892612
 30
0.0
 40
12.699999999999999
 50
90.0
 51
270.0
  0
LINE
  5
237C
  8
0
 62
     7
 10
2541.722798378778
 20
1000.371226510508
 30
0.0
 11
2541.722798378778
 21
1049.7022288319849
 31
0.0
  0
LINE
  5
2389
  8
0
 62
     7
 10
3154.1240325240369
 20
1054.67222883199
 30
0.0
 11
3528.7240325190369
 21
1054.6722288319879
 31
0.0
  0
LINE
  5
238A
  8
0
 62
     7
 10
3528.7240325190369
 20
749.67222883198872
 30
0.0
 11
3154.1240325240369
 21
749.67222883198963
 31
0.0
  0
LINE
  5
23BA
  8
0
 62
     7
 10
3154.1240325240369
 20
1054.67222883199
 30
0.0
 11
3154.1240325240369
 21
749.67222883198963
 31
0.0
  0
LINE
  5
23BB
  8
0
 62
     7
 10
3528.7240325190369
 20
1054.6722288319879
 30
0.0
 11
3528.7240325190369
 21
749.67222883198872
 31
0.0
  0
LINE
  5
23F5
  8
0
 62
     7
 10
1754.29997010536
 20
2052.0509865141521
 30
0.0
 11
1725.7673681199749
 21
2019.877753886964
 31
0.0
  0
LINE
  5
23F7
  8
0
 62
     7
 10
1715.717394142448
 20
2069.516787353165
 30
0.0
 11
1735.817342097502
 21
2069.516787353165
 31
0.0
  0
LINE
  5
23F8
  8
0
 62
     7
 10
1735.817342097502
 20
2069.516787353165
 30
0.0
 11
1735.817342097502
 21
2052.0509865141512
 31
0.0
  0
LINE
  5
23F9
  8
0
 62
     7
 10
1735.817342097502
 20
2052.0509865141512
 30
0.0
 11
1754.29997010536
 21
2052.0509865141521
 31
0.0
  0
LINE
  5
23FD
  8
0
 62
     7
 10
1697.2347661345921
 20
2052.0509865141521
 30
0.0
 11
1725.7673681199749
 21
2019.877753886964
 31
0.0
  0
LINE
  5
23FE
  8
0
 62
     7
 10
1715.717394142448
 20
2069.516787353165
 30
0.0
 11
1715.717394142448
 21
2052.0509865141512
 31
0.0
  0
LINE
  5
23FF
  8
0
 62
     7
 10
1715.717394142448
 20
2052.0509865141512
 30
0.0
 11
1697.2347661345921
 21
2052.0509865141521
 31
0.0
  0
LINE
  5
2400
  8
0
 62
     7
 10
1755.2999701053591
 20
1621.360065919436
 30
0.0
 11
1726.7673681199749
 21
1589.18683329225
 31
0.0
  0
LINE
  5
2401
  8
0
 62
     7
 10
1716.7173941424469
 20
1638.825866758448
 30
0.0
 11
1736.817342097502
 21
1638.825866758448
 31
0.0
  0
LINE
  5
2402
  8
0
 62
     7
 10
1736.817342097502
 20
1638.825866758448
 30
0.0
 11
1736.817342097502
 21
1621.360065919436
 31
0.0
  0
LINE
  5
2403
  8
0
 62
     7
 10
1736.817342097502
 20
1621.360065919436
 30
0.0
 11
1755.2999701053591
 21
1621.360065919436
 31
0.0
  0
LINE
  5
2404
  8
0
 62
     7
 10
1698.2347661345909
 20
1621.360065919436
 30
0.0
 11
1726.7673681199749
 21
1589.18683329225
 31
0.0
  0
LINE
  5
2405
  8
0
 62
     7
 10
1716.7173941424469
 20
1638.825866758448
 30
0.0
 11
1716.7173941424469
 21
1621.360065919436
 31
0.0
  0
LINE
  5
2406
  8
0
 62
     7
 10
1716.7173941424469
 20
1621.360065919436
 30
0.0
 11
1698.2347661345909
 21
1621.360065919436
 31
0.0
  0
LINE
  5
2407
  8
0
 62
     7
 10
3574.6302389977659
 20
895.10415154969814
 30
0.0
 11
3542.4570063705778
 21
923.63675353508245
 31
0.0
  0
LINE
  5
2408
  8
0
 62
     7
 10
3592.0960398367802
 20
933.68672751260954
 30
0.0
 11
3592.0960398367802
 21
913.58677955755525
 31
0.0
  0
LINE
  5
2409
  8
0
 62
     7
 10
3592.0960398367802
 20
913.58677955755525
 30
0.0
 11
3574.6302389977659
 21
913.58677955755525
 31
0.0
  0
LINE
  5
240A
  8
0
 62
     7
 10
3574.6302389977659
 20
913.58677955755525
 30
0.0
 11
3574.6302389977659
 21
895.10415154969814
 31
0.0
  0
LINE
  5
240B
  8
0
 62
     7
 10
3574.6302389977659
 20
952.1693555204663
 30
0.0
 11
3542.4570063705778
 21
923.63675353508245
 31
0.0
  0
LINE
  5
240C
  8
0
 62
     7
 10
3592.0960398367802
 20
933.68672751260954
 30
0.0
 11
3574.6302389977659
 21
933.68672751260954
 31
0.0
  0
LINE
  5
240D
  8
0
 62
     7
 10
3574.6302389977659
 20
933.68672751260954
 30
0.0
 11
3574.6302389977659
 21
952.1693555204663
 31
0.0
  0
LINE
  5
240E
  8
0
 62
     7
 10
2984.0999350587499
 20
917.84038818091153
 30
0.0
 11
2951.9267024315618
 21
946.37299016629595
 31
0.0
  0
LINE
  5
240F
  8
0
 62
     7
 10
3001.5657358977619
 20
956.42296414382201
 30
0.0
 11
3001.5657358977619
 21
936.32301618876829
 31
0.0
  0
LINE
  5
2410
  8
0
 62
     7
 10
3001.5657358977619
 20
936.32301618876829
 30
0.0
 11
2984.0999350587499
 21
936.32301618876829
 31
0.0
  0
LINE
  5
2411
  8
0
 62
     7
 10
2984.0999350587499
 20
936.32301618876829
 30
0.0
 11
2984.0999350587499
 21
917.84038818091153
 31
0.0
  0
LINE
  5
2412
  8
0
 62
     7
 10
2984.0999350587499
 20
974.90559215167968
 30
0.0
 11
2951.9267024315618
 21
946.37299016629595
 31
0.0
  0
LINE
  5
2413
  8
0
 62
     7
 10
3001.5657358977619
 20
956.42296414382201
 30
0.0
 11
2984.0999350587499
 21
956.42296414382201
 31
0.0
  0
LINE
  5
2414
  8
0
 62
     7
 10
2984.0999350587499
 20
956.42296414382201
 30
0.0
 11
2984.0999350587499
 21
974.90559215167968
 31
0.0
  0
LINE
  5
242D
  8
0
 62
     7
 10
2525.7227983787761
 20
2089.540380568365
 30
0.0
 11
986.72279837877556
 21
2089.540380568365
 31
0.0
  0
LINE
  5
242E
  8
0
 62
     7
 10
986.72279837877556
 20
2089.540380568365
 30
0.0
 11
986.72279837877556
 21
1558.5403805683659
 31
0.0
  0
LINE
  5
242F
  8
0
 62
     7
 10
986.72279837877556
 20
1558.5403805683659
 30
0.0
 11
2525.7227983787761
 21
1558.5403805683659
 31
0.0
  0
LINE
  5
2430
  8
0
 62
     7
 10
2525.7227983787761
 20
1558.5403805683659
 30
0.0
 11
2525.7227983787761
 21
2089.540380568365
 31
0.0
  0
LINE
  5
2431
  8
0
 62
     7
 10
2525.722798378778
 20
1092.1128137689241
 30
0.0
 11
986.72279837878204
 21
1092.1128137689241
 31
0.0
  0
LINE
  5
2432
  8
0
 62
     7
 10
986.72279837878204
 20
1092.1128137689241
 30
0.0
 11
986.72279837878204
 21
672.11281376892555
 31
0.0
  0
LINE
  5
2433
  8
0
 62
     7
 10
986.72279837878204
 20
672.11281376892555
 30
0.0
 11
2525.722798378778
 21
672.11281376892555
 31
0.0
  0
LINE
  5
2434
  8
0
 62
     7
 10
2525.722798378778
 20
672.11281376892555
 30
0.0
 11
2525.722798378778
 21
1092.1128137689241
 31
0.0
  0
LINE
  5
2435
  8
0
  6
PHANTOM
 62
     7
 10
3025.7227983787761
 20
1558.5403805683659
 30
0.0
 11
3025.7227983787761
 21
2089.540380568365
 31
0.0
  0
LINE
  5
2438
  8
0
  6
PHANTOM
 62
     7
 10
3025.7227983787761
 20
1558.5403805683659
 30
0.0
 11
2539.3018035661648
 21
1558.5403805683659
 31
0.0
  0
LINE
  5
2439
  8
0
  6
PHANTOM
 62
     7
 10
3025.7227983787761
 20
2089.540380568365
 30
0.0
 11
2539.3018035661648
 21
2089.540380568365
 31
0.0
  0
TEXT
  5
243A
  8
0
 62
     7
 10
3079.8664109376241
 20
1634.587090890225
 30
0.0
 40
25.0
  1
500 mm CLEARENCE
 50
90.0
  7
TITLE3
  0
TEXT
  5
288B
  8
0
 62
     7
 10
2603.244806508711
 20
1716.219192312142
 30
0.0
 40
25.0
  1
ELECT. BOX
 50
90.0
  7
TITLE3
  0
LINE
  5
30F6
  8
0
 62
     7
 10
3890.000000000156
 20
0.0
 30
0.0
 11
769.44853674663113
 21
0.0
 31
0.0
  0
LINE
  5
30F7
  8
0
 62
     7
 10
769.44853674663113
 20
0.0
 30
0.0
 11
769.44853674663113
 21
2343.7053395651901
 31
0.0
  0
LINE
  5
30F8
  8
0
 62
     7
 10
769.44853674663113
 20
2343.7053395651901
 30
0.0
 11
3890.000000000156
 21
2343.7053395651901
 31
0.0
  0
LINE
  5
30F9
  8
0
 62
     7
 10
3890.000000000156
 20
2343.7053395651901
 30
0.0
 11
3890.000000000156
 21
0.0
 31
0.0
  0
TEXT
  5
3AC8
  8
0
 62
     7
 10
827.2721564102427
 20
51.50540564507029
 30
0.0
 40
33.599999999996733
  1
available on request
  7
TITLE3
  0
TEXT
  5
3AC9
  8
0
 62
     7
 10
827.2721564102427
 20
109.10540564506459
 30
0.0
 40
33.599999999996733
  1
Certified dimensions
  7
TITLE3
  0
TEXT
  5
3ACA
  8
0
 62
     7
 10
827.2721564102427
 20
166.70540564505899
 30
0.0
 40
33.599999999996733
  1
without notice or obligation.
  7
TITLE3
  0
TEXT
  5
3ACB
  8
0
 62
     7
 10
827.2721564102427
 20
224.3054056450533
 30
0.0
 40
33.599999999996733
  1
specifications at any time
  7
TITLE3
  0
TEXT
  5
3ACC
  8
0
 62
     7
 10
827.2721564102427
 20
281.90540564504778
 30
0.0
 40
33.599999999996733
  1
the right to change 
  7
TITLE3
  0
TEXT
  5
3ACD
  8
0
 62
     7
 10
827.2721564102427
 20
397.10540564503611
 30
0.0
 40
33.599999999996733
  1
NOTE
  7
TITLE3
  0
TEXT
  5
3ACE
  8
0
 62
     7
 10
827.2721564102427
 20
339.50540564504212
 30
0.0
 40
33.599999999996733
  1
The manufacturer reserves
  7
TITLE3
  0
ARC
  5
3ECA
  8
0
  6
HIDDEN
 62
     7
 10
2548.6227983787762
 20
1007.609320182188
 30
0.0
 40
22.5
 50
180.0
 51
270.0
  0
ARC
  5
3ECB
  8
0
  6
HIDDEN
 62
     7
 10
2548.6227983787762
 20
1007.609320182188
 30
0.0
 40
10.0
 50
180.0
 51
270.0
  0
LINE
  5
3ECC
  8
0
  6
HIDDEN
 62
     7
 10
2548.6227983787762
 20
997.60932018218796
 30
0.0
 11
2591.1227983787771
 21
997.60932018218796
 31
0.0
  0
LINE
  5
3ECD
  8
0
  6
HIDDEN
 62
     7
 10
2555.1227983787762
 20
978.10932018218853
 30
0.0
 11
2590.1227983787762
 21
978.10932018218853
 31
0.0
  0
LINE
  5
3ECE
  8
0
  6
HIDDEN
 62
     7
 10
2548.6227983787762
 20
985.10932018218853
 30
0.0
 11
2591.1227983787771
 21
985.10932018218853
 31
0.0
  0
LINE
  5
3ECF
  8
0
  6
HIDDEN
 62
     7
 10
2591.1227983787771
 20
985.10932018218853
 30
0.0
 11
2591.1227983787771
 21
997.60932018218796
 31
0.0
  0
LINE
  5
3ED0
  8
0
  6
HIDDEN
 62
     7
 10
2590.1227983787762
 20
978.10932018218796
 30
0.0
 11
2590.1227983787762
 21
981.10932018218853
 31
0.0
  0
ARC
  5
3ED1
  8
0
  6
HIDDEN
 62
     7
 10
2586.1227983787762
 20
981.10932018218853
 30
0.0
 40
4.0
 50
0.000000000000007
 51
90.0
  0
LINE
  5
3ED2
  8
0
  6
HIDDEN
 62
     7
 10
2572.6227983787771
 20
978.10932018218853
 30
0.0
 11
2572.6227983787771
 21
987.78152122777522
 31
0.0
  0
LINE
  5
3ED3
  8
0
  6
HIDDEN
 62
     7
 10
2555.1227983787762
 20
978.10932018218796
 30
0.0
 11
2555.1227983787762
 21
981.10932018218853
 31
0.0
  0
ARC
  5
3ED4
  8
0
  6
HIDDEN
 62
     7
 10
2559.1227983787771
 20
981.10932018218853
 30
0.0
 40
4.0
 50
90.0
 51
180.0
  0
LINE
  5
3ED5
  8
0
  6
HIDDEN
 62
     7
 10
2526.1227983787762
 20
1045.109320182188
 30
0.0
 11
2552.1145330997429
 21
1045.109320182188
 31
0.0
  0
LINE
  5
3ED6
  8
0
  6
HIDDEN
 62
     7
 10
2526.1227983787762
 20
1055.109320182188
 30
0.0
 11
2538.6227983787771
 21
1055.109320182188
 31
0.0
  0
LINE
  5
3ED7
  8
0
  6
HIDDEN
 62
     7
 10
2538.6227983787771
 20
1007.609320182188
 30
0.0
 11
2538.6227983787771
 21
1055.109320182188
 31
0.0
  0
LINE
  5
3ED8
  8
0
  6
HIDDEN
 62
     7
 10
2526.1227983787762
 20
1007.609320182188
 30
0.0
 11
2526.1227983787762
 21
1055.109320182188
 31
0.0
  0
POINT
  5
3ED9
  8
0
  6
HIDDEN
 62
     7
 10
2572.6227983787771
 20
985.10932018218853
 30
0.0
 50
180.0
  0
ARC
  5
3EDC
  8
0
  6
HIDDEN
 62
     7
 10
964.62279837878179
 20
1007.609320182188
 30
0.0
 40
22.5
 50
270.0
 51
0.000000000000007
  0
ARC
  5
3EDD
  8
0
  6
HIDDEN
 62
     7
 10
964.62279837878179
 20
1007.609320182188
 30
0.0
 40
10.0
 50
270.0
 51
0.000000000000007
  0
LINE
  5
3EDE
  8
0
  6
HIDDEN
 62
     7
 10
964.62279837878179
 20
997.60932018218796
 30
0.0
 11
920.62279837878225
 21
997.60932018218796
 31
0.0
  0
LINE
  5
3EDF
  8
0
  6
HIDDEN
 62
     7
 10
958.12279837878214
 20
978.10932018218853
 30
0.0
 11
923.12279837878191
 21
978.10932018218853
 31
0.0
  0
LINE
  5
3EE0
  8
0
  6
HIDDEN
 62
     7
 10
964.62279837878179
 20
985.10932018218853
 30
0.0
 11
920.62279837878225
 21
985.10932018218853
 31
0.0
  0
LINE
  5
3EE1
  8
0
  6
HIDDEN
 62
     7
 10
920.62279837878225
 20
985.10932018218853
 30
0.0
 11
920.62279837878225
 21
997.60932018218796
 31
0.0
  0
LINE
  5
3EE2
  8
0
  6
HIDDEN
 62
     7
 10
923.12279837878191
 20
978.10932018218796
 30
0.0
 11
923.12279837878191
 21
981.10932018218853
 31
0.0
  0
ARC
  5
3EE3
  8
0
  6
HIDDEN
 62
     7
 10
927.12279837878179
 20
981.10932018218853
 30
0.0
 40
4.0
 50
90.0
 51
180.0
  0
LINE
  5
3EE4
  8
0
  6
HIDDEN
 62
     7
 10
940.62279837878179
 20
978.10932018218853
 30
0.0
 11
940.62279837878179
 21
987.78152122777522
 31
0.0
  0
LINE
  5
3EE5
  8
0
  6
HIDDEN
 62
     7
 10
958.12279837878214
 20
978.10932018218796
 30
0.0
 11
958.12279837878214
 21
981.10932018218853
 31
0.0
  0
ARC
  5
3EE6
  8
0
  6
HIDDEN
 62
     7
 10
954.12279837878179
 20
981.10932018218853
 30
0.0
 40
4.0
 50
0.000000000000007
 51
90.0
  0
LINE
  5
3EE7
  8
0
  6
HIDDEN
 62
     7
 10
987.12279837878179
 20
1045.109320182188
 30
0.0
 11
961.13106365781709
 21
1045.109320182188
 31
0.0
  0
LINE
  5
3EE8
  8
0
  6
HIDDEN
 62
     7
 10
987.12279837878179
 20
1055.109320182188
 30
0.0
 11
974.62279837878179
 21
1055.109320182188
 31
0.0
  0
LINE
  5
3EE9
  8
0
  6
HIDDEN
 62
     7
 10
974.62279837878179
 20
1007.609320182188
 30
0.0
 11
974.62279837878179
 21
1055.109320182188
 31
0.0
  0
LINE
  5
3EEA
  8
0
  6
HIDDEN
 62
     7
 10
987.12279837878179
 20
1007.609320182188
 30
0.0
 11
987.12279837878179
 21
1055.109320182188
 31
0.0
  0
POINT
  5
3EEB
  8
0
  6
HIDDEN
 62
     7
 10
940.62279837878179
 20
985.10932018218853
 30
0.0
 50
0.000000000000007
  0
LINE
  5
42FB
  8
0
 62
     7
 10
2161.7227983787752
 20
839.11483218247611
 30
0.0
 11
1300.722798378775
 21
839.11483218247633
 31
0.0
  0
LINE
  5
42FD
  8
0
 62
     7
 10
1300.722798378775
 20
1063.114832182476
 30
0.0
 11
2161.7227983787752
 21
1063.114832182476
 31
0.0
  0
LINE
  5
42FF
  8
0
  6
CONTINUOUS
 62
     7
 10
2596.0113114747601
 20
742.49736638387071
 30
0.0
 11
2594.9227983787791
 21
742.49736638387071
 31
0.0
  0
LINE
  5
4300
  8
0
  6
CONTINUOUS
 62
     7
 10
2594.9227983787791
 20
742.49736638387071
 30
0.0
 11
2594.9227983787791
 21
749.67222883198542
 31
0.0
  0
LINE
  5
4302
  8
0
  6
CONTINUOUS
 62
     7
 10
2596.0113114747601
 20
749.67222883198542
 30
0.0
 11
2596.0113114747601
 21
742.49736638387071
 31
0.0
  0
TEXT
  5
430A
  8
0
 62
     7
 10
2917.8129178743088
 20
609.47082688266005
 30
0.0
 40
25.0
  1
ELECTRIC
  7
TITLE3
  0
TEXT
  5
430B
  8
0
 62
     7
 10
3014.2414893028808
 20
567.80416021599353
 30
0.0
 40
25.0
  1
BOX
  7
TITLE3
  0
SOLID
  5
430C
  8
0
 62
     7
 10
3166.8936943829958
 20
712.8252508130513
 30
0.0
 11
3181.7386925863411
 21
739.37004367987731
 31
0.0
 12
3176.3052487291752
 22
709.44551046963272
 32
0.0
 13
3176.3052487291752
 23
709.44551046963272
 33
0.0
  0
LINE
  5
4313
  8
0
 62
     7
 10
3612.0772293807631
 20
1092.112813768922
 30
0.0
 11
3612.0772293807631
 21
672.11281376892452
 31
0.0
  0
LINE
  5
4314
  8
0
 62
     7
 10
3612.0772293807631
 20
672.11281376892452
 30
0.0
 11
3081.0772293807622
 21
672.11281376892452
 31
0.0
  0
LINE
  5
4315
  8
0
 62
     7
 10
3081.0772293807622
 20
672.11281376892452
 30
0.0
 11
3081.0772293807622
 21
1092.1128137689241
 31
0.0
  0
LINE
  5
4317
  8
0
 62
     7
 10
3081.0772293807622
 20
1092.1128137689241
 30
0.0
 11
3612.0772293807631
 21
1092.112813768922
 31
0.0
  0
CIRCLE
  5
4318
  8
0
 62
     7
 10
3096.5772293807622
 20
1045.9928137689251
 30
0.0
 40
3.5
  0
CIRCLE
  5
4319
  8
0
 62
     7
 10
3096.5772293807622
 20
1015.992813768925
 30
0.0
 40
3.5
  0
CIRCLE
  5
431A
  8
0
 62
     7
 10
3096.5772293807622
 20
1065.9928137689251
 30
0.0
 40
6.0
  0
CIRCLE
  5
431B
  8
0
 62
     7
 10
3096.5772293807622
 20
1082.792813768925
 30
0.0
 40
6.0
  0
LINE
  5
431C
  8
0
 62
     7
 10
3082.5772293807622
 20
1094.6103027039251
 30
0.0
 11
3082.5772293807622
 21
1007.492813768925
 31
0.0
  0
LINE
  5
431D
  8
0
 62
     7
 10
3082.5772293807622
 20
1007.492813768925
 30
0.0
 11
3110.5772293807622
 21
1007.492813768925
 31
0.0
  0
LINE
  5
431E
  8
0
 62
     7
 10
3110.5772293807622
 20
1007.492813768925
 30
0.0
 11
3110.5772293807631
 21
1094.610302703926
 31
0.0
  0
LINE
  5
431F
  8
0
 62
     7
 10
3082.5772293637619
 20
1092.1103027039251
 30
0.0
 11
3111.0772294837629
 21
1092.1103027039251
 31
0.0
  0
LINE
  5
4320
  8
0
 62
     7
 10
3082.5772293637619
 20
1094.6103027039251
 30
0.0
 11
3110.5772293807631
 21
1094.610302703926
 31
0.0
  0
POINT
  5
4321
  8
0
 62
     7
 10
3096.5772293807622
 20
1082.792813768925
 30
0.0
 50
270.0
  0
POINT
  5
4322
  8
0
 62
     7
 10
3096.5772293807622
 20
1082.792813768925
 30
0.0
 50
270.0
  0
POINT
  5
4323
  8
0
 62
     7
 10
3096.5772293807622
 20
1082.792813768925
 30
0.0
 50
270.0
  0
POINT
  5
4324
  8
0
 62
     7
 10
3096.5772293807622
 20
1082.792813768925
 30
0.0
 50
270.0
  0
CIRCLE
  5
4325
  8
0
 62
     7
 10
3596.5772293807631
 20
1045.9928137689251
 30
0.0
 40
3.5
  0
CIRCLE
  5
4326
  8
0
 62
     7
 10
3596.5772293807631
 20
1015.992813768925
 30
0.0
 40
3.5
  0
CIRCLE
  5
4327
  8
0
 62
     7
 10
3596.5772293807631
 20
1065.9928137689251
 30
0.0
 40
6.0
  0
CIRCLE
  5
4328
  8
0
 62
     7
 10
3596.5772293807631
 20
1082.792813768925
 30
0.0
 40
6.0
  0
LINE
  5
4329
  8
0
 62
     7
 10
3582.5772293807622
 20
1094.6103027039251
 30
0.0
 11
3582.5772293807622
 21
1007.492813768925
 31
0.0
  0
LINE
  5
432A
  8
0
 62
     7
 10
3582.5772293807622
 20
1007.492813768925
 30
0.0
 11
3610.5772293807622
 21
1007.492813768925
 31
0.0
  0
LINE
  5
432B
  8
0
 62
     7
 10
3610.5772293807622
 20
1007.492813768925
 30
0.0
 11
3610.5772293807622
 21
1094.6103027039251
 31
0.0
  0
LINE
  5
432C
  8
0
 62
     7
 10
3582.577229363761
 20
1092.1103027039251
 30
0.0
 11
3610.577229483762
 21
1092.1103027039251
 31
0.0
  0
LINE
  5
432D
  8
0
 62
     7
 10
3582.577229363761
 20
1094.6103027039251
 30
0.0
 11
3610.577229483762
 21
1094.6103027039251
 31
0.0
  0
POINT
  5
432E
  8
0
 62
     7
 10
3596.5772293807631
 20
1082.792813768925
 30
0.0
 50
270.0
  0
POINT
  5
432F
  8
0
 62
     7
 10
3596.5772293807631
 20
1082.792813768925
 30
0.0
 50
270.0
  0
POINT
  5
4330
  8
0
 62
     7
 10
3596.5772293807631
 20
1082.792813768925
 30
0.0
 50
270.0
  0
POINT
  5
4331
  8
0
 62
     7
 10
3596.5772293807631
 20
1082.792813768925
 30
0.0
 50
270.0
  0
LINE
  5
4394
  8
0
 62
     7
 10
3002.0772293807631
 20
1063.114832182476
 30
0.0
 11
2893.4903097504989
 21
1063.114832182476
 31
0.0
  0
LINE
  5
4395
  8
0
 62
     7
 10
3002.0772293807631
 20
839.11483218247645
 30
0.0
 11
2893.4903097504989
 21
839.11483218247645
 31
0.0
  0
LINE
  5
4396
  8
0
 62
     7
 10
2913.4903097504998
 20
1033.114832182476
 30
0.0
 11
2913.490309750498
 21
1004.448165515809
 31
0.0
  0
LINE
  5
4397
  8
0
 62
     7
 10
2913.490309750498
 20
869.11483218247645
 30
0.0
 11
2913.490309750498
 21
897.78149884914274
 31
0.0
  0
SOLID
  5
4398
  8
0
 62
     7
 10
2908.4903097504989
 20
1033.114832182476
 30
0.0
 11
2918.4903097504989
 21
1033.114832182476
 31
0.0
 12
2913.4903097504998
 22
1063.114832182476
 32
0.0
 13
2913.4903097504998
 23
1063.114832182476
 33
0.0
  0
SOLID
  5
4399
  8
0
 62
     7
 10
2908.4903097504989
 20
869.11483218247645
 30
0.0
 11
2918.4903097504989
 21
869.11483218247645
 31
0.0
 12
2913.490309750498
 22
839.11483218247645
 32
0.0
 13
2913.490309750498
 23
839.11483218247645
 33
0.0
  0
LINE
  5
439B
  8
0
 62
     7
 10
3691.0772293807649
 20
1063.114832182476
 30
0.0
 11
3757.683056217395
 21
1063.114832182476
 31
0.0
  0
LINE
  5
439C
  8
0
 62
     7
 10
3691.0772293807649
 20
727.11483218247395
 30
0.0
 11
3757.683056217395
 21
727.11483218247395
 31
0.0
  0
LINE
  5
439D
  8
0
 62
     7
 10
3737.6830562173968
 20
1033.114832182476
 30
0.0
 11
3737.683056217395
 21
948.44816551580845
 31
0.0
  0
LINE
  5
439E
  8
0
 62
     7
 10
3737.683056217395
 20
757.11483218247395
 30
0.0
 11
3737.683056217395
 21
841.7814988491416
 31
0.0
  0
SOLID
  5
439F
  8
0
 62
     7
 10
3732.683056217395
 20
1033.114832182476
 30
0.0
 11
3742.6830562173959
 21
1033.114832182476
 31
0.0
 12
3737.6830562173968
 22
1063.114832182476
 32
0.0
 13
3737.6830562173968
 23
1063.114832182476
 33
0.0
  0
SOLID
  5
43A0
  8
0
 62
     7
 10
3732.683056217395
 20
757.11483218247395
 30
0.0
 11
3742.6830562173959
 21
757.11483218247395
 31
0.0
 12
3737.683056217395
 22
727.11483218247395
 32
0.0
 13
3737.683056217395
 23
727.11483218247395
 33
0.0
  0
LINE
  5
43A2
  8
0
 62
     7
 10
3632.0772293807631
 20
1092.1128137689241
 30
0.0
 11
3828.4752409830562
 21
1092.1128137689241
 31
0.0
  0
LINE
  5
43A3
  8
0
 62
     7
 10
3632.0772293807631
 20
672.11281376892452
 30
0.0
 11
3828.4752409830548
 21
672.11281376892452
 31
0.0
  0
LINE
  5
43A4
  8
0
 62
     7
 10
3808.4752409830571
 20
1062.1128137689241
 30
0.0
 11
3808.4752409830571
 21
933.36281376892396
 31
0.0
  0
LINE
  5
43A5
  8
0
 62
     7
 10
3808.4752409830571
 20
702.11281376892452
 30
0.0
 11
3808.4752409830571
 21
830.86281376892396
 31
0.0
  0
SOLID
  5
43A6
  8
0
 62
     7
 10
3803.4752409830562
 20
1062.1128137689241
 30
0.0
 11
3813.4752409830562
 21
1062.1128137689241
 31
0.0
 12
3808.4752409830571
 22
1092.1128137689241
 32
0.0
 13
3808.4752409830571
 23
1092.1128137689241
 33
0.0
  0
SOLID
  5
43A7
  8
0
 62
     7
 10
3803.4752409830548
 20
702.11281376892452
 30
0.0
 11
3813.4752409830562
 21
702.11281376892452
 31
0.0
 12
3808.4752409830571
 22
672.11281376892452
 32
0.0
 13
3808.4752409830571
 23
672.11281376892452
 33
0.0
  0
ARC
  5
43B7
  8
0
 62
     7
 10
2540.7452873147759
 20
2074.0435774275929
 30
0.0
 40
6.0000000000000151
 50
90.0
 51
270.0
  0
LINE
  5
43B8
  8
0
 62
     7
 10
2543.7452873147749
 20
2080.0435774275929
 30
0.0
 11
2540.7452873147759
 21
2080.0435774275929
 31
0.0
  0
ARC
  5
43B9
  8
0
 62
     7
 10
2543.7452873147749
 20
2074.0435774275929
 30
0.0
 40
6.0000000000000151
 50
270.0
 51
90.0
  0
LINE
  5
43BA
  8
0
 62
     7
 10
2540.7452873147759
 20
2068.0435774275929
 30
0.0
 11
2543.7452873147749
 21
2068.0435774275929
 31
0.0
  0
LINE
  5
43BB
  8
0
 62
     7
 10
2556.2402873147739
 20
2060.0435774275929
 30
0.0
 11
2525.7227983787761
 21
2060.0435774275929
 31
0.0
  0
LINE
  5
43BC
  8
0
 62
     7
 10
2525.7227983787761
 20
2088.043577427592
 30
0.0
 11
2556.2402873147739
 21
2088.043577427592
 31
0.0
  0
LINE
  5
43BD
  8
0
 62
     7
 10
2556.2402873147739
 20
2088.043577427592
 30
0.0
 11
2556.2402873147739
 21
2060.0435774275929
 31
0.0
  0
POINT
  5
43BE
  8
0
 62
     7
 10
2542.2227983787752
 20
2074.0435774275929
 30
0.0
 50
0.000000000000007
  0
ARC
  5
43BF
  8
0
 62
     7
 10
2540.7452873147759
 20
1574.04357742759
 30
0.0
 40
6.0000000000000151
 50
90.0
 51
270.0
  0
LINE
  5
43C0
  8
0
 62
     7
 10
2543.7452873147749
 20
1568.04357742759
 30
0.0
 11
2540.7452873147759
 21
1568.04357742759
 31
0.0
  0
ARC
  5
43C1
  8
0
 62
     7
 10
2543.7452873147749
 20
1574.04357742759
 30
0.0
 40
6.0000000000000151
 50
270.0
 51
90.0
  0
LINE
  5
43C2
  8
0
 62
     7
 10
2540.7452873147759
 20
1580.0435774275909
 30
0.0
 11
2543.7452873147749
 21
1580.0435774275909
 31
0.0
  0
LINE
  5
43C3
  8
0
 62
     7
 10
2556.2402873147739
 20
1588.0435774275909
 30
0.0
 11
2525.7227983787761
 21
1588.0435774275909
 31
0.0
  0
LINE
  5
43C4
  8
0
 62
     7
 10
2525.7227983787761
 20
1560.04357742759
 30
0.0
 11
2556.2402873147739
 21
1560.04357742759
 31
0.0
  0
LINE
  5
43C5
  8
0
 62
     7
 10
2556.2402873147739
 20
1560.04357742759
 30
0.0
 11
2556.2402873147739
 21
1588.0435774275909
 31
0.0
  0
POINT
  5
43C6
  8
0
 62
     7
 10
2542.2227983787752
 20
1574.04357742759
 30
0.0
 50
0.000000000000007
  0
LINE
  5
43C7
  8
0
 62
     7
 10
948.70030944277642
 20
2074.0435774275929
 30
0.0
 11
885.06878142349069
 21
2074.0435774275929
 31
0.0
  0
LINE
  5
43C8
  8
0
 62
     7
 10
948.70030944277642
 20
1574.04357742759
 30
0.0
 11
885.06878142349069
 21
1574.04357742759
 31
0.0
  0
LINE
  5
43C9
  8
0
 62
     7
 10
905.06878142349046
 20
2044.0435774275929
 30
0.0
 11
905.06878142349046
 21
1873.210244094259
 31
0.0
  0
LINE
  5
43CA
  8
0
 62
     7
 10
905.06878142349046
 20
1604.04357742759
 30
0.0
 11
905.06878142349046
 21
1774.8769107609251
 31
0.0
  0
SOLID
  5
43CB
  8
0
 62
     7
 10
900.06878142349092
 20
2044.0435774275929
 30
0.0
 11
910.06878142349069
 21
2044.0435774275929
 31
0.0
 12
905.06878142349046
 22
2074.0435774275929
 32
0.0
 13
905.06878142349046
 23
2074.0435774275929
 33
0.0
  0
SOLID
  5
43CC
  8
0
 62
     7
 10
900.06878142349092
 20
1604.04357742759
 30
0.0
 11
910.06878142349069
 21
1604.04357742759
 31
0.0
 12
905.06878142349046
 22
1574.04357742759
 32
0.0
 13
905.06878142349046
 23
1574.04357742759
 33
0.0
  0
LINE
  5
43CE
  8
0
 62
     7
 10
966.72279837877568
 20
2089.540380568365
 30
0.0
 11
814.27498037390706
 21
2089.540380568365
 31
0.0
  0
LINE
  5
43CF
  8
0
 62
     7
 10
966.72279837877568
 20
1558.5403805683659
 30
0.0
 11
814.27498037390706
 21
1558.5403805683659
 31
0.0
  0
LINE
  5
43D0
  8
0
 62
     7
 10
834.27498037390671
 20
2059.5403805683659
 30
0.0
 11
834.27498037390671
 21
1873.207047235032
 31
0.0
  0
LINE
  5
43D1
  8
0
 62
     7
 10
834.27498037390671
 20
1588.5403805683659
 30
0.0
 11
834.27498037390671
 21
1774.8737139017001
 31
0.0
  0
SOLID
  5
43D2
  8
0
 62
     7
 10
829.27498037390671
 20
2059.5403805683659
 30
0.0
 11
839.2749803739066
 21
2059.5403805683659
 31
0.0
 12
834.27498037390671
 22
2089.540380568365
 32
0.0
 13
834.27498037390671
 23
2089.540380568365
 33
0.0
  0
SOLID
  5
43D3
  8
0
 62
     7
 10
829.27498037390671
 20
1588.5403805683659
 30
0.0
 11
839.2749803739066
 21
1588.5403805683659
 31
0.0
 12
834.27498037390671
 22
1558.5403805683659
 32
0.0
 13
834.27498037390671
 23
1558.5403805683659
 33
0.0
  0
TEXT
  5
4438
  8
0
 62
     7
 10
2687.6190476192041
 20
350.9963800565298
 30
0.0
 40
62.5
  1
temperzone ISD 230K
  7
TITLE5
 72
     1
 11
3202.500000000156
 21
350.9963800565298
 31
0.0
  0
TEXT
  5
4439
  8
0
 62
     7
 10
3315.000000000156
 20
87.5
 30
0.0
 40
37.5
  1
ISD 230K
 41
1.429577464788732
  7
TITLE3
 72
     5
 11
3677.500000000156
 21
87.5
 31
0.0
  0
TEXT
  5
443A
  8
0
 62
     7
 10
2748.958007352584
 20
137.5
 30
0.0
 40
37.5
  1
24-10-09
 41
0.6956521739130452
  7
TITLE3
 72
     5
 11
2948.9580073525849
 21
137.5
 31
0.0
  0
TEXT
  5
443B
  8
0
 62
     7
 10
2583.941228961347
 20
138.53901732512611
 30
0.0
 40
30.0
  1
Date
  7
SIMPLEX
  0
TEXT
  5
443C
  8
0
 62
     7
 10
3710.1389904671569
 20
161.879127529264
 30
0.0
 40
30.0
  1
Revision
 41
0.7812095035934841
  7
SIMPLEX
 72
     5
 11
3841.828592501487
 21
161.879127529264
 31
0.0
  0
LINE
  5
443D
  8
0
 62
     7
 10
3695.614187487854
 20
26.053116060396409
 30
0.0
 11
3695.614187487854
 21
210.3358196356829
 31
0.0
  0
LINE
  5
443E
  8
0
 62
     7
 10
2551.6894118215901
 20
433.29949611692632
 30
0.0
 11
2551.6894118215901
 21
26.053116060396409
 31
0.0
  0
LINE
  5
443F
  8
0
 62
     7
 10
3298.6420975165261
 20
26.053116060396409
 30
0.0
 11
3298.6420975165261
 21
210.3358196356829
 31
0.0
  0
LINE
  5
4440
  8
0
 62
     7
 10
3298.6420975165261
 20
116.6407490868297
 30
0.0
 11
2551.6894118215901
 21
116.6407490868297
 31
0.0
  0
LINE
  5
4441
  8
0
 62
     7
 10
3854.4693315474578
 20
210.3358196356829
 30
0.0
 11
2551.6894118215901
 21
210.3358196356829
 31
0.0
  0
LINE
  5
4442
  8
0
 62
     7
 10
2551.6894118215901
 20
26.053116060396409
 30
0.0
 11
3854.0974475745211
 21
26.053116060396409
 31
0.0
  0
LINE
  5
4443
  8
0
 62
     7
 10
3854.0974475745211
 20
26.053116060396409
 30
0.0
 11
3854.0974475745211
 21
433.29949611692632
 31
0.0
  0
LINE
  5
4444
  8
0
 62
     7
 10
3854.0974475745211
 20
433.29949611692632
 30
0.0
 11
2551.6894118215901
 21
433.29949611692632
 31
0.0
  0
TEXT
  5
4445
  8
0
 62
     7
 10
2583.1040238790438
 20
59.903110081697093
 30
0.0
 40
25.0
  1
Scale
 41
1.3701747965659681
  7
SIMPLEX
 72
     5
 11
2708.7033802309238
 21
59.903110081697093
 31
0.0
  0
TEXT
  5
4446
  8
0
 62
     7
 10
3371.0739045011542
 20
161.1167893833869
 30
0.0
 40
25.0
  1
Drawing No.
  7
SIMPLEX
 72
     2
 11
3588.9310473582959
 21
161.1167893833869
 31
0.0
  0
TEXT
  5
444B
  8
0
 62
     7
 10
2766.9599802419848
 20
58.608558680249381
 30
0.0
 40
37.5
  1
1:10
  7
TITLE3
  0
TEXT
  5
445F
  8
0
 62
     7
 10
846.77498037390671
 20
1794.8737139017001
 30
0.0
 40
25.0
  1
531
 50
90.0
  0
TEXT
  5
4460
  8
0
 62
     7
 10
917.56878142349012
 20
1794.8769107609251
 30
0.0
 40
25.0
  1
500
 50
90.0
  0
TEXT
  5
4461
  8
0
 62
     7
 10
3820.9752409830562
 20
850.86281376892441
 30
0.0
 40
25.0
  1
420
 50
90.0
  0
TEXT
  5
4462
  8
0
 62
     7
 10
3750.183056217395
 20
861.78149884914205
 30
0.0
 40
25.0
  1
336
 50
90.0
  0
TEXT
  5
4463
  8
0
 62
     7
 10
2925.9903097504989
 20
917.78149884914342
 30
0.0
 40
25.0
  1
224
 50
90.0
  0
LINE
  5
446A
  8
0
 62
     7
 10
3171.599471556086
 20
711.13538064134207
 30
0.0
 11
3132.098632160023
 21
601.13749354932645
 31
0.0
  0
LINE
  5
446B
  8
0
 62
     7
 10
3132.098632160023
 20
601.13749354932645
 30
0.0
 11
3102.098632160023
 21
601.13749354932645
 31
0.0
  0
LINE
  5
4569
  8
0
 62
     7
 10
986.72279837878204
 20
652.11281376892578
 30
0.0
 11
986.72279837878204
 21
591.87521223834926
 31
0.0
  0
LINE
  5
456A
  8
0
 62
     7
 10
2525.722798378778
 20
652.11281376892578
 30
0.0
 11
2525.722798378778
 21
591.87521223834926
 31
0.0
  0
LINE
  5
456B
  8
0
 62
     7
 10
1016.722798378782
 20
611.87521223834915
 30
0.0
 11
1694.556131712113
 21
611.87521223834915
 31
0.0
  0
LINE
  5
456C
  8
0
 62
     7
 10
2495.7227983787789
 20
611.87521223834915
 30
0.0
 11
1817.8894650454461
 21
611.87521223834915
 31
0.0
  0
SOLID
  5
456D
  8
0
 62
     7
 10
1016.722798378782
 20
616.87521223834926
 30
0.0
 11
1016.722798378782
 21
606.87521223834915
 31
0.0
 12
986.72279837878204
 22
611.87521223834915
 32
0.0
 13
986.72279837878204
 23
611.87521223834915
 33
0.0
  0
SOLID
  5
456E
  8
0
 62
     7
 10
2495.7227983787789
 20
616.87521223834926
 30
0.0
 11
2495.7227983787789
 21
606.87521223834915
 31
0.0
 12
2525.722798378778
 22
611.87521223834915
 32
0.0
 13
2525.722798378778
 23
611.87521223834915
 33
0.0
  0
LINE
  5
4570
  8
0
 62
     7
 10
986.72279837878204
 20
652.11281376892578
 30
0.0
 11
986.72279837878204
 21
517.86937247759829
 31
0.0
  0
LINE
  5
4571
  8
0
 62
     7
 10
2642.7227983787789
 20
729.67222883198531
 30
0.0
 11
2642.7227983787789
 21
517.86937247759829
 31
0.0
  0
LINE
  5
4572
  8
0
 62
     7
 10
1016.722798378782
 20
537.86937247759829
 30
0.0
 11
1753.056131712113
 21
537.86937247759829
 31
0.0
  0
LINE
  5
4573
  8
0
 62
     7
 10
2612.7227983787802
 20
537.86937247759829
 30
0.0
 11
1876.389465045447
 21
537.86937247759829
 31
0.0
  0
SOLID
  5
4574
  8
0
 62
     7
 10
1016.722798378782
 20
542.86937247759829
 30
0.0
 11
1016.722798378782
 21
532.86937247759795
 31
0.0
 12
986.72279837878204
 22
537.86937247759829
 32
0.0
 13
986.72279837878204
 23
537.86937247759829
 33
0.0
  0
SOLID
  5
4575
  8
0
 62
     7
 10
2612.7227983787802
 20
542.86937247759829
 30
0.0
 11
2612.7227983787802
 21
532.86937247759795
 31
0.0
 12
2642.7227983787789
 22
537.86937247759829
 32
0.0
 13
2642.7227983787789
 23
537.86937247759829
 33
0.0
  0
LINE
  5
4577
  8
0
 62
     7
 10
970.22279837878102
 20
1112.1103027039251
 30
0.0
 11
970.22279837878102
 21
1188.070207392986
 31
0.0
  0
LINE
  5
4578
  8
0
 62
     7
 10
2542.2227983787789
 20
1112.1103027039251
 30
0.0
 11
2542.2227983787789
 21
1188.070207392986
 31
0.0
  0
LINE
  5
4579
  8
0
 62
     7
 10
1000.222798378781
 20
1168.070207392986
 30
0.0
 11
1636.2227983787791
 21
1168.070207392986
 31
0.0
  0
LINE
  5
457A
  8
0
 62
     7
 10
2512.2227983787789
 20
1168.070207392986
 30
0.0
 11
1876.2227983787791
 21
1168.070207392986
 31
0.0
  0
SOLID
  5
457B
  8
0
 62
     7
 10
1000.222798378781
 20
1173.070207392986
 30
0.0
 11
1000.222798378781
 21
1163.070207392986
 31
0.0
 12
970.22279837878102
 22
1168.070207392986
 32
0.0
 13
970.22279837878102
 23
1168.070207392986
 33
0.0
  0
SOLID
  5
457C
  8
0
 62
     7
 10
2512.2227983787789
 20
1173.070207392986
 30
0.0
 11
2512.2227983787789
 21
1163.070207392986
 31
0.0
 12
2542.2227983787789
 22
1168.070207392986
 32
0.0
 13
2542.2227983787789
 23
1168.070207392986
 33
0.0
  0
LINE
  5
457E
  8
0
 62
     7
 10
940.62279837878179
 20
1005.109320182188
 30
0.0
 11
940.62279837878179
 21
1265.1592595800039
 31
0.0
  0
LINE
  5
457F
  8
0
 62
     7
 10
2572.6227983787771
 20
1005.109320182188
 30
0.0
 11
2572.6227983787771
 21
1265.1592595800039
 31
0.0
  0
LINE
  5
4580
  8
0
 62
     7
 10
970.62279837878214
 20
1245.1592595800039
 30
0.0
 11
1374.122798378778
 21
1245.1592595800039
 31
0.0
  0
LINE
  5
4581
  8
0
 62
     7
 10
2542.6227983787771
 20
1245.1592595800039
 30
0.0
 11
2139.122798378779
 21
1245.1592595800039
 31
0.0
  0
SOLID
  5
4582
  8
0
 62
     7
 10
970.62279837878214
 20
1250.159259580003
 30
0.0
 11
970.62279837878214
 21
1240.1592595800039
 31
0.0
 12
940.62279837878179
 22
1245.1592595800039
 32
0.0
 13
940.62279837878179
 23
1245.1592595800039
 33
0.0
  0
SOLID
  5
4583
  8
0
 62
     7
 10
2542.6227983787771
 20
1250.159259580003
 30
0.0
 11
2542.6227983787771
 21
1240.1592595800039
 31
0.0
 12
2572.6227983787771
 22
1245.1592595800039
 32
0.0
 13
2572.6227983787771
 23
1245.1592595800039
 33
0.0
  0
LINE
  5
45AD
  8
0
 62
     7
 10
1300.722798378775
 20
1479.5403805683641
 30
0.0
 11
1300.722798378775
 21
1435.3475216272479
 31
0.0
  0
LINE
  5
45AE
  8
0
 62
     7
 10
2161.7227983787752
 20
1479.5403805683641
 30
0.0
 11
2161.7227983787752
 21
1435.3475216272479
 31
0.0
  0
LINE
  5
45AF
  8
0
 62
     7
 10
1330.722798378775
 20
1455.3475216272479
 30
0.0
 11
1682.056131712108
 21
1455.3475216272479
 31
0.0
  0
LINE
  5
45B0
  8
0
 62
     7
 10
2131.7227983787752
 20
1455.3475216272479
 30
0.0
 11
1780.389465045442
 21
1455.3475216272479
 31
0.0
  0
SOLID
  5
45B1
  8
0
 62
     7
 10
1330.722798378775
 20
1460.3475216272479
 30
0.0
 11
1330.722798378775
 21
1450.3475216272479
 31
0.0
 12
1300.722798378775
 22
1455.3475216272479
 32
0.0
 13
1300.722798378775
 23
1455.3475216272479
 33
0.0
  0
SOLID
  5
45B2
  8
0
 62
     7
 10
2131.7227983787752
 20
1460.3475216272479
 30
0.0
 11
2131.7227983787752
 21
1450.3475216272479
 31
0.0
 12
2161.7227983787752
 22
1455.3475216272479
 32
0.0
 13
2161.7227983787752
 23
1455.3475216272479
 33
0.0
  0
LINE
  5
45B4
  8
0
 62
     7
 10
1032.722798378778
 20
2168.540380568365
 30
0.0
 11
1032.722798378778
 21
2217.5165239304079
 31
0.0
  0
LINE
  5
45B5
  8
0
 62
     7
 10
2429.722798378778
 20
2168.540380568365
 30
0.0
 11
2429.722798378778
 21
2217.5165239304079
 31
0.0
  0
LINE
  5
45B6
  8
0
 62
     7
 10
1062.722798378778
 20
2197.5165239304079
 30
0.0
 11
1669.556131712111
 21
2197.5165239304079
 31
0.0
  0
LINE
  5
45B7
  8
0
 62
     7
 10
2399.722798378778
 20
2197.5165239304079
 30
0.0
 11
1792.889465045444
 21
2197.5165239304079
 31
0.0
  0
SOLID
  5
45B8
  8
0
 62
     7
 10
1062.722798378778
 20
2202.5165239304079
 30
0.0
 11
1062.722798378778
 21
2192.5165239304079
 31
0.0
 12
1032.722798378778
 22
2197.5165239304079
 32
0.0
 13
1032.722798378778
 23
2197.5165239304079
 33
0.0
  0
SOLID
  5
45B9
  8
0
 62
     7
 10
2399.722798378778
 20
2202.5165239304079
 30
0.0
 11
2399.722798378778
 21
2192.5165239304079
 31
0.0
 12
2429.722798378778
 22
2197.5165239304079
 32
0.0
 13
2429.722798378778
 23
2197.5165239304079
 33
0.0
  0
TEXT
  5
4BC8
  8
0
 10
1604.539438604754
 20
1818.277555554547
 30
0.0
 40
50.0
  1
ISD230K
  7
TITLE3
  0
TEXT
  5
4BCB
  8
0
 10
1604.539438604754
 20
733.30560309864734
 30
0.0
 40
50.0
  1
ISD230K
  7
TITLE3
  0
TEXT
  5
4BCC
  8
0
 10
3216.9941725288868
 20
843.97594360285984
 30
0.0
 40
50.0
  1
ISD230K
  7
TITLE3
  0
LINE
  5
4BD7
  8
0
 62
     7
 10
2161.7227983787752
 20
1063.114832182476
 30
0.0
 11
2161.7227983787752
 21
839.11483218247611
 31
0.0
  0
LINE
  5
4BD8
  8
0
 62
     7
 10
1300.722798378775
 20
1063.114832182476
 30
0.0
 11
1300.722798378775
 21
839.11483218247633
 31
0.0
  0
TEXT
  5
4BD9
  8
0
 62
     7
 10
1697.617693438131
 20
2185.0165239304079
 30
0.0
 40
25.0
  1
1397
  0
TEXT
  5
4BDA
  8
0
 62
     7
 10
1710.1176934381299
 20
1442.8475216272479
 30
0.0
 40
25.0
  1
861
  0
TEXT
  5
4BDB
  8
0
 62
     7
 10
1394.9787371576181
 20
1232.659259580003
 30
0.0
 40
25.0
  1
1632 (SPRING MTG CTRS - OPTION)
  0
TEXT
  5
4BDC
  8
0
 62
     7
 10
1657.078737157618
 20
1155.570207392986
 30
0.0
 40
25.0
  1
1572 CTRS
  0
TEXT
  5
4BDD
  8
0
 62
     7
 10
1773.9120704909519
 20
525.36937247759829
 30
0.0
 40
25.0
  1
1656
  0
TEXT
  5
4BDE
  8
0
 62
     7
 10
1715.4120704909519
 20
599.37521223834915
 30
0.0
 40
25.0
  1
1539
  0
ENDSEC
  0
EOF
