  0
SECTION
  2
HEADER
  9
$ACADVER
  1
AC1009
  9
$INSBASE
 10
0.0
 20
0.0
 30
0.0
  9
$EXTMIN
 10
-841.7157459792187
 20
-0.0661118388998148
 30
-0.0000000000112498
  9
$EXTMAX
 10
4417.1954088403672
 20
6598.5043423587076
 30
0.0000000000002956
  9
$LIMMIN
 10
0.0
 20
0.0
  9
$LIMMAX
 10
3890.0
 20
2660.0
  9
$ORTHOMODE
 70
     1
  9
$REGENMODE
 70
     1
  9
$FILLMODE
 70
     1
  9
$QTEXTMODE
 70
     0
  9
$MIRRTEXT
 70
     0
  9
$DRAGMODE
 70
     2
  9
$LTSCALE
 40
300.0
  9
$OSMODE
 70
  3071
  9
$ATTMODE
 70
     1
  9
$TEXTSIZE
 40
30.0
  9
$TRACEWID
 40
0.05
  9
$TEXTSTYLE
  7
TITLE3
  9
$CLAYER
  8
0
  9
$CELTYPE
  6
BYLAYER
  9
$CECOLOR
 62
   256
  9
$DIMSCALE
 40
1.0
  9
$DIMASZ
 40
0.12
  9
$DIMEXO
 40
0.05
  9
$DIMDLI
 40
0.5
  9
$DIMRND
 40
0.0
  9
$DIMDLE
 40
0.0
  9
$DIMEXE
 40
0.1
  9
$DIMTP
 40
0.1
  9
$DIMTM
 40
0.1
  9
$DIMTXT
 40
0.12
  9
$DIMCEN
 40
0.0
  9
$DIMTSZ
 40
0.0
  9
$DIMTOL
 70
     0
  9
$DIMLIM
 70
     0
  9
$DIMTIH
 70
     1
  9
$DIMTOH
 70
     1
  9
$DIMSE1
 70
     0
  9
$DIMSE2
 70
     0
  9
$DIMTAD
 70
     0
  9
$DIMZIN
 70
     7
  9
$DIMBLK
  1

  9
$DIMASO
 70
     0
  9
$DIMSHO
 70
     0
  9
$DIMPOST
  1

  9
$DIMAPOST
  1
mm
  9
$DIMALT
 70
     0
  9
$DIMALTD
 70
     2
  9
$DIMALTF
 40
25.399999999999999
  9
$DIMLFAC
 40
1.0
  9
$DIMTOFL
 70
     0
  9
$DIMTVP
 40
0.0
  9
$DIMTIX
 70
     0
  9
$DIMSOXD
 70
     0
  9
$DIMSAH
 70
     0
  9
$DIMBLK1
  1

  9
$DIMBLK2
  1

  9
$DIMSTYLE
  2
AM_ANSI
  9
$DIMCLRD
 70
   256
  9
$DIMCLRE
 70
   256
  9
$DIMCLRT
 70
     2
  9
$DIMTFAC
 40
0.71
  9
$DIMGAP
 40
0.06
  9
$LUNITS
 70
     2
  9
$LUPREC
 70
     2
  9
$SKETCHINC
 40
0.1
  9
$FILLETRAD
 40
0.0
  9
$AUNITS
 70
     0
  9
$AUPREC
 70
     2
  9
$MENU
  1
\acad12\support\cnc
  9
$ELEVATION
 40
0.0
  9
$PELEVATION
 40
0.0
  9
$THICKNESS
 40
0.0
  9
$LIMCHECK
 70
     0
  9
$BLIPMODE
 70
     0
  9
$CHAMFERA
 40
20.0
  9
$CHAMFERB
 40
20.0
  9
$SKPOLY
 70
     0
  9
$TDCREATE
 40
2450610.4026309028
  9
$TDUPDATE
 40
2455789.6663102889
  9
$TDINDWG
 40
0.6277549421000001
  9
$TDUSRTIMER
 40
0.6277535301
  9
$USRTIMER
 70
     1
  9
$ANGBASE
 50
0.0
  9
$ANGDIR
 70
     0
  9
$PDMODE
 70
     2
  9
$PDSIZE
 40
10.0
  9
$PLINEWID
 40
2.0
  9
$COORDS
 70
     1
  9
$SPLFRAME
 70
     0
  9
$SPLINETYPE
 70
     6
  9
$SPLINESEGS
 70
     8
  9
$ATTDIA
 70
     1
  9
$ATTREQ
 70
     1
  9
$HANDLING
 70
     1
  9
$HANDSEED
  5
9144
  9
$SURFTAB1
 70
     6
  9
$SURFTAB2
 70
     6
  9
$SURFTYPE
 70
     6
  9
$SURFU
 70
     6
  9
$SURFV
 70
     6
  9
$UCSNAME
  2

  9
$UCSORG
 10
0.0
 20
0.0
 30
0.0
  9
$UCSXDIR
 10
1.0
 20
0.0
 30
0.0
  9
$UCSYDIR
 10
0.0
 20
1.0
 30
0.0
  9
$PUCSNAME
  2

  9
$PUCSORG
 10
0.0
 20
0.0
 30
0.0
  9
$PUCSXDIR
 10
1.0
 20
0.0
 30
0.0
  9
$PUCSYDIR
 10
0.0
 20
1.0
 30
0.0
  9
$USERI1
 70
     0
  9
$USERI2
 70
     0
  9
$USERI3
 70
     0
  9
$USERI4
 70
     0
  9
$USERI5
 70
     0
  9
$USERR1
 40
0.0
  9
$USERR2
 40
0.0
  9
$USERR3
 40
0.0
  9
$USERR4
 40
0.0
  9
$USERR5
 40
0.0
  9
$WORLDVIEW
 70
     1
  9
$SHADEDGE
 70
     3
  9
$SHADEDIF
 70
    70
  9
$TILEMODE
 70
     1
  9
$MAXACTVP
 70
    16
  9
$PLIMCHECK
 70
     0
  9
$PEXTMIN
 10
1.0000000000000000E+020
 20
1.0000000000000000E+020
 30
1.0000000000000000E+020
  9
$PEXTMAX
 10
-1.0000000000000000E+020
 20
-1.0000000000000000E+020
 30
-1.0000000000000000E+020
  9
$PLIMMIN
 10
0.0
 20
0.0
  9
$PLIMMAX
 10
12.0
 20
9.0
  9
$UNITMODE
 70
     0
  9
$VISRETAIN
 70
     0
  9
$PLINEGEN
 70
     0
  9
$PSLTSCALE
 70
     0
  0
ENDSEC
  0
SECTION
  2
TABLES
  0
TABLE
  2
VPORT
 70
     1
  0
VPORT
  2
*ACTIVE
 70
     0
 10
0.0
 20
0.0
 11
1.0
 21
1.0
 12
-269.7411042711546
 22
966.6967651556165
 13
0.0
 23
0.0
 14
25.0
 24
25.0
 15
100.0
 25
100.0
 16
0.0
 26
0.0
 36
1.0
 17
2057.4809357017289
 27
2332.5223501042879
 37
0.0
 40
6644.9304339694881
 41
2.15474794841735
 42
50.0
 43
0.0
 44
0.0
 50
0.0
 51
0.0
 71
     0
 72
   100
 73
     1
 74
     0
 75
     0
 76
     0
 77
     0
 78
     0
  0
ENDTAB
  0
TABLE
  2
LTYPE
 70
    18
  0
LTYPE
  2
CONTINUOUS
 70
     0
  3
Solid line
 72
    65
 73
     0
 40
0.0
  0
LTYPE
  2
HIDDEN
 70
     0
  3
_ _ _ _ _ _ _ _ _ _ _ _ _ _ _ _ _ _ _ _ _ _ _
 72
    65
 73
     2
 40
0.375
 49
0.25
 49
-0.125
  0
LTYPE
  2
PHANTOM2
 70
     0
  3
Phantom (.5x) ___ _ _ ___ _ _ ___ _ _ ___ _ _
 72
    65
 73
     6
 40
1.25
 49
0.625
 49
-0.125
 49
0.125
 49
-0.125
 49
0.125
 49
-0.125
  0
LTYPE
  2
HIDDEN2
 70
     0
  3
Hidden (.5x) _ _ _ _ _ _ _ _ _ _ _ _ _ _ _ _ _
 72
    65
 73
     2
 40
0.1875
 49
0.125
 49
-0.0625
  0
LTYPE
  2
CENTER
 70
     0
  3
Center ____ _ ____ _ ____ _ ____ _ ____ _ ____
 72
    65
 73
     4
 40
2.0
 49
1.25
 49
-0.25
 49
0.25
 49
-0.25
  0
LTYPE
  2
AMCONSTR
 70
     0
  3
_______________________
 72
    65
 73
     2
 40
9999.0
 49
9999.0
 49
0.0
  0
LTYPE
  2
CENTER2
 70
     0
  3
Center (.5x) ___ _ ___ _ ___ _ ___ _ ___ _ ___
 72
    65
 73
     4
 40
1.125
 49
0.75
 49
-0.125
 49
0.125
 49
-0.125
  0
LTYPE
  2
AMZIGZAG2
 70
     0
  3
/\/-/\/-/\/-/\/-/\/-/\/
 72
    65
 73
     2
 40
0.4401
 49
0.0001
 49
-0.4400000000000002
  0
LTYPE
  2
ACANSTGB
 70
     0
  3
__ . . __ . .
 72
    65
 73
     6
 40
0.35433070866
 49
0.15748031496
 49
-0.03937007874
 49
0.03937007874
 49
-0.03937007874
 49
0.03937007874
 49
-0.03937007874
  0
LTYPE
  2
ACANSTGL
 70
     0
  3
_ _ _ _ _
 72
    65
 73
     2
 40
0.11811023622
 49
0.07874015748
 49
-0.03937007874
  0
ENDTAB
  0
TABLE
  2
LAYER
 70
     2
  0
LAYER
  2
0
 70
     0
 62
     7
  6
CONTINUOUS
  0
ENDTAB
  0
TABLE
  2
STYLE
 70
     9
  0
STYLE
  2
STANDARD
 70
     0
 40
0.0
 41
1.0
 50
0.0
 71
     0
 42
0.2
  3
txt
  4

  0
STYLE
  2
TITLE3
 70
     0
 40
30.0
 41
1.0
 50
0.0
 71
     0
 42
30.0
  3
SIMPLEX
  4

  0
STYLE
  2
TITLE5
 70
     0
 40
50.0
 41
1.0
 50
0.0
 71
     0
 42
50.0
  3
SIMPLEX
  4

  0
STYLE
  2
SIMPLEX
 70
     0
 40
30.0
 41
1.0
 50
0.0
 71
     0
 42
25.0
  3
SIMPLEX.shx
  4

  0
STYLE
  2
TITLE
 70
     0
 40
60.0
 41
1.0
 50
0.0
 71
     0
 42
60.0
  3
simplex.shx
  4

  0
STYLE
  2
ACANSGDT
 70
     0
 40
0.0
 41
1.0
 50
0.0
 71
     0
 42
30.0
  3
amgdt.shx
  4

  0
ENDTAB
  0
TABLE
  2
VIEW
 70
     0
  0
ENDTAB
  0
TABLE
  2
UCS
 70
     0
  0
ENDTAB
  0
TABLE
  2
APPID
 70
    24
  0
APPID
  2
ACAD
 70
     0
  0
APPID
  2
ACADANNOTATIVE
 70
     0
  0
APPID
  2
ACAD_MLEADERVER
 70
     0
  0
APPID
  2
GENIUS_GENDIM_13
 70
     0
  0
APPID
  2
GENIUS_GENDTOL_13
 70
     0
  0
APPID
  2
GENIUS_GE3DTOL_13
 70
     0
  0
APPID
  2
MCAD_NO_VIS
 70
     0
  0
APPID
  2
ACAD_TEMP_GRAPHIC
 70
     0
  0
APPID
  2
AD_DRAW
 70
     0
  0
APPID
  2
ACATTRIBSERVICES
 70
     0
  0
APPID
  2
ASURF_PCURVE_APPNAME
 70
     0
  0
APPID
  2
AMG_3D2D_5_0
 70
     0
  0
APPID
  2
DESIGNERASSEMBLIES
 70
     0
  0
APPID
  2
ACADM_DIM_EDIT
 70
     0
  0
APPID
  2
AMDT_DM_ADJ
 70
     0
  0
APPID
  2
ACAD_PSEXT
 70
     0
  0
APPID
  2
AMG_3D2D_5_00
 70
     0
  0
APPID
  2
ACAD_EXEMPT_FROM_CAD_STANDARDS
 70
     0
  0
APPID
  2
AMG_3D2D_5_01
 70
     0
  0
APPID
  2
ACAD_DSTYLE_DIMBREAK
 70
     0
  0
APPID
  2
ACAD_DSTYLE_DIMJAG
 70
     0
  0
APPID
  2
ACAECLAYERSTANDARD
 70
     0
  0
APPID
  2
GENIUS_GENODEF_13
 70
     0
  0
APPID
  2
GENIUS_GENOBJ-N-FIL_13
 70
     0
  0
ENDTAB
  0
TABLE
  2
DIMSTYLE
 70
     9
  0
DIMSTYLE
  2
STANDARD
 70
     0
  3

  4

  5

  6

  7

 40
1.0
 41
0.18
 42
0.0625
 43
0.38
 44
0.18
 45
0.0
 46
0.0
 47
0.0
 48
0.0
140
0.18
141
0.09
142
0.0
143
25.399999999999999
144
1.0
145
0.0
146
1.0
147
0.09
 71
     0
 72
     0
 73
     1
 74
     1
 75
     0
 76
     0
 77
     0
 78
     0
170
     0
171
     2
172
     0
173
     0
174
     0
175
     0
176
     0
177
     0
178
     0
  0
DIMSTYLE
  2
AM_ANSI
 70
     0
  3

  4
mm
  5

  6

  7

 40
1.0
 41
0.12
 42
0.05
 43
0.5
 44
0.1
 45
0.0
 46
0.0
 47
0.1
 48
0.1
140
0.12
141
0.0
142
0.0
143
25.399999999999999
144
1.0
145
0.0
146
0.71
147
0.06
 71
     0
 72
     0
 73
     1
 74
     1
 75
     0
 76
     0
 77
     0
 78
     7
170
     0
171
     2
172
     0
173
     0
174
     0
175
     0
176
   256
177
   256
178
     2
  0
DIMSTYLE
  2
AM_ANSI$3
 70
     0
  3

  4
mm
  5

  6

  7

 40
1.0
 41
0.12
 42
0.05
 43
0.5
 44
0.1
 45
0.0
 46
0.0
 47
0.1
 48
0.1
140
0.12
141
0.0
142
0.0
143
25.399999999999999
144
1.0
145
0.0
146
0.71
147
0.06
 71
     0
 72
     0
 73
     1
 74
     1
 75
     0
 76
     0
 77
     0
 78
     7
170
     0
171
     2
172
     0
173
     0
174
     0
175
     0
176
   256
177
   256
178
     2
  0
DIMSTYLE
  2
AM_ANSI$4
 70
     0
  3

  4
mm
  5

  6

  7

 40
1.0
 41
0.12
 42
0.05
 43
0.5
 44
0.1
 45
0.0
 46
0.0
 47
0.1
 48
0.1
140
0.12
141
0.0
142
0.0
143
25.399999999999999
144
1.0
145
0.0
146
0.71
147
0.06
 71
     0
 72
     0
 73
     1
 74
     1
 75
     0
 76
     0
 77
     0
 78
     7
170
     0
171
     2
172
     0
173
     0
174
     0
175
     0
176
   256
177
   256
178
     2
  0
DIMSTYLE
  2
AM_ANSI$7
 70
     0
  3

  4
mm
  5

  6

  7

 40
1.0
 41
0.12
 42
0.05
 43
0.5
 44
0.1
 45
0.0
 46
0.0
 47
0.1
 48
0.1
140
0.12
141
0.0
142
0.0
143
25.399999999999999
144
1.0
145
0.0
146
0.71
147
0.06
 71
     0
 72
     0
 73
     1
 74
     1
 75
     0
 76
     0
 77
     0
 78
     7
170
     0
171
     2
172
     0
173
     0
174
     0
175
     0
176
   256
177
   256
178
     2
  0
DIMSTYLE
  2
AM_ANSI$SF
 70
     0
  3

  4
mm
  5

  6

  7

 40
1.0
 41
0.12
 42
0.05
 43
0.5
 44
0.1
 45
0.0
 46
0.0
 47
0.1
 48
0.1
140
0.12
141
0.0
142
0.0
143
25.399999999999999
144
1.0
145
0.0
146
0.71
147
0.06
 71
     0
 72
     0
 73
     1
 74
     1
 75
     1
 76
     1
 77
     0
 78
     7
170
     0
171
     2
172
     0
173
     0
174
     0
175
     0
176
   256
177
   256
178
     2
  0
DIMSTYLE
  2
AM_ANSI$SH
 70
     0
  3

  4
mm
  5

  6

  7

 40
1.0
 41
0.12
 42
0.05
 43
0.5
 44
0.1
 45
0.0
 46
0.0
 47
0.1
 48
0.1
140
0.12
141
0.0
142
0.0
143
25.399999999999999
144
1.0
145
0.0
146
0.71
147
0.06
 71
     0
 72
     0
 73
     1
 74
     1
 75
     1
 76
     1
 77
     0
 78
     7
170
     0
171
     2
172
     0
173
     1
174
     0
175
     0
176
   256
177
   256
178
     2
  0
ENDTAB
  0
ENDSEC
  0
SECTION
  2
BLOCKS
  0
BLOCK
  8
0
  2
$MODEL_SPACE
 70
     0
 10
0.0
 20
0.0
 30
0.0
  3
$MODEL_SPACE
  1

  0
ENDBLK
  5
8DEB
  8
0
  0
BLOCK
 67
     1
  8
0
  2
$PAPER_SPACE
 70
     0
 10
0.0
 20
0.0
 30
0.0
  3
$PAPER_SPACE
  1

  0
ENDBLK
  5
8DE7
 67
     1
  8
0
  0
BLOCK
  8
0
  2
*U2
 70
     1
 10
0.0
 20
0.0
 30
0.0
  3
*U2
  1

  0
TEXT
  5
8C2A
  8
0
 62
     7
 10
1966.251134363293
 20
3816.3416874558488
 30
0.0
 40
30.0
  1
780
 50
90.0
  0
ENDBLK
  5
8C2C
  8
0
  0
BLOCK
  8
0
  2
*U3
 70
     1
 10
0.0
 20
0.0
 30
0.0
  3
*U3
  1

  0
TEXT
  5
8C31
  8
0
 62
     7
 10
-40.405342074508809
 20
3813.5416874558482
 30
0.0
 40
30.0
  1
825
 50
90.0
  0
ENDBLK
  5
8C33
  8
0
  0
ENDSEC
  0
SECTION
  2
ENTITIES
  0
LINE
  5
8200
  8
0
 62
     7
 10
-841.59878964000461
 20
0.0
 30
0.0
 11
4417.0
 21
0.0
 31
0.0
  0
LINE
  5
8201
  8
0
 62
     7
 10
4417.0
 20
0.0
 30
0.0
 11
4417.0
 21
6598.4423387120469
 31
0.0
  0
LINE
  5
8203
  8
0
 62
     7
 10
-841.59878964000461
 20
6598.4423387120469
 30
0.0
 11
-841.59878964000461
 21
0.0
 31
0.0
  0
TEXT
  5
8205
  8
0
 62
     7
 10
2595.6612673587392
 20
3515.289301097258
 30
0.0
 40
30.0
  1
2000 min CLEARANCE
  7
TITLE3
  0
LINE
  5
8212
  8
0
 62
     7
 10
2176.480777594049
 20
155.48709778756151
 30
0.0
 11
2260.480777594048
 21
155.48709778756151
 31
0.0
  0
SOLID
  5
8232
  8
0
 62
     7
 10
3039.004256921919
 20
6090.2562194929433
 30
0.0
 11
3014.004256921919
 21
5940.2562194929378
 31
0.0
 12
2989.0042569219181
 22
6090.2562194929433
 32
0.0
 13
2989.0042569219181
 23
6090.2562194929433
 33
0.0
1001
ACAD
1000
DSTYLE
1002
{
1070
    41
1040
60.0
1070
    42
1040
40.0
1070
    44
1040
40.0
1070
    73
1070
     0
1070
    74
1070
     0
1070
   140
1040
60.0
1070
   147
1040
40.0
1070
   176
1070
    52
1070
   177
1070
    52
1070
   178
1070
    50
1070
   179
1070
     2
1070
   271
1070
     2
1070
   272
1070
     2
1070
   279
1070
     2
1070
   340
1005
FC6
1002
}
  0
LINE
  5
8233
  8
0
 62
     7
 10
2256.4307775940488
 20
5049.5416874558487
 30
0.0
 11
2256.4307775940488
 21
5063.5416874558523
 31
0.0
  0
LINE
  5
8234
  8
0
 62
     7
 10
2176.5307775940501
 20
5049.5416874558487
 30
0.0
 11
2176.5307775940501
 21
5063.5416874558478
 31
0.0
  0
LINE
  5
8235
  8
0
 62
     7
 10
2176.5307775940501
 20
5049.5416874558487
 30
0.0
 11
2256.4307775940488
 21
5049.5416874558487
 31
0.0
  0
LINE
  5
8237
  8
0
 62
     7
 10
-518.14094053229041
 20
5040.7416874558494
 30
0.0
 11
-518.14094053229041
 21
5865.7416874558476
 31
0.0
  0
LINE
  5
823D
  8
0
 62
     7
 10
-518.14094053229041
 20
5865.7416874558476
 30
0.0
 11
-498.19094053228918
 21
5865.7416874558476
 31
0.0
  0
LINE
  5
824E
  8
0
 62
     7
 10
2025.480777594048
 20
1560.8370977875611
 30
0.0
 11
2025.480777594048
 21
207.98709778756171
 31
0.0
  0
LINE
  5
824F
  8
0
 62
     7
 10
3706.4807775940449
 20
207.98709778756171
 30
0.0
 11
2025.480777594048
 21
207.98709778756171
 31
0.0
  0
LINE
  5
8250
  8
0
 62
     7
 10
3706.4807775940521
 20
1560.8370977875611
 30
0.0
 11
3706.4807775940449
 21
207.98709778756171
 31
0.0
  0
LINE
  5
8255
  8
0
 62
     7
 10
887.20905946770949
 20
5843.5416874558468
 30
0.0
 11
-487.44159010962352
 21
5843.5416874558496
 31
0.0
  0
LINE
  5
8256
  8
0
 62
     7
 10
887.20905946770949
 20
5063.5416874558478
 30
0.0
 11
-487.15106712522652
 21
5063.5416874558478
 31
0.0
  0
LINE
  5
8258
  8
0
 62
     7
 10
3706.4807775940449
 20
5843.5416874558496
 30
0.0
 11
3706.4807775940449
 21
5063.5416874558478
 31
0.0
  0
LINE
  5
8259
  8
0
 62
     7
 10
2025.480777594046
 20
5843.5416874558496
 30
0.0
 11
2025.480777594046
 21
5063.5416874558478
 31
0.0
  0
LINE
  5
825A
  8
0
 62
     7
 10
2025.480777594046
 20
5063.5416874558478
 30
0.0
 11
3706.4807775940449
 21
5063.5416874558478
 31
0.0
  0
LINE
  5
825B
  8
0
 62
     7
 10
3706.4807775940449
 20
5843.5416874558496
 30
0.0
 11
2025.480777594046
 21
5843.5416874558496
 31
0.0
  0
LINE
  5
8267
  8
0
  6
PHANTOM2
 62
     7
 10
3706.4807775940449
 20
5853.5416874558514
 30
0.0
 11
3706.4807775940449
 21
6343.5416874558468
 31
0.0
  0
LINE
  5
8268
  8
0
  6
PHANTOM2
 62
     7
 10
2025.480777594046
 20
5853.5416874558514
 30
0.0
 11
2025.480777594046
 21
6343.5416874558468
 31
0.0
  0
LINE
  5
8269
  8
0
  6
PHANTOM2
 62
     7
 10
2025.480777594046
 20
6343.5416874558468
 30
0.0
 11
3706.4807775940449
 21
6343.5416874558468
 31
0.0
  0
LINE
  5
826D
  8
0
  6
PHANTOM2
 62
     7
 10
4206.4807775940444
 20
5843.5416874558496
 30
0.0
 11
4206.4807775940444
 21
5063.5416874558478
 31
0.0
  0
LINE
  5
826E
  8
0
  6
PHANTOM2
 62
     7
 10
3706.4807775940449
 20
4063.5416874558509
 30
0.0
 11
2025.480777594046
 21
4063.5416874558509
 31
0.0
  0
LINE
  5
826F
  8
0
  6
PHANTOM2
 62
     7
 10
2025.480777594046
 20
5053.5416874558514
 30
0.0
 11
2025.480777594046
 21
4063.5416874558509
 31
0.0
  0
LINE
  5
8270
  8
0
  6
PHANTOM2
 62
     7
 10
3706.4807775940449
 20
5053.5416874558514
 30
0.0
 11
3706.4807775940449
 21
4063.5416874558509
 31
0.0
  0
LINE
  5
8271
  8
0
  6
PHANTOM2
 62
     7
 10
4206.4807775940444
 20
5063.5416874558478
 30
0.0
 11
3716.4807775940449
 21
5063.5416874558478
 31
0.0
  0
LINE
  5
8272
  8
0
  6
PHANTOM2
 62
     7
 10
3716.4807775940449
 20
5843.5416874558468
 30
0.0
 11
4206.4807775940444
 21
5843.5416874558496
 31
0.0
  0
LINE
  5
8273
  8
0
  6
PHANTOM2
 62
     7
 10
2025.480777594046
 20
3560.8370977875602
 30
0.0
 11
3706.4807775940499
 21
3560.8370977875602
 31
0.0
  0
LINE
  5
8274
  8
0
  6
PHANTOM2
 62
     7
 10
2025.480777594043
 20
1620.8370977875611
 30
0.0
 11
2025.480777594046
 21
3560.8370977875602
 31
0.0
  0
LINE
  5
8275
  8
0
  6
PHANTOM2
 62
     7
 10
3706.4807775940449
 20
1620.8370977875611
 30
0.0
 11
3706.4807775940499
 21
3560.8370977875602
 31
0.0
  0
TEXT
  5
8276
  8
0
 62
     7
 10
2644.367165449291
 20
771.51216046484683
 30
0.0
 40
56.25
  1
OSA310RKTBV
  7
TITLE5
 72
     1
 11
2934.992165449291
 21
771.51216046484683
 31
0.0
  0
SOLID
  5
827E
  8
0
 62
     7
 10
3141.1300853300668
 20
1814.3910402421991
 30
0.0
 11
3116.1300853300668
 21
1964.3910402421991
 31
0.0
 12
3091.1300853300681
 22
1814.3910402421991
 32
0.0
 13
3091.1300853300681
 23
1814.3910402421991
 33
0.0
1001
ACAD
1000
DSTYLE
1002
{
1070
    41
1040
60.0
1070
    42
1040
40.0
1070
    44
1040
40.0
1070
    73
1070
     0
1070
    74
1070
     0
1070
   140
1040
60.0
1070
   147
1040
40.0
1070
   176
1070
    52
1070
   177
1070
    52
1070
   178
1070
    50
1070
   179
1070
     2
1070
   271
1070
     2
1070
   272
1070
     2
1070
   279
1070
     2
1070
   340
1005
FC6
1002
}
  0
TEXT
  5
8285
  8
0
 62
     7
 10
2677.8593094364619
 20
6297.9938907655487
 30
0.0
 40
30.0
  1
500 min CLEARANCE
  7
TITLE3
  0
TEXT
  5
8286
  8
0
 62
     7
 10
4147.7880616479906
 20
5292.487174271826
 30
0.0
 40
30.0
  1
CLEARANCE
 50
90.0
  7
TITLE3
  0
TEXT
  5
8287
  8
0
 62
     7
 10
-21.355865348581862
 20
5347.6269746523712
 30
0.0
 40
56.25
  1
OSA310RKTBV
  7
TITLE5
 72
     1
 11
269.2691346514182
 21
5347.6269746523712
 31
0.0
  0
TEXT
  5
8288
  8
0
 62
     7
 10
2782.1623084459211
 20
5163.9142838148491
 30
0.0
 40
56.25
  1
OSA
  7
TITLE5
 72
     1
 11
2859.8408798744931
 21
5163.9142838148491
 31
0.0
  0
TEXT
  5
828A
  8
0
 62
     7
 10
2922.0739473592589
 20
4018.1115076270121
 30
0.0
 40
30.0
  1
1000 min CLEARANCE
  7
TITLE3
  0
LINE
  5
828B
  8
0
  6
HIDDEN2
 62
     7
 10
3649.8501050592649
 20
5805.9770439702024
 30
0.0
 11
2268.0407775940462
 21
5805.9770439702024
 31
0.0
  0
LINE
  5
828C
  8
0
  6
HIDDEN2
 62
     7
 10
3649.8501050592649
 20
5750.9770439702052
 30
0.0
 11
2268.0407775940462
 21
5750.9770439702052
 31
0.0
  0
TEXT
  5
8295
  8
0
 62
     7
 10
4199.2166330765631
 20
5333.5609832954551
 30
0.0
 40
30.0
  1
500 min
 50
90.0
  7
TITLE3
  0
TEXT
  5
8430
  8
0
 62
     7
 10
-627.53887530939505
 20
350.99638005652997
 30
0.0
 40
62.5
  1
temperzone OSA 310RKTBV
 41
0.95
  7
TITLE5
 72
     1
 11
-5.5150657855856471
 21
350.99638005652997
 31
0.0
  0
TEXT
  5
8431
  8
0
 62
     7
 10
-480.51506578558661
 20
87.5
 30
0.0
 40
37.5
  1
OSA310RKTV
 41
1.035714285714286
  7
TITLE3
 72
     5
 11
-118.0150657855863
 21
87.5
 31
0.0
  0
TEXT
  5
8432
  8
0
 62
     7
 10
248.0269268619858
 20
137.5
 30
0.0
 40
37.5
  1
15-08-11
 41
0.7516778523489937
  7
TITLE3
 72
     5
 11
448.02692686198583
 21
137.5
 31
0.0
  0
TEXT
  5
8433
  8
0
 62
     7
 10
518.75799096750768
 20
138.53901732512611
 30
0.0
 40
30.0
  1
Date
  7
SIMPLEX
  0
TEXT
  5
8434
  8
0
 62
     7
 10
-644.84365828691705
 20
161.879127529264
 30
0.0
 40
30.0
  1
Revision
 41
0.7812095035934838
  7
SIMPLEX
 72
     5
 11
-513.15405625258688
 21
161.879127529264
 31
0.0
  0
LINE
  5
8435
  8
0
 62
     7
 10
-498.6292532732831
 20
26.053116060396409
 30
0.0
 11
-498.6292532732831
 21
210.3358196356829
 31
0.0
  0
LINE
  5
8436
  8
0
 62
     7
 10
645.29552239297857
 20
433.29949611692632
 30
0.0
 11
645.29552239297857
 21
26.053116060396409
 31
0.0
  0
LINE
  5
8437
  8
0
 62
     7
 10
-101.65716330195301
 20
26.053116060396409
 30
0.0
 11
-101.65716330195301
 21
210.3358196356829
 31
0.0
  0
LINE
  5
8438
  8
0
 62
     7
 10
-101.65716330195301
 20
116.6407490868297
 30
0.0
 11
645.29552239297857
 21
116.6407490868297
 31
0.0
  0
LINE
  5
8439
  8
0
 62
     7
 10
-657.48439733288706
 20
210.3358196356829
 30
0.0
 11
645.29552239297857
 21
210.3358196356829
 31
0.0
  0
LINE
  5
843A
  8
0
 62
     7
 10
645.29552239297857
 20
26.053116060396409
 30
0.0
 11
-657.1125133599503
 21
26.053116060396409
 31
0.0
  0
LINE
  5
843B
  8
0
 62
     7
 10
-657.1125133599503
 20
26.053116060396409
 30
0.0
 11
-657.1125133599503
 21
433.29949611692632
 31
0.0
  0
LINE
  5
843C
  8
0
 62
     7
 10
-657.1125133599503
 20
433.29949611692632
 30
0.0
 11
645.29552239297857
 21
433.29949611692632
 31
0.0
  0
TEXT
  5
843D
  8
0
 62
     7
 10
488.28155398364652
 20
59.903110081697093
 30
0.0
 40
25.0
  1
Scale
 41
1.3701747965659541
  7
SIMPLEX
 72
     5
 11
613.88091033552564
 21
59.903110081697093
 31
0.0
  0
TEXT
  5
843E
  8
0
 62
     7
 10
-391.94611314372531
 20
161.1167893833869
 30
0.0
 40
25.0
  1
Drawing No.
  7
SIMPLEX
 72
     2
 11
-174.08897028658251
 21
161.1167893833869
 31
0.0
  0
TEXT
  5
843F
  8
0
 62
     7
 10
321.09638254401182
 20
58.608558680249381
 30
0.0
 40
37.5
  1
1:10
  7
TITLE3
  0
LINE
  5
85ED
  8
0
 62
     7
 10
3116.1300853300668
 20
1814.3910402421991
 30
0.0
 11
3116.1300853300668
 21
1692.941745987752
 31
0.0
1001
ACAD
1000
DSTYLE
1002
{
1070
    41
1040
60.0
1070
    42
1040
40.0
1070
    44
1040
40.0
1070
    73
1070
     0
1070
    74
1070
     0
1070
   140
1040
60.0
1070
   147
1040
40.0
1070
   176
1070
    52
1070
   177
1070
    52
1070
   178
1070
    50
1070
   179
1070
     2
1070
   271
1070
     2
1070
   272
1070
     2
1070
   279
1070
     2
1070
   340
1005
FC6
1002
}
  0
TEXT
  5
85EF
  8
0
 62
     7
 10
2752.366815975141
 20
1829.484269918119
 30
0.0
 40
60.0
  1
AIR
  7
TITLE
  0
TEXT
  5
85F0
  8
0
 62
     7
 10
2705.2239588322841
 20
1730.2681391949211
 30
0.0
 40
60.0
  1
FLOW
  7
TITLE
  0
LINE
  5
85F1
  8
0
 62
     7
 10
3014.004256921919
 20
6091.040088769746
 30
0.0
 11
3014.004256921919
 21
6212.4893830241908
 31
0.0
1001
ACAD
1000
DSTYLE
1002
{
1070
    41
1040
60.0
1070
    42
1040
40.0
1070
    44
1040
40.0
1070
    73
1070
     0
1070
    74
1070
     0
1070
   140
1040
60.0
1070
   147
1040
40.0
1070
   176
1070
    52
1070
   177
1070
    52
1070
   178
1070
    50
1070
   179
1070
     2
1070
   271
1070
     2
1070
   272
1070
     2
1070
   279
1070
     2
1070
   340
1005
FC6
1002
}
  0
TEXT
  5
85F2
  8
0
 62
     7
 10
1700.5713180051489
 20
5195.48673417792
 30
0.0
 40
60.0
  1
AIR
  7
TITLE
  0
TEXT
  5
85F3
  8
0
 62
     7
 10
1653.4284608622929
 20
5295.4867341779154
 30
0.0
 40
60.0
  1
FLOW
  7
TITLE
  0
TEXT
  5
85F4
  8
0
 62
     7
 10
-588.49449392097597
 20
525.9479428556499
 30
0.0
 40
31.25
  1
available on request
  7
TITLE3
  0
TEXT
  5
85F5
  8
0
 62
     7
 10
-588.49449392097597
 20
579.51937142707845
 30
0.0
 40
31.25
  1
Certified dimensions
  7
TITLE3
  0
TEXT
  5
85F6
  8
0
 62
     7
 10
-588.49449392097597
 20
633.09079999850701
 30
0.0
 40
31.25
  1
without notice or obligation.
  7
TITLE3
  0
TEXT
  5
85F7
  8
0
 62
     7
 10
-588.49449392097597
 20
686.66222856993556
 30
0.0
 40
31.25
  1
specifications at any time
  7
TITLE3
  0
TEXT
  5
85F8
  8
0
 62
     7
 10
-588.49449392097597
 20
740.23365714136412
 30
0.0
 40
31.25
  1
the right to change 
  7
TITLE3
  0
TEXT
  5
85F9
  8
0
 62
     7
 10
-588.49449392097597
 20
847.37651428422043
 30
0.0
 40
31.25
  1
NOTE
  7
TITLE3
  0
TEXT
  5
85FA
  8
0
 62
     7
 10
-588.49449392097597
 20
793.80508571279233
 30
0.0
 40
31.25
  1
The manufacturer reserves
  7
TITLE3
  0
TEXT
  5
862B
  8
0
 62
     7
 10
2654.930165588778
 20
5085.8295970404506
 30
0.0
 40
56.25
  1
310RKTBV
  7
TITLE5
 72
     1
 11
2859.8408798744931
 21
5085.8295970404506
 31
0.0
  0
LINE
  5
8666
  8
0
 62
     7
 10
2176.480777594049
 20
155.48709778756151
 30
0.0
 11
2135.526232139503
 21
207.98709778756159
 31
0.0
  0
LINE
  5
8667
  8
0
 62
     7
 10
2260.480777594048
 20
155.48709778756151
 30
0.0
 11
2301.4353230485949
 21
207.98709778756159
 31
0.0
  0
LINE
  5
866B
  8
0
 62
     7
 10
3555.480777594044
 20
155.48709778756179
 30
0.0
 11
3471.480777594044
 21
155.48709778756179
 31
0.0
  0
LINE
  5
866C
  8
0
 62
     7
 10
3475.530777594045
 20
5049.5416874558487
 30
0.0
 11
3475.530777594045
 21
5063.5416874558523
 31
0.0
  0
LINE
  5
866D
  8
0
 62
     7
 10
3555.4307775940451
 20
5049.5416874558487
 30
0.0
 11
3555.4307775940451
 21
5063.5416874558478
 31
0.0
  0
LINE
  5
866E
  8
0
 62
     7
 10
3555.4307775940451
 20
5049.5416874558487
 30
0.0
 11
3475.530777594045
 21
5049.5416874558487
 31
0.0
  0
LINE
  5
866F
  8
0
 62
     7
 10
3555.480777594044
 20
155.48709778756179
 30
0.0
 11
3596.435323048589
 21
207.98709778756191
 31
0.0
  0
LINE
  5
8670
  8
0
 62
     7
 10
3471.480777594044
 20
155.48709778756179
 30
0.0
 11
3430.5262321394989
 21
207.98709778756191
 31
0.0
  0
LINE
  5
86BB
  8
0
 62
     7
 10
2025.480777594048
 20
168.48709778756151
 30
0.0
 11
2025.480777594048
 21
20.872615008420588
 31
0.0
  0
LINE
  5
86BC
  8
0
 62
     7
 10
3706.4807775940449
 20
168.48709778756151
 30
0.0
 11
3706.4807775940449
 21
20.872615008420588
 31
0.0
  0
LINE
  5
86BD
  8
0
 62
     7
 10
2055.480777594048
 20
40.872615008420773
 30
0.0
 11
2769.9442177107112
 21
40.872615008420773
 31
0.0
  0
LINE
  5
86BE
  8
0
 62
     7
 10
3676.4807775940449
 20
40.872615008420773
 30
0.0
 11
2894.9442177107121
 21
40.872615008420773
 31
0.0
  0
SOLID
  5
86BF
  8
0
 62
     7
 10
2055.480777594048
 20
45.872615008420581
 30
0.0
 11
2055.480777594048
 21
35.872615008420709
 31
0.0
 12
2025.480777594048
 22
40.872615008420773
 32
0.0
 13
2025.480777594048
 23
40.872615008420773
 33
0.0
  0
SOLID
  5
86C0
  8
0
 62
     7
 10
3676.4807775940449
 20
45.872615008420581
 30
0.0
 11
3676.4807775940449
 21
35.872615008420709
 31
0.0
 12
3706.4807775940449
 22
40.872615008420773
 32
0.0
 13
3706.4807775940449
 23
40.872615008420773
 33
0.0
  0
LINE
  5
86C2
  8
0
 62
     7
 10
2218.480777594049
 20
125.48709778756159
 30
0.0
 11
2218.480777594049
 21
82.860095858521547
 31
0.0
  0
LINE
  5
86C3
  8
0
 62
     7
 10
3513.4807775940449
 20
125.48709778756189
 30
0.0
 11
3513.4807775940449
 21
82.860095858521817
 31
0.0
  0
LINE
  5
86C4
  8
0
 62
     7
 10
2248.480777594048
 20
102.8600958585215
 30
0.0
 11
2702.4442177107089
 21
102.8600958585216
 31
0.0
  0
LINE
  5
86C5
  8
0
 62
     7
 10
3483.480777594044
 20
102.8600958585218
 30
0.0
 11
2962.4442177107089
 21
102.8600958585216
 31
0.0
  0
SOLID
  5
86C6
  8
0
 62
     7
 10
2248.480777594048
 20
107.8600958585215
 30
0.0
 11
2248.480777594048
 21
97.860095858521547
 31
0.0
 12
2218.480777594049
 22
102.8600958585215
 32
0.0
 13
2218.480777594049
 23
102.8600958585215
 33
0.0
  0
SOLID
  5
86C7
  8
0
 62
     7
 10
3483.480777594044
 20
107.8600958585218
 30
0.0
 11
3483.480777594044
 21
97.860095858521817
 31
0.0
 12
3513.4807775940449
 22
102.8600958585218
 32
0.0
 13
3513.4807775940449
 23
102.8600958585218
 33
0.0
  0
LINE
  5
86C9
  8
0
 62
     7
 10
2115.9803642689408
 20
1667.8370977875661
 30
0.0
 11
1883.088490115972
 21
1667.8370977875661
 31
0.0
  0
LINE
  5
86CA
  8
0
 62
     7
 10
2154.480777594049
 20
155.48709778756151
 30
0.0
 11
1883.08849011597
 21
155.48709778756179
 31
0.0
  0
LINE
  5
86CB
  8
0
 62
     7
 10
1903.088490115972
 20
1637.8370977875661
 30
0.0
 11
1903.08849011597
 21
1039.1576614520011
 31
0.0
  0
LINE
  5
86CC
  8
0
 62
     7
 10
1903.08849011597
 20
185.48709778756171
 30
0.0
 11
1903.08849011597
 21
799.15766145200143
 31
0.0
  0
SOLID
  5
86CD
  8
0
 62
     7
 10
1898.088490115972
 20
1637.8370977875661
 30
0.0
 11
1908.088490115972
 21
1637.8370977875661
 31
0.0
 12
1903.088490115972
 22
1667.8370977875661
 32
0.0
 13
1903.088490115972
 23
1667.8370977875661
 33
0.0
  0
SOLID
  5
86CE
  8
0
 62
     7
 10
1898.0884901159709
 20
185.48709778756171
 30
0.0
 11
1908.08849011597
 21
185.48709778756171
 31
0.0
 12
1903.08849011597
 22
155.48709778756179
 32
0.0
 13
1903.08849011597
 23
155.48709778756179
 33
0.0
  0
LINE
  5
8722
  8
0
 62
     7
 10
-505.14094053228808
 20
5853.7416874558476
 30
0.0
 11
-672.41047800569322
 21
5853.7416874558476
 31
0.0
  0
LINE
  5
8723
  8
0
 62
     7
 10
-538.14094053229041
 20
5055.7416874558476
 30
0.0
 11
-672.41047800569345
 21
5055.7416874558476
 31
0.0
  0
LINE
  5
8724
  8
0
 62
     7
 10
-652.41047800569345
 20
5823.7416874558467
 30
0.0
 11
-652.41047800569345
 21
5639.0673684094136
 31
0.0
  0
LINE
  5
8725
  8
0
 62
     7
 10
-652.41047800569356
 20
5085.7416874558503
 30
0.0
 11
-652.41047800569356
 21
5271.2631851783663
 31
0.0
  0
SOLID
  5
8726
  8
0
 62
     7
 10
-657.41047800569345
 20
5823.7416874558467
 30
0.0
 11
-647.41047800569345
 21
5823.7416874558467
 31
0.0
 12
-652.41047800569345
 22
5853.7416874558476
 32
0.0
 13
-652.41047800569345
 23
5853.7416874558476
 33
0.0
  0
SOLID
  5
8727
  8
0
 62
     7
 10
-657.41047800569356
 20
5085.7416874558503
 30
0.0
 11
-647.41047800569356
 21
5085.7416874558503
 31
0.0
 12
-652.41047800569356
 22
5055.7416874558476
 32
0.0
 13
-652.41047800569356
 23
5055.7416874558476
 33
0.0
  0
LINE
  5
8754
  8
0
 62
     7
 10
-528.14094053229041
 20
5055.7416874558512
 30
0.0
 11
-508.1409405322903
 21
5055.7416874558494
 31
0.0
  0
LINE
  5
875F
  8
0
 62
     7
 10
2218.480777594048
 20
145.48709778756159
 30
0.0
 11
2218.480777594049
 21
165.48709778756159
 31
0.0
  0
LINE
  5
8762
  8
0
 62
     7
 10
3513.4807775940449
 20
145.48709778756191
 30
0.0
 11
3513.4807775940449
 21
165.48709778756191
 31
0.0
  0
LINE
  5
8793
  8
0
 62
     7
 10
-505.14094053228808
 20
5853.7416874558476
 30
0.0
 11
-595.55488740857845
 21
5853.7416874558476
 31
0.0
  0
LINE
  5
8799
  8
0
 62
     7
 10
2218.480777594048
 20
125.48709778756159
 30
0.0
 11
2218.480777594048
 21
82.926165978746525
 31
0.0
  0
LINE
  5
879A
  8
0
 62
     7
 10
2025.480777594048
 20
168.48709778756151
 30
0.0
 11
2025.480777594048
 21
82.926165978746582
 31
0.0
  0
LINE
  5
879B
  8
0
 62
     7
 10
2188.480777594048
 20
102.9261659787465
 30
0.0
 11
2055.480777594048
 21
102.9261659787465
 31
0.0
  0
LINE
  5
879C
  8
0
 62
     7
 10
2025.480777594048
 20
102.9261659787465
 30
0.0
 11
1995.480777594048
 21
102.9261659787465
 31
0.0
  0
SOLID
  5
879D
  8
0
 62
     7
 10
2188.480777594048
 20
107.9261659787465
 30
0.0
 11
2188.480777594048
 21
97.92616597874644
 31
0.0
 12
2218.480777594048
 22
102.9261659787465
 32
0.0
 13
2218.480777594048
 23
102.9261659787465
 33
0.0
  0
SOLID
  5
879E
  8
0
 62
     7
 10
2055.480777594048
 20
107.9261659787466
 30
0.0
 11
2055.480777594048
 21
97.926165978746496
 31
0.0
 12
2025.480777594048
 22
102.9261659787465
 32
0.0
 13
2025.480777594048
 23
102.9261659787465
 33
0.0
  0
LINE
  5
8942
  8
0
 10
4417.0
 20
6598.4423387120469
 30
0.0
 11
-841.59878964000461
 21
6598.4423387120469
 31
0.0
  0
TEXT
  5
8947
  8
0
 62
     7
 10
-637.41047800569413
 20
5277.7145672200104
 30
0.0
 40
30.0
  1
798 MTG CTRS
 50
90.0
  0
TEXT
  5
8949
  8
0
 62
     7
 10
1915.480777594048
 20
87.926165978746582
 30
0.0
 40
30.0
  1
191
  0
TEXT
  5
894A
  8
0
 62
     7
 10
1918.0884901159709
 20
819.15766145200178
 30
0.0
 40
30.0
  1
1512 O/A
 50
90.0
  0
TEXT
  5
894B
  8
0
 62
     7
 10
2722.4442177107089
 20
87.860095858521589
 30
0.0
 40
30.0
  1
1295 CTRS
  0
TEXT
  5
894C
  8
0
 62
     7
 10
2789.9442177107121
 20
25.872615008420581
 30
0.0
 40
30.0
  1
1681
  0
LINE
  5
8AE3
  8
0
  6
HIDDEN2
 62
     7
 10
3649.8501050592649
 20
5805.9770439702024
 30
0.0
 11
3649.8501050592649
 21
5750.9770439702052
 31
0.0
  0
LINE
  5
8BAB
  8
0
 62
     7
 10
2005.480777594046
 20
5063.5416874558478
 30
0.0
 11
1931.251134363293
 21
5063.5416874558478
 31
0.0
  0
LINE
  5
8BAC
  8
0
 62
     7
 10
2005.480777594046
 20
5843.5416874558496
 30
0.0
 11
1931.2511343632941
 21
5843.5416874558496
 31
0.0
  0
LINE
  5
8BAD
  8
0
 62
     7
 10
1951.251134363293
 20
5093.5416874558478
 30
0.0
 11
1951.2511343632941
 21
5341.0416874558496
 31
0.0
  0
LINE
  5
8BAE
  8
0
 62
     7
 10
1951.2511343632941
 20
5813.5416874558487
 30
0.0
 11
1951.2511343632941
 21
5566.0416874558478
 31
0.0
  0
SOLID
  5
8BAF
  8
0
 62
     7
 10
1946.251134363293
 20
5093.5416874558478
 30
0.0
 11
1956.251134363293
 21
5093.5416874558478
 31
0.0
 12
1951.251134363293
 22
5063.5416874558478
 32
0.0
 13
1951.251134363293
 23
5063.5416874558478
 33
0.0
  0
SOLID
  5
8BB0
  8
0
 62
     7
 10
1946.251134363293
 20
5813.5416874558487
 30
0.0
 11
1956.251134363293
 21
5813.5416874558487
 31
0.0
 12
1951.2511343632941
 22
5843.5416874558496
 32
0.0
 13
1951.2511343632941
 23
5843.5416874558496
 33
0.0
  0
INSERT
  5
8BB1
  8
0
  2
*U2
 10
0.0
 20
1599.0550208699881
 30
0.0
  0
LINE
  5
8BCA
  8
0
 10
-498.19094053228918
 20
5865.7416874558476
 30
0.0
 11
-487.4415901096238
 21
5843.5416874558496
 31
0.0
  0
LINE
  5
8BCC
  8
0
 62
     7
 10
-518.14094053229041
 20
5040.7416874558494
 30
0.0
 11
-498.19094053228918
 21
5040.7416874558494
 31
0.0
  0
LINE
  5
8BCD
  8
0
 10
-498.19094053228918
 20
5040.7416874558494
 30
0.0
 11
-487.15106712522652
 21
5063.5416874558478
 31
0.0
  0
LINE
  5
8BCF
  8
0
 62
     7
 10
-518.14094053229041
 20
5853.7416874558448
 30
0.0
 11
-498.19094053228918
 21
5853.7416874558448
 31
0.0
  0
LINE
  5
8BD7
  8
0
 62
     7
 10
-538.14094053229041
 20
5040.7416874558494
 30
0.0
 11
-772.92857548617064
 21
5040.7416874558494
 31
0.0
  0
LINE
  5
8BD8
  8
0
 62
     7
 10
-538.14094053229041
 20
5865.7416874558476
 30
0.0
 11
-772.92857548617053
 21
5865.7416874558476
 31
0.0
  0
LINE
  5
8BD9
  8
0
 62
     7
 10
-752.92857548617076
 20
5070.7416874558476
 30
0.0
 11
-752.92857548617076
 21
5338.2416874558476
 31
0.0
  0
LINE
  5
8BDA
  8
0
 62
     7
 10
-752.92857548617053
 20
5835.7416874558467
 30
0.0
 11
-752.92857548617053
 21
5568.2416874558494
 31
0.0
  0
SOLID
  5
8BDB
  8
0
 62
     7
 10
-757.92857548617064
 20
5070.7416874558476
 30
0.0
 11
-747.92857548617064
 21
5070.7416874558476
 31
0.0
 12
-752.92857548617076
 22
5040.7416874558494
 32
0.0
 13
-752.92857548617076
 23
5040.7416874558494
 33
0.0
  0
SOLID
  5
8BDC
  8
0
 62
     7
 10
-757.92857548617053
 20
5835.7416874558467
 30
0.0
 11
-747.92857548617053
 21
5835.7416874558467
 31
0.0
 12
-752.92857548617053
 22
5865.7416874558476
 32
0.0
 13
-752.92857548617053
 23
5865.7416874558476
 33
0.0
  0
INSERT
  5
8BDD
  8
0
  2
*U3
 10
-697.5232334116622
 20
1603.9503997038969
 30
0.0
  0
LINE
  5
8EF8
  8
0
 62
     7
 10
2763.0807775940489
 20
1667.837097787565
 30
0.0
 11
2167.0807775940489
 21
1667.8370977875661
 31
0.0
  0
LINE
  5
8EF9
  8
0
 62
     7
 10
3564.88077759405
 20
1667.8370977875641
 30
0.0
 11
2968.88077759405
 21
1667.8370977875661
 31
0.0
  0
LINE
  5
8F48
  8
0
 62
     7
 10
3706.4807775940521
 20
1560.8370977875611
 30
0.0
 11
2025.480777594048
 21
1560.8370977875611
 31
0.0
  0
CIRCLE
  5
8FD2
  8
0
 10
2465.0807775940489
 20
5420.0916874558507
 30
0.0
 40
330.0
  0
CIRCLE
  5
8FD3
  8
0
 10
3266.88077759405
 20
5420.0916874558507
 30
0.0
 40
330.0
  0
LINE
  5
8FD8
  8
0
 10
2135.0807775940489
 20
1560.8370977875611
 30
0.0
 11
2167.0807775940489
 21
1667.8370977875661
 31
0.0
  0
LINE
  5
8FD9
  8
0
 10
2763.0807775940489
 20
1667.837097787565
 30
0.0
 11
2795.0807775940498
 21
1560.8370977875611
 31
0.0
  0
LINE
  5
8FDA
  8
0
 10
2936.88077759405
 20
1560.8370977875611
 30
0.0
 11
2968.88077759405
 21
1667.8370977875661
 31
0.0
  0
LINE
  5
8FDB
  8
0
 10
3596.8807775940509
 20
1560.8370977875611
 30
0.0
 11
3564.88077759405
 21
1667.8370977875641
 31
0.0
  0
LINE
  5
8FE5
  8
0
  6
HIDDEN2
 62
     7
 10
2063.0407775940462
 20
5600.9770439702024
 30
0.0
 11
2063.0407775940462
 21
5120.7175814205557
 31
0.0
  0
LINE
  5
8FE6
  8
0
  6
HIDDEN2
 62
     7
 10
2118.0407775940471
 20
5600.9770439702061
 30
0.0
 11
2118.0407775940471
 21
5120.7175814205557
 31
0.0
  0
LINE
  5
8FE7
  8
0
  6
HIDDEN2
 62
     7
 10
2118.0407775940471
 20
5120.7175814205557
 30
0.0
 11
2063.0407775940462
 21
5120.7175814205557
 31
0.0
  0
ARC
  5
8FE8
  8
0
  6
HIDDEN2
 62
     7
 10
2268.0407775940462
 20
5600.9770439702061
 30
0.0
 40
150.0
 50
90.0
 51
180.0
  0
ARC
  5
8FEC
  8
0
  6
HIDDEN2
 62
     7
 10
2268.0407775940462
 20
5600.9770439702024
 30
0.0
 40
205.0
 50
90.0
 51
180.0
  0
LINE
  5
8FF7
  8
0
 62
     7
 10
994.20905946770949
 20
5090.0916874558498
 30
0.0
 11
994.20905946770949
 21
5750.0916874558498
 31
0.0
  0
LINE
  5
8FF8
  8
0
 10
994.20905946770972
 20
5090.0916874558498
 30
0.0
 11
887.20905946770949
 21
5090.0916874558498
 31
0.0
  0
LINE
  5
8FF9
  8
0
 10
994.20905946770949
 20
5750.0916874558498
 30
0.0
 11
887.20905946770949
 21
5750.0916874558498
 31
0.0
  0
LINE
  5
8FFA
  8
0
 62
     7
 10
887.20905946770949
 20
5063.5416874558478
 30
0.0
 11
887.20905946770949
 21
5843.5416874558468
 31
0.0
  0
LINE
  5
8FFC
  8
0
 62
     7
 10
-460.14094053229007
 20
5063.5416874558487
 30
0.0
 11
-460.14094053229041
 21
5843.5416874558496
 31
0.0
  0
LINE
  5
8FFF
  8
0
  6
PHANTOM2
 62
     7
 10
1525.480777594046
 20
5063.541687455845
 30
0.0
 11
1525.480777594046
 21
5843.5416874558468
 31
0.0
  0
LINE
  5
9000
  8
0
  6
PHANTOM2
 62
     7
 10
1525.480777594046
 20
5843.5416874558468
 30
0.0
 11
2015.4807775940469
 21
5843.5416874558468
 31
0.0
  0
LINE
  5
9001
  8
0
  6
PHANTOM2
 62
     7
 10
2015.4807775940469
 20
5063.5416874558478
 30
0.0
 11
1525.480777594046
 21
5063.541687455845
 31
0.0
  0
TEXT
  5
9002
  8
0
 62
     7
 10
1566.7985255741769
 20
5341.4696802949911
 30
0.0
 40
30.0
  1
CLEARANCE
 50
90.0
  7
TITLE3
  0
TEXT
  5
9003
  8
0
 62
     7
 10
1618.227097002748
 20
5382.5434893186193
 30
0.0
 40
30.0
  1
500 min
 50
90.0
  7
TITLE3
  0
SOLID
  5
9004
  8
0
 62
     7
 10
1735.344704097751
 20
5182.1974317563136
 30
0.0
 11
1885.344704097756
 21
5157.1974317563154
 31
0.0
 12
1735.344704097751
 22
5132.1974317563136
 32
0.0
 13
1735.344704097751
 23
5132.1974317563136
 33
0.0
1001
ACAD
1000
DSTYLE
1002
{
1070
    41
1040
60.0
1070
    42
1040
40.0
1070
    44
1040
40.0
1070
    73
1070
     0
1070
    74
1070
     0
1070
   140
1040
60.0
1070
   147
1040
40.0
1070
   176
1070
    52
1070
   177
1070
    52
1070
   178
1070
    50
1070
   179
1070
     2
1070
   271
1070
     2
1070
   272
1070
     2
1070
   279
1070
     2
1070
   340
1005
FC6
1002
}
  0
LINE
  5
9005
  8
0
 62
     7
 10
1734.560834820948
 20
5157.1974317563154
 30
0.0
 11
1613.1115405665009
 21
5157.1974317563154
 31
0.0
1001
ACAD
1000
DSTYLE
1002
{
1070
    41
1040
60.0
1070
    42
1040
40.0
1070
    44
1040
40.0
1070
    73
1070
     0
1070
    74
1070
     0
1070
   140
1040
60.0
1070
   147
1040
40.0
1070
   176
1070
    52
1070
   177
1070
    52
1070
   178
1070
    50
1070
   179
1070
     2
1070
   271
1070
     2
1070
   272
1070
     2
1070
   279
1070
     2
1070
   340
1005
FC6
1002
}
  0
TEXT
  5
9006
  8
0
 62
     7
 10
2762.1554177471112
 20
6022.6702976292754
 30
0.0
 40
60.0
  1
AIR
  7
TITLE
  0
TEXT
  5
9007
  8
0
 62
     7
 10
2715.0125606042552
 20
6122.670297629269
 30
0.0
 40
60.0
  1
FLOW
  7
TITLE
  0
ENDSEC
  0
EOF
