  0
SECTION
  2
HEADER
  9
$ACADVER
  1
AC1018
  9
$ACADMAINTVER
 70
   104
  9
$DWGCODEPAGE
  3
ANSI_1252
  9
$LASTSAVEDBY
  1
dbinnie
  9
$INSBASE
 10
0.0
 20
0.0
 30
0.0
  9
$EXTMIN
 10
1430.578375694022
 20
0.0
 30
0.0
  9
$EXTMAX
 10
3890.000000000156
 20
2100.142154073407
 30
0.0
  9
$LIMMIN
 10
0.0
 20
0.0
  9
$LIMMAX
 10
3890.0
 20
2660.0
  9
$ORTHOMODE
 70
     1
  9
$REGENMODE
 70
     1
  9
$FILLMODE
 70
     1
  9
$QTEXTMODE
 70
     0
  9
$MIRRTEXT
 70
     0
  9
$LTSCALE
 40
25.0
  9
$ATTMODE
 70
     1
  9
$TEXTSIZE
 40
25.0
  9
$TRACEWID
 40
0.05
  9
$TEXTSTYLE
  7
SIMPLEX
  9
$CLAYER
  8
DIM
  9
$CELTYPE
  6
ByLayer
  9
$CECOLOR
 62
   256
  9
$CELTSCALE
 40
1.0
  9
$DISPSILH
 70
     0
  9
$DIMSCALE
 40
1.0
  9
$DIMASZ
 40
0.12
  9
$DIMEXO
 40
0.05
  9
$DIMDLI
 40
0.5
  9
$DIMRND
 40
0.0
  9
$DIMDLE
 40
0.0
  9
$DIMEXE
 40
0.1
  9
$DIMTP
 40
0.1
  9
$DIMTM
 40
0.1
  9
$DIMTXT
 40
0.12
  9
$DIMCEN
 40
0.0
  9
$DIMTSZ
 40
0.0
  9
$DIMTOL
 70
     0
  9
$DIMLIM
 70
     0
  9
$DIMTIH
 70
     1
  9
$DIMTOH
 70
     1
  9
$DIMSE1
 70
     0
  9
$DIMSE2
 70
     0
  9
$DIMTAD
 70
     0
  9
$DIMZIN
 70
     7
  9
$DIMBLK
  1

  9
$DIMASO
 70
     0
  9
$DIMSHO
 70
     0
  9
$DIMPOST
  1

  9
$DIMAPOST
  1
mm
  9
$DIMALT
 70
     0
  9
$DIMALTD
 70
     2
  9
$DIMALTF
 40
25.4
  9
$DIMLFAC
 40
1.0
  9
$DIMTOFL
 70
     0
  9
$DIMTVP
 40
0.0
  9
$DIMTIX
 70
     0
  9
$DIMSOXD
 70
     0
  9
$DIMSAH
 70
     0
  9
$DIMBLK1
  1

  9
$DIMBLK2
  1

  9
$DIMSTYLE
  2
AM_ANSI
  9
$DIMCLRD
 70
   256
  9
$DIMCLRE
 70
   256
  9
$DIMCLRT
 70
     2
  9
$DIMTFAC
 40
0.71
  9
$DIMGAP
 40
0.06
  9
$DIMJUST
 70
     0
  9
$DIMSD1
 70
     0
  9
$DIMSD2
 70
     0
  9
$DIMTOLJ
 70
     1
  9
$DIMTZIN
 70
     0
  9
$DIMALTZ
 70
     0
  9
$DIMALTTZ
 70
     0
  9
$DIMUPT
 70
     0
  9
$DIMDEC
 70
     4
  9
$DIMTDEC
 70
     4
  9
$DIMALTU
 70
     2
  9
$DIMALTTD
 70
     2
  9
$DIMTXSTY
  7
STANDARD
  9
$DIMAUNIT
 70
     0
  9
$DIMADEC
 70
     0
  9
$DIMALTRND
 40
0.0
  9
$DIMAZIN
 70
     0
  9
$DIMDSEP
 70
    46
  9
$DIMATFIT
 70
     3
  9
$DIMFRAC
 70
     0
  9
$DIMLDRBLK
  1

  9
$DIMLUNIT
 70
     2
  9
$DIMLWD
 70
    -2
  9
$DIMLWE
 70
    -2
  9
$DIMTMOVE
 70
     0
  9
$LUNITS
 70
     2
  9
$LUPREC
 70
     2
  9
$SKETCHINC
 40
0.1
  9
$FILLETRAD
 40
0.0
  9
$AUNITS
 70
     0
  9
$AUPREC
 70
     2
  9
$MENU
  1
\acad12\support\cnc
  9
$ELEVATION
 40
0.0
  9
$PELEVATION
 40
0.0
  9
$THICKNESS
 40
0.0
  9
$LIMCHECK
 70
     0
  9
$CHAMFERA
 40
0.0
  9
$CHAMFERB
 40
0.0
  9
$CHAMFERC
 40
0.0
  9
$CHAMFERD
 40
0.0
  9
$SKPOLY
 70
     0
  9
$TDCREATE
 40
2451409.611953009
  9
$TDUCREATE
 40
2451409.070286342
  9
$TDUPDATE
 40
2455605.410729410
  9
$TDUUPDATE
 40
2455604.869062743
  9
$TDINDWG
 40
0.6830354745
  9
$TDUSRTIMER
 40
0.6830345949
  9
$USRTIMER
 70
     1
  9
$ANGBASE
 50
0.0
  9
$ANGDIR
 70
     0
  9
$PDMODE
 70
     2
  9
$PDSIZE
 40
10.0
  9
$PLINEWID
 40
0.0
  9
$SPLFRAME
 70
     0
  9
$SPLINETYPE
 70
     6
  9
$SPLINESEGS
 70
     8
  9
$HANDSEED
  5
2155
  9
$SURFTAB1
 70
     6
  9
$SURFTAB2
 70
     6
  9
$SURFTYPE
 70
     6
  9
$SURFU
 70
     6
  9
$SURFV
 70
     6
  9
$UCSBASE
  2

  9
$UCSNAME
  2

  9
$UCSORG
 10
0.0
 20
0.0
 30
0.0
  9
$UCSXDIR
 10
1.0
 20
0.0
 30
0.0
  9
$UCSYDIR
 10
0.0
 20
1.0
 30
0.0
  9
$UCSORTHOREF
  2

  9
$UCSORTHOVIEW
 70
     0
  9
$UCSORGTOP
 10
0.0
 20
0.0
 30
0.0
  9
$UCSORGBOTTOM
 10
0.0
 20
0.0
 30
0.0
  9
$UCSORGLEFT
 10
0.0
 20
0.0
 30
0.0
  9
$UCSORGRIGHT
 10
0.0
 20
0.0
 30
0.0
  9
$UCSORGFRONT
 10
0.0
 20
0.0
 30
0.0
  9
$UCSORGBACK
 10
0.0
 20
0.0
 30
0.0
  9
$PUCSBASE
  2

  9
$PUCSNAME
  2

  9
$PUCSORG
 10
0.0
 20
0.0
 30
0.0
  9
$PUCSXDIR
 10
1.0
 20
0.0
 30
0.0
  9
$PUCSYDIR
 10
0.0
 20
1.0
 30
0.0
  9
$PUCSORTHOREF
  2

  9
$PUCSORTHOVIEW
 70
     0
  9
$PUCSORGTOP
 10
0.0
 20
0.0
 30
0.0
  9
$PUCSORGBOTTOM
 10
0.0
 20
0.0
 30
0.0
  9
$PUCSORGLEFT
 10
0.0
 20
0.0
 30
0.0
  9
$PUCSORGRIGHT
 10
0.0
 20
0.0
 30
0.0
  9
$PUCSORGFRONT
 10
0.0
 20
0.0
 30
0.0
  9
$PUCSORGBACK
 10
0.0
 20
0.0
 30
0.0
  9
$USERI1
 70
     0
  9
$USERI2
 70
     0
  9
$USERI3
 70
     0
  9
$USERI4
 70
     0
  9
$USERI5
 70
     0
  9
$USERR1
 40
0.0
  9
$USERR2
 40
0.0
  9
$USERR3
 40
0.0
  9
$USERR4
 40
0.0
  9
$USERR5
 40
0.0
  9
$WORLDVIEW
 70
     1
  9
$SHADEDGE
 70
     3
  9
$SHADEDIF
 70
    70
  9
$TILEMODE
 70
     1
  9
$MAXACTVP
 70
    16
  9
$PINSBASE
 10
0.0
 20
0.0
 30
0.0
  9
$PLIMCHECK
 70
     0
  9
$PEXTMIN
 10
1.000000000000000E+20
 20
1.000000000000000E+20
 30
1.000000000000000E+20
  9
$PEXTMAX
 10
-1.000000000000000E+20
 20
-1.000000000000000E+20
 30
-1.000000000000000E+20
  9
$PLIMMIN
 10
0.0
 20
0.0
  9
$PLIMMAX
 10
12.0
 20
9.0
  9
$UNITMODE
 70
     0
  9
$VISRETAIN
 70
     0
  9
$PLINEGEN
 70
     0
  9
$PSLTSCALE
 70
     0
  9
$TREEDEPTH
 70
  3020
  9
$CMLSTYLE
  2
Standard
  9
$CMLJUST
 70
     0
  9
$CMLSCALE
 40
1.0
  9
$PROXYGRAPHICS
 70
     1
  9
$MEASUREMENT
 70
     0
  9
$CELWEIGHT
370
    -1
  9
$ENDCAPS
280
     0
  9
$JOINSTYLE
280
     0
  9
$LWDISPLAY
290
     0
  9
$INSUNITS
 70
     0
  9
$HYPERLINKBASE
  1

  9
$STYLESHEET
  1

  9
$XEDIT
290
     1
  9
$CEPSNTYPE
380
     0
  9
$PSTYLEMODE
290
     1
  9
$FINGERPRINTGUID
  2
{1A7FF028-B7BF-4BEE-A58F-04E08A8EA51F}
  9
$VERSIONGUID
  2
{5EB11E2D-4E26-49D2-A91E-D09D869A168E}
  9
$EXTNAMES
290
     1
  9
$PSVPSCALE
 40
0.0
  9
$OLESTARTUP
290
     0
  9
$SORTENTS
280
   127
  9
$INDEXCTL
280
     0
  9
$HIDETEXT
280
     0
  9
$XCLIPFRAME
290
     0
  9
$HALOGAP
280
     0
  9
$OBSCOLOR
 70
   257
  9
$OBSLTYPE
280
     0
  9
$INTERSECTIONDISPLAY
280
     0
  9
$INTERSECTIONCOLOR
 70
   257
  9
$DIMASSOC
280
     0
  9
$PROJECTNAME
  1

  0
ENDSEC
  0
SECTION
  2
CLASSES
  0
CLASS
  1
ACDBDICTIONARYWDFLT
  2
AcDbDictionaryWithDefault
  3
ObjectDBX Classes
 90
        0
 91
        1
280
     0
281
     0
  0
CLASS
  1
MATERIAL
  2
AcDbMaterial
  3
ObjectDBX Classes
 90
     1153
 91
        3
280
     0
281
     0
  0
CLASS
  1
VISUALSTYLE
  2
AcDbVisualStyle
  3
ObjectDBX Classes
 90
     4095
 91
       24
280
     0
281
     0
  0
CLASS
  1
SCALE
  2
AcDbScale
  3
ObjectDBX Classes
 90
     1153
 91
       17
280
     0
281
     0
  0
CLASS
  1
TABLESTYLE
  2
AcDbTableStyle
  3
ObjectDBX Classes
 90
     4095
 91
        1
280
     0
281
     0
  0
CLASS
  1
MLEADERSTYLE
  2
AcDbMLeaderStyle
  3
ACDB_MLEADERSTYLE_CLASS
 90
     4095
 91
        1
280
     0
281
     0
  0
CLASS
  1
AMGSETTINGSOBJ
  2
AmgSettingsObj
  3
"AcadM|Product Description: AutoCAD Mechanical|Company: Autodesk, Inc."
 90
     1024
 91
        2
280
     0
281
     0
  0
CLASS
  1
ACME_DOCUMENT
  2
AcMeDbDoc
  3
AcMeServices
 90
     1024
 91
        1
280
     0
281
     0
  0
CLASS
  1
ACMESCOPE
  2
AcMeScope
  3
AcMeServices
 90
     1024
 91
        1
280
     0
281
     0
  0
CLASS
  1
ACMECOMMANDHISTORY
  2
AcMeCommandHistory
  3
AcMeServices
 90
     1024
 91
        1
280
     0
281
     0
  0
CLASS
  1
ACIMSYSVARMAN
  2
AcImSysVarManager
  3
AcMeServices
 90
     1024
 91
        4
280
     0
281
     0
  0
CLASS
  1
ACIMINTSYSVAR
  2
AcImIntSysVar
  3
AcMeServices
 90
     1024
 91
       27
280
     0
281
     0
  0
CLASS
  1
ACMESTATEMGR
  2
AcMeStateMgr
  3
AcMeServices
 90
     1024
 91
        1
280
     0
281
     0
  0
CLASS
  1
ACDBENTITYCACHE
  2
AcMeEntityCache
  3
AcMeServices
 90
     1024
 91
        1
280
     0
281
     0
  0
CLASS
  1
ACGREFMASTER
  2
AcGrefMaster
  3
AcAttribServices
 90
     1024
 91
        1
280
     0
281
     0
  0
CLASS
  1
AM_DRAWING_MGR
  2
AcDmDwgMgr
  3
AcMechDwgViewMgmt
 90
     1024
 91
        1
280
     0
281
     0
  0
CLASS
  1
AM_DWG_DOCUMENT
  2
AcDmDwgDocument
  3
AcMechDwgViewMgmt
 90
     1024
 91
        1
280
     0
281
     0
  0
CLASS
  1
AM_DWG_SHEET
  2
AcDmSheet
  3
AcMechDwgViewMgmt
 90
     1024
 91
        1
280
     0
281
     0
  0
CLASS
  1
AM_VIEWDIMPARMAP
  2
AcDmViewDimParMap
  3
AcMechDwgViewMgmt
 90
     1024
 91
        1
280
     0
281
     0
  0
CLASS
  1
AMDTINTERNALREACTOR
  2
AmdtInternalReactor
  3
AcMeServices
 90
     1024
 91
        1
280
     0
281
     0
  0
CLASS
  1
ACIMREALSYSVAR
  2
AcImRealSysVar
  3
AcMeServices
 90
     1024
 91
        1
280
     0
281
     0
  0
CLASS
  1
AM_DWGMGR_NAME
  2
AcDmDwgMgrName
  3
AcMechDwgViewMgmt
 90
     1024
 91
        1
280
     0
281
     0
  0
CLASS
  1
ACME_DATABASE
  2
AcMeDbDatabase
  3
AcMeServices
 90
     1024
 91
        1
280
     0
281
     0
  0
CLASS
  1
ACRFINSADJUSTERMGR
  2
AcRfInsAdjusterMgr
  3
AcMeServices
 90
     1024
 91
        1
280
     0
281
     0
  0
CLASS
  1
ACGREFACADMASTER
  2
AcGrefacadMaster
  3
AcGrefServices
 90
     1024
 91
        1
280
     0
281
     0
  0
CLASS
  1
AMDTMENUSTATEMGR
  2
AmdtMenuStateMgr
  3
McadcomServices
 90
     1024
 91
        1
280
     0
281
     0
  0
CLASS
  1
AMDTMCOMMENUSTATE
  2
AmdtMcomMenuState
  3
McadcomServices
 90
     1024
 91
        1
280
     0
281
     0
  0
CLASS
  1
AMIMASTER
  2
AmiMaster
  3
AmiServices
 90
     1024
 91
        1
280
     0
281
     0
  0
CLASS
  1
MAPIAMMOUDLE
  2
MApiAmModule
  3
MApiAmServices
 90
     1024
 91
        1
280
     0
281
     0
  0
CLASS
  1
ACIMSTRSYSVAR
  2
AcImStrSysVar
  3
AcMeServices
 90
     1024
 91
        5
280
     0
281
     0
  0
CLASS
  1
AMDTDMMENUSTATE
  2
AmdtDmMenuState
  3
AcMechDwgViewMgmt
 90
     1024
 91
        1
280
     0
281
     0
  0
CLASS
  1
AMDTAMMENUSTATE
  2
AmdtAmMenuState
  3
DesignerAssemblies
 90
     1024
 91
        1
280
     0
281
     0
  0
CLASS
  1
ACAMPROJECT
  2
AcAmProject
  3
DesignerAssemblies
 90
     1024
 91
        1
280
     0
281
     0
  0
CLASS
  1
ACAMGRCOMPDEF
  2
AcAmGrCompDef
  3
DesignerAssemblies
 90
     1024
 91
        1
280
     0
281
     0
  0
CLASS
  1
ACAMCOMPDEF
  2
AcAmCompDef
  3
DesignerAssemblies
 90
     1024
 91
        1
280
     0
281
     0
  0
CLASS
  1
ACAMCOMPDEFMGR
  2
AcAmCompDefMgr
  3
DesignerAssemblies
 90
     1024
 91
        1
280
     0
281
     0
  0
CLASS
  1
AMCONTEXTMGR
  2
AcAmContextMgr
  3
DesignerAssemblies
 90
     1024
 91
        1
280
     0
281
     0
  0
CLASS
  1
ACAMCONTEXTMODELER
  2
AcAmContextModeler
  3
DesignerAssemblies
 90
     1024
 91
        1
280
     0
281
     0
  0
CLASS
  1
ACMDATADICTIONARY
  2
AcmDataDictionary
  3
"AcmSymBB|Product Description: AutoCAD Mechanical|Company: Autodesk, Inc."
 90
     1024
 91
        1
280
     0
281
     0
  0
CLASS
  1
ACAMGRCOMPDEFSET
  2
AcAmGrCompDefSet
  3
DesignerAssemblies
 90
     1024
 91
        1
280
     0
281
     0
  0
CLASS
  1
AMDTBROWSERDBTAB
  2
AmdtBrowserDbTab
  3
McadcomServices
 90
     1024
 91
        1
280
     0
281
     0
  0
CLASS
  1
CBROWSERAPPOBJECT
  2
CBrowserAppObject
  3
McadcomServices
 90
     1024
 91
        2
280
     0
281
     0
  0
CLASS
  1
DM_PLACEHOLDER
  2
AcDmSelsetPlaceholder
  3
AcMechDwgViewMgmt
 90
     1024
 91
        1
280
     0
281
     0
  0
CLASS
  1
EXACXREFPANELOBJECT
  2
ExAcXREFPanelObject
  3
EXAC_ESW
 90
     1025
 91
        1
280
     0
281
     0
  0
CLASS
  1
NPOCOLLECTION
  2
AcDbImpNonPersistentObjectsCollection
  3
ObjectDBX Classes
 90
     1153
 91
        1
280
     0
281
     0
  0
CLASS
  1
ACMSTANDARDANSI
  2
AcmStandardANSI
  3
"Amdt_StdImp|Product Description: AutoCAD Mechanical|Company: Autodesk, Inc."
 90
     1024
 91
        1
280
     0
281
     0
  0
CLASS
  1
ACMSURFSTANDARDANSI
  2
AcmSurfTextStdANSI
  3
"Amdt_StdImp|Product Description: AutoCAD Mechanical|Company: Autodesk, Inc."
 90
     1024
 91
        1
280
     0
281
     0
  0
CLASS
  1
ACMFCFSTANDARDANSI
  2
AcmFCFStdANSI
  3
"Amdt_StdImp|Product Description: AutoCAD Mechanical|Company: Autodesk, Inc."
 90
     1024
 91
        1
280
     0
281
     0
  0
CLASS
  1
ACMWELDSTANDARDANSI
  2
AcmWeldingStdANSI
  3
"Amdt_StdImp|Product Description: AutoCAD Mechanical|Company: Autodesk, Inc."
 90
     1024
 91
        1
280
     0
281
     0
  0
CLASS
  1
ACMIDSTANDARDANSI
  2
AcmIdStdANSI
  3
"Amdt_StdImp|Product Description: AutoCAD Mechanical|Company: Autodesk, Inc."
 90
     1024
 91
        1
280
     0
281
     0
  0
CLASS
  1
ACMDATUMSTANDARDANSI
  2
AcmDatumStdANSI
  3
"Amdt_StdImp|Product Description: AutoCAD Mechanical|Company: Autodesk, Inc."
 90
     1024
 91
        1
280
     0
281
     0
  0
CLASS
  1
ACMBOMSTANDARDANSI
  2
AcmBOMStdANSI
  3
"Amdt_StdImp|Product Description: AutoCAD Mechanical|Company: Autodesk, Inc."
 90
     1024
 91
        1
280
     0
281
     0
  0
CLASS
  1
ACMDETAILSTANDARDANSI
  2
AmdtDetailSymStdANSI
  3
"Amdt_StdImp|Product Description: AutoCAD Mechanical|Company: Autodesk, Inc."
 90
     1024
 91
        1
280
     0
281
     0
  0
CLASS
  1
ACMSECTIONSTANDARDANSI
  2
AmdtSectionSymStdANSI
  3
"Amdt_StdImp|Product Description: AutoCAD Mechanical|Company: Autodesk, Inc."
 90
     1024
 91
        1
280
     0
281
     0
  0
CLASS
  1
ACMCENTERLINESTANDARDANSI
  2
AmdtCenterLineStdANSI
  3
"Amdt_StdImp|Product Description: AutoCAD Mechanical|Company: Autodesk, Inc."
 90
     1024
 91
        1
280
     0
281
     0
  0
CLASS
  1
ACMTHREADLINESTANDARDANSI
  2
AmdtThreadLineStdANSI
  3
"Amdt_StdImp|Product Description: AutoCAD Mechanical|Company: Autodesk, Inc."
 90
     1024
 91
        1
280
     0
281
     0
  0
CLASS
  1
ACMNOTESTANDARDANSI
  2
AmdtNoteStdANSI
  3
"Amdt_StdImp|Product Description: AutoCAD Mechanical|Company: Autodesk, Inc."
 90
     1024
 91
        1
280
     0
281
     0
  0
CLASS
  1
ACMTAPERSTANDARDANSI
  2
AcmTaperStdANSI
  3
"Amdt_StdImp|Product Description: AutoCAD Mechanical|Company: Autodesk, Inc."
 90
     1024
 91
        1
280
     0
281
     0
  0
CLASS
  1
ACMANOOTATIONVIEWSTANDARDANSI
  2
AmdtAnViewStdANSI
  3
"Amdt_StdImp|Product Description: AutoCAD Mechanical|Company: Autodesk, Inc."
 90
     1024
 91
        1
280
     0
281
     0
  0
CLASS
  1
ACAMGLAYSTD
  2
AcAmgLayStd
  3
"AmgLay|Product Description: AutoCAD Mechanical|Company: Autodesk, Inc."
 90
     1024
 91
        1
280
     0
281
     0
  0
CLASS
  1
ACAMGDIMSTD
  2
AcAmgDimStd
  3
"AmgDim|Product Description: AutoCAD Mechanical|Company: Autodesk, Inc."
 90
     1024
 91
        1
280
     0
281
     0
  0
CLASS
  1
ACAMGHOLECHARTSTDANSI
  2
AcAmgHoleChartStdANSI
  3
AmgDim|Product Description: AutoCAD Mechanical|Company: Autodesk, Inc.
 90
     1024
 91
        1
280
     0
281
     0
  0
CLASS
  1
AMGOBJPROPCFG
  2
AmgObjPropCfg
  3
"AmgLay|Product Description: AutoCAD Mechanical|Company: Autodesk, Inc."
 90
     1025
 91
        1
280
     0
281
     0
  0
CLASS
  1
ACAMGTITLESTD
  2
AcAmgTitleStd
  3
"AmgTitle|Product Description: AutoCAD Mechanical|Company: Autodesk, Inc."
 90
     4095
 91
        1
280
     0
281
     0
  0
CLASS
  1
AMDTNOTETEMPLATEDB
  2
AmdtNoteTemplateDB
  3
AcmSymBB|Product Description: AutoCAD Mechanical|Company: Autodesk, Inc.
 90
     1024
 91
        6
280
     0
281
     0
  0
CLASS
  1
ACAMGFILTERDAT
  2
AcAmgFilterDat
  3
"AcadM|Product Description: AutoCAD Mechanical|Company: Autodesk, Inc."
 90
     1024
 91
        6
280
     0
281
     0
  0
CLASS
  1
SORTENTSTABLE
  2
AcDbSortentsTable
  3
ObjectDBX Classes
 90
        0
 91
        1
280
     0
281
     0
  0
CLASS
  1
DICTIONARYVAR
  2
AcDbDictionaryVar
  3
ObjectDBX Classes
 90
        0
 91
       20
280
     0
281
     0
  0
CLASS
  1
CELLSTYLEMAP
  2
AcDbCellStyleMap
  3
ObjectDBX Classes
 90
     1152
 91
        5
280
     0
281
     0
  0
ENDSEC
  0
SECTION
  2
TABLES
  0
TABLE
  2
VPORT
  5
1E63
330
0
100
AcDbSymbolTable
 70
     1
  0
VPORT
  5
1ECC
330
1E63
100
AcDbSymbolTableRecord
100
AcDbViewportTableRecord
  2
*ACTIVE
 70
     0
 10
0.0
 20
0.0
 11
1.0
 21
1.0
 12
2660.329308323768
 22
1049.992534080594
 13
0.0
 23
0.0
 14
25.0
 24
25.0
 15
100.0
 25
100.0
 16
0.0
 26
0.0
 36
1.0
 17
0.0
 27
0.0
 37
0.0
 40
2113.953863287876
 41
1.696747114375655
 42
50.0
 43
0.0
 44
0.0
 50
0.0
 51
0.0
 71
     0
 72
   100
 73
     1
 74
     0
 75
     0
 76
     0
 77
     0
 78
     0
281
     0
 65
     0
110
0.0
120
0.0
130
0.0
111
1.0
121
0.0
131
0.0
112
0.0
122
1.0
132
0.0
 79
     0
146
0.0
  0
ENDTAB
  0
TABLE
  2
LTYPE
  5
1E60
330
0
100
AcDbSymbolTable
 70
    18
  0
LTYPE
  5
1EB5
330
1E60
100
AcDbSymbolTableRecord
100
AcDbLinetypeTableRecord
  2
ByBlock
 70
     0
  3

 72
    65
 73
     0
 40
0.0
  0
LTYPE
  5
1EB6
330
1E60
100
AcDbSymbolTableRecord
100
AcDbLinetypeTableRecord
  2
ByLayer
 70
     0
  3

 72
    65
 73
     0
 40
0.0
  0
LTYPE
  5
1EB7
330
1E60
100
AcDbSymbolTableRecord
100
AcDbLinetypeTableRecord
  2
CONTINUOUS
 70
     0
  3
Solid line
 72
    65
 73
     0
 40
0.0
  0
LTYPE
  5
1ECD
330
1E60
100
AcDbSymbolTableRecord
100
AcDbLinetypeTableRecord
  2
HIDDEN
 70
     0
  3
Hidden __ __ __ __ __ __ __ __ __ __ __ __ __ _
 72
    65
 73
     2
 40
0.375
 49
0.25
 74
     0
 49
-0.125
 74
     0
  0
LTYPE
  5
1ECE
330
1E60
100
AcDbSymbolTableRecord
100
AcDbLinetypeTableRecord
  2
PHANTOM2
 70
     0
  3
Phantom (.5x) ___ _ _ ___ _ _ ___ _ _ ___ _ _
 72
    65
 73
     6
 40
1.25
 49
0.625
 74
     0
 49
-0.125
 74
     0
 49
0.125
 74
     0
 49
-0.125
 74
     0
 49
0.125
 74
     0
 49
-0.125
 74
     0
  0
LTYPE
  5
1ECF
330
1E60
100
AcDbSymbolTableRecord
100
AcDbLinetypeTableRecord
  2
CENTER
 70
     0
  3
Center ____ _ ____ _ ____ _ ____ _ ____ _ ____
 72
    65
 73
     4
 40
2.0
 49
1.25
 74
     0
 49
-0.25
 74
     0
 49
0.25
 74
     0
 49
-0.25
 74
     0
  0
LTYPE
  5
1ED0
330
1E60
100
AcDbSymbolTableRecord
100
AcDbLinetypeTableRecord
  2
AM_ISO02W050
 70
     0
  3
__ __ __ __ __ __ __ __ __ __ __ __ __ __ __
 72
    65
 73
     2
 40
7.5
 49
6.0
 74
     0
 49
-1.5
 74
     0
  0
LTYPE
  5
1ED1
330
1E60
100
AcDbSymbolTableRecord
100
AcDbLinetypeTableRecord
  2
AM_ISO08W050
 70
     0
  3
____ . ____ . ____ . ____ . ____ . ____ . ____
 72
    65
 73
     4
 40
18.0
 49
12.0
 74
     0
 49
-1.5
 74
     0
 49
3.0
 74
     0
 49
-1.5
 74
     0
  0
LTYPE
  5
1ED2
330
1E60
100
AcDbSymbolTableRecord
100
AcDbLinetypeTableRecord
  2
AM_ISO09W050
 70
     0
  3
_____ . . _____ . . _____ . . ____ .. ____
 72
    65
 73
     6
 40
22.5
 49
12.0
 74
     0
 49
-1.5
 74
     0
 49
3.0
 74
     0
 49
-1.5
 74
     0
 49
3.0
 74
     0
 49
-1.5
 74
     0
  0
LTYPE
  5
1ED3
330
1E60
100
AcDbSymbolTableRecord
100
AcDbLinetypeTableRecord
  2
AMCONSTR
 70
     0
  3
_______________________
 72
    65
 73
     2
 40
9999.0
 49
9999.0
 74
     0
 49
0.0
 74
     0
  0
LTYPE
  5
1ED4
330
1E60
100
AcDbSymbolTableRecord
100
AcDbLinetypeTableRecord
  2
AM_ISO08W050X2
 70
     0
  3
__ . __ . __ . __ . __ . __
 72
    65
 73
     4
 40
9.0
 49
6.0
 74
     0
 49
-0.75
 74
     0
 49
1.5
 74
     0
 49
-0.75
 74
     0
  0
LTYPE
  5
1ED5
330
1E60
100
AcDbSymbolTableRecord
100
AcDbLinetypeTableRecord
  2
AM_ISO02W050X2
 70
     0
  3
 _ _ _ _ _ _ _ _ _ _ _ _
 72
    65
 73
     2
 40
3.75
 49
3.0
 74
     0
 49
-0.75
 74
     0
  0
LTYPE
  5
1ED6
330
1E60
100
AcDbSymbolTableRecord
100
AcDbLinetypeTableRecord
  2
AMZIGZAG
 70
     0
  3
/\/-/\/-/\/-/\/-/\/-/\/
 72
    65
 73
     2
 40
11.0001
 49
0.0001
 74
     0
 49
-11.0
 74
     0
  0
LTYPE
  5
1ED7
330
1E60
100
AcDbSymbolTableRecord
100
AcDbLinetypeTableRecord
  2
CENTER2
 70
     0
  3
Center (.5x) ___ _ ___ _ ___ _ ___ _ ___ _ ___
 72
    65
 73
     4
 40
1.125
 49
0.75
 74
     0
 49
-0.125
 74
     0
 49
0.125
 74
     0
 49
-0.125
 74
     0
  0
LTYPE
  5
1ED8
330
1E60
100
AcDbSymbolTableRecord
100
AcDbLinetypeTableRecord
  2
HIDDEN2
 70
     0
  3
Hidden (.5x) _ _ _ _ _ _ _ _ _ _ _ _ _ _ _ _ _
 72
    65
 73
     2
 40
0.1875
 49
0.125
 74
     0
 49
-0.0625
 74
     0
  0
LTYPE
  5
1ED9
330
1E60
100
AcDbSymbolTableRecord
100
AcDbLinetypeTableRecord
  2
AMZIGZAG2
 70
     0
  3
/\/-/\/-/\/-/\/-/\/-/\/
 72
    65
 73
     2
 40
0.4401
 49
0.0001
 74
     0
 49
-0.4400000000000003
 74
     0
  0
LTYPE
  5
1EDA
330
1E60
100
AcDbSymbolTableRecord
100
AcDbLinetypeTableRecord
  2
ACANSTGB
 70
     0
  3
__ . . __ . .
 72
    65
 73
     6
 40
0.35433070866
 49
0.15748031496
 74
     0
 49
-0.03937007874
 74
     0
 49
0.03937007874
 74
     0
 49
-0.03937007874
 74
     0
 49
0.03937007874
 74
     0
 49
-0.03937007874
 74
     0
  0
LTYPE
  5
1EDB
330
1E60
100
AcDbSymbolTableRecord
100
AcDbLinetypeTableRecord
  2
ACANSTGL
 70
     0
  3
_ _ _ _ _
 72
    65
 73
     2
 40
0.11811023622
 49
0.07874015748
 74
     0
 49
-0.03937007874
 74
     0
  0
ENDTAB
  0
TABLE
  2
LAYER
  5
1E5D
102
{ACAD_XDICTIONARY
360
2111
102
}
330
0
100
AcDbSymbolTable
 70
     5
  0
LAYER
  5
1EAF
330
1E5D
100
AcDbSymbolTableRecord
100
AcDbLayerTableRecord
  2
0
 70
     0
 62
     7
  6
CONTINUOUS
370
    -3
390
1E6A
  0
LAYER
  5
1ECA
330
1E5D
100
AcDbSymbolTableRecord
100
AcDbLayerTableRecord
  2
DIM
 70
     0
 62
     7
  6
CONTINUOUS
370
    -3
390
1E6A
  0
LAYER
  5
1EDC
330
1E5D
100
AcDbSymbolTableRecord
100
AcDbLayerTableRecord
  2
TEXT
 70
     0
 62
   100
  6
CONTINUOUS
370
    -3
390
1E6A
  0
LAYER
  5
1EDD
330
1E5D
100
AcDbSymbolTableRecord
100
AcDbLayerTableRecord
  2
OUTLINE
 70
     0
 62
     7
  6
CONTINUOUS
370
    -3
390
1E6A
  0
LAYER
  5
1EDE
330
1E5D
100
AcDbSymbolTableRecord
100
AcDbLayerTableRecord
  2
OVERLAY-A3
 70
     0
 62
     7
  6
CONTINUOUS
370
    -3
390
1E6A
  0
ENDTAB
  0
TABLE
  2
STYLE
  5
1E5E
330
0
100
AcDbSymbolTable
 70
     8
  0
STYLE
  5
1EB0
330
1E5E
100
AcDbSymbolTableRecord
100
AcDbTextStyleTableRecord
  2
STANDARD
 70
     0
 40
0.0
 41
1.0
 50
0.0
 71
     0
 42
0.2
  3
txt
  4

  0
STYLE
  5
1EB4
330
1E5E
100
AcDbSymbolTableRecord
100
AcDbTextStyleTableRecord
  2
ANNOTATIVE
 70
     0
 40
0.0
 41
1.0
 50
0.0
 71
     0
 42
0.2
  3
txt
  4

1001
ACADANNOTATIVE
1000
AnnotativeData
1002
{
1070
     1
1070
     1
1002
}
  0
STYLE
  5
1ECB
330
1E5E
100
AcDbSymbolTableRecord
100
AcDbTextStyleTableRecord
  2
SIMPLEX
 70
     0
 40
30.0
 41
1.0
 50
0.0
 71
     0
 42
25.0
  3
SIMPLEX.shx
  4

  0
STYLE
  5
1EDF
330
1E5E
100
AcDbSymbolTableRecord
100
AcDbTextStyleTableRecord
  2
TITLE3
 70
     0
 40
25.0
 41
1.0
 50
0.0
 71
     0
 42
25.0
  3
SIMPLEX
  4

  0
STYLE
  5
1EE0
330
1E5E
100
AcDbSymbolTableRecord
100
AcDbTextStyleTableRecord
  2
TITLE5
 70
     0
 40
50.0
 41
1.0
 50
0.0
 71
     0
 42
50.0
  3
SIMPLEX
  4

  0
STYLE
  5
1EE1
330
1E5E
100
AcDbSymbolTableRecord
100
AcDbTextStyleTableRecord
  2

 70
     1
 40
0.0
 41
1.0
 50
0.0
 71
     0
 42
25.0
  3
genltshp.shx
  4

  0
STYLE
  5
1EE2
330
1E5E
100
AcDbSymbolTableRecord
100
AcDbTextStyleTableRecord
  2
ACANSTS
 70
     0
 40
1.0
 41
1.0
 50
0.0
 71
     0
 42
25.0
  3
romans.shx
  4

  0
STYLE
  5
1EE3
330
1E5E
100
AcDbSymbolTableRecord
100
AcDbTextStyleTableRecord
  2
ACANSGDT
 70
     0
 40
0.0
 41
1.0
 50
0.0
 71
     0
 42
25.0
  3
amgdt.shx
  4

  0
ENDTAB
  0
TABLE
  2
VIEW
  5
1E61
330
0
100
AcDbSymbolTable
 70
     1
  0
ENDTAB
  0
TABLE
  2
UCS
  5
1E62
330
0
100
AcDbSymbolTable
 70
     0
  0
ENDTAB
  0
TABLE
  2
APPID
  5
1E64
330
0
100
AcDbSymbolTable
 70
    14
  0
APPID
  5
1EB1
330
1E64
100
AcDbSymbolTableRecord
100
AcDbRegAppTableRecord
  2
ACAD
 70
     0
  0
APPID
  5
1EB8
330
1E64
100
AcDbSymbolTableRecord
100
AcDbRegAppTableRecord
  2
ACADANNOTATIVE
 70
     0
  0
APPID
  5
1EE4
330
1E64
100
AcDbSymbolTableRecord
100
AcDbRegAppTableRecord
  2
ACAD_MLEADERVER
 70
     0
  0
APPID
  5
1EE5
330
1E64
100
AcDbSymbolTableRecord
100
AcDbRegAppTableRecord
  2
MCAD_NO_VIS
 70
     0
  0
APPID
  5
1EE6
330
1E64
100
AcDbSymbolTableRecord
100
AcDbRegAppTableRecord
  2
ACAD_TEMP_GRAPHIC
 70
     0
  0
APPID
  5
1EE7
330
1E64
100
AcDbSymbolTableRecord
100
AcDbRegAppTableRecord
  2
AD_DRAW
 70
     0
  0
APPID
  5
1EE8
330
1E64
100
AcDbSymbolTableRecord
100
AcDbRegAppTableRecord
  2
ACATTRIBSERVICES
 70
     0
  0
APPID
  5
1EE9
330
1E64
100
AcDbSymbolTableRecord
100
AcDbRegAppTableRecord
  2
DESIGNERASSEMBLIES
 70
     0
  0
APPID
  5
1EEA
330
1E64
100
AcDbSymbolTableRecord
100
AcDbRegAppTableRecord
  2
ACADM_DIM_EDIT
 70
     0
  0
APPID
  5
1EEB
330
1E64
100
AcDbSymbolTableRecord
100
AcDbRegAppTableRecord
  2
AMDT_DM_ADJ
 70
     0
  0
APPID
  5
1EEC
330
1E64
100
AcDbSymbolTableRecord
100
AcDbRegAppTableRecord
  2
ACAD_EXEMPT_FROM_CAD_STANDARDS
 70
     0
  0
APPID
  5
1EED
330
1E64
100
AcDbSymbolTableRecord
100
AcDbRegAppTableRecord
  2
ACAD_PSEXT
 70
     0
  0
APPID
  5
1F8E
330
1E64
100
AcDbSymbolTableRecord
100
AcDbRegAppTableRecord
  2
ACAD_DSTYLE_DIMBREAK
 70
     0
  0
APPID
  5
1F8F
330
1E64
100
AcDbSymbolTableRecord
100
AcDbRegAppTableRecord
  2
ACAD_DSTYLE_DIMJAG
 70
     0
  0
ENDTAB
  0
TABLE
  2
DIMSTYLE
  5
1E65
330
0
100
AcDbSymbolTable
 70
     9
100
AcDbDimStyleTable
 71
     1
340
1EEE
  0
DIMSTYLE
105
1EB2
330
1E65
100
AcDbSymbolTableRecord
100
AcDbDimStyleTableRecord
  2
STANDARD
 70
     0
271
     2
272
     2
279
     2
284
     7
285
     7
286
     7
340
1ECB
  0
DIMSTYLE
105
1EB3
330
1E65
100
AcDbSymbolTableRecord
100
AcDbDimStyleTableRecord
  2
ANNOTATIVE
 70
     0
271
     2
272
     2
279
     2
284
     7
285
     7
286
     7
340
1ECB
1001
ACADANNOTATIVE
1000
AnnotativeData
1002
{
1070
     1
1070
     1
1002
}
  0
DIMSTYLE
105
1EEE
102
{ACAD_REACTORS
330
1F7E
102
}
330
1E65
100
AcDbSymbolTableRecord
100
AcDbDimStyleTableRecord
  2
AM_ANSI
 70
     0
  4
mm
 41
0.12
 42
0.05
 43
0.5
 44
0.1
 47
0.1
 48
0.1
 78
     7
140
0.12
141
0.0
146
0.71
147
0.06
176
   256
177
   256
178
     2
271
     2
272
     2
279
     2
284
     7
285
     7
286
     7
340
1ECB
  0
DIMSTYLE
105
1EEF
330
1E65
100
AcDbSymbolTableRecord
100
AcDbDimStyleTableRecord
  2
AM_ANSI$3
 70
     0
  4
mm
 41
0.12
 42
0.05
 43
0.5
 44
0.1
 47
0.1
 48
0.1
 78
     7
140
0.12
141
0.0
146
0.71
147
0.06
176
   256
177
   256
178
     2
271
     2
272
     2
279
     2
284
     7
285
     7
286
     7
340
1ECB
  0
DIMSTYLE
105
1EF0
330
1E65
100
AcDbSymbolTableRecord
100
AcDbDimStyleTableRecord
  2
AM_ANSI$4
 70
     0
  4
mm
 41
0.12
 42
0.05
 43
0.5
 44
0.1
 47
0.1
 48
0.1
 78
     7
140
0.12
141
0.0
146
0.71
147
0.06
176
   256
177
   256
178
     2
271
     2
272
     2
279
     2
284
     7
285
     7
286
     7
340
1ECB
  0
DIMSTYLE
105
1EF1
330
1E65
100
AcDbSymbolTableRecord
100
AcDbDimStyleTableRecord
  2
AM_ANSI$7
 70
     0
  4
mm
 41
0.12
 42
0.05
 43
0.5
 44
0.1
 47
0.1
 48
0.1
 78
     7
140
0.12
141
0.0
146
0.71
147
0.06
176
   256
177
   256
178
     2
271
     2
272
     2
279
     2
284
     7
285
     7
286
     7
340
1ECB
  0
DIMSTYLE
105
1EF2
330
1E65
100
AcDbSymbolTableRecord
100
AcDbDimStyleTableRecord
  2
AM_ANSI$SF
 70
     0
  4
mm
 41
0.12
 42
0.05
 43
0.5
 44
0.1
 47
0.1
 48
0.1
 75
     1
 76
     1
 78
     7
140
0.12
141
0.0
146
0.71
147
0.06
176
   256
177
   256
178
     2
271
     2
272
     2
279
     2
284
     7
285
     7
286
     7
340
1ECB
  0
DIMSTYLE
105
1EF3
330
1E65
100
AcDbSymbolTableRecord
100
AcDbDimStyleTableRecord
  2
AM_ANSI$SH
 70
     0
  4
mm
 41
0.12
 42
0.05
 43
0.5
 44
0.1
 47
0.1
 48
0.1
 75
     1
 76
     1
 78
     7
140
0.12
141
0.0
146
0.71
147
0.06
173
     1
176
   256
177
   256
178
     2
271
     2
272
     2
279
     2
284
     7
285
     7
286
     7
340
1ECB
  0
ENDTAB
  0
TABLE
  2
BLOCK_RECORD
  5
1E5C
330
0
100
AcDbSymbolTable
 70
    28
  0
BLOCK_RECORD
  5
1EC6
102
{ACAD_XDICTIONARY
360
1FDF
102
}
330
1E5C
100
AcDbSymbolTableRecord
100
AcDbBlockTableRecord
  2
*Model_Space
340
1EC9
  0
BLOCK_RECORD
  5
1EC2
330
1E5C
100
AcDbSymbolTableRecord
100
AcDbBlockTableRecord
  2
*Paper_Space
340
1EC5
  0
BLOCK_RECORD
  5
1EF9
330
1E5C
100
AcDbSymbolTableRecord
100
AcDbBlockTableRecord
  2
$MODEL_SPACE
340
0
  0
BLOCK_RECORD
  5
1EFB
330
1E5C
100
AcDbSymbolTableRecord
100
AcDbBlockTableRecord
  2
$PAPER_SPACE
340
0
  0
BLOCK_RECORD
  5
1EFD
330
1E5C
100
AcDbSymbolTableRecord
100
AcDbBlockTableRecord
  2
NEW_BLOCK
340
0
102
{BLKREFS
331
C59
102
}
  0
BLOCK_RECORD
  5
1EFF
330
1E5C
100
AcDbSymbolTableRecord
100
AcDbBlockTableRecord
  2
GENAXEH
340
0
  0
BLOCK_RECORD
  5
1F01
330
1E5C
100
AcDbSymbolTableRecord
100
AcDbBlockTableRecord
  2
*U4
340
0
  0
BLOCK_RECORD
  5
1F03
330
1E5C
100
AcDbSymbolTableRecord
100
AcDbBlockTableRecord
  2
*U5
340
0
  0
BLOCK_RECORD
  5
1F05
330
1E5C
100
AcDbSymbolTableRecord
100
AcDbBlockTableRecord
  2
*U6
340
0
  0
BLOCK_RECORD
  5
1F07
330
1E5C
100
AcDbSymbolTableRecord
100
AcDbBlockTableRecord
  2
*U7
340
0
  0
BLOCK_RECORD
  5
1F09
330
1E5C
100
AcDbSymbolTableRecord
100
AcDbBlockTableRecord
  2
*U8
340
0
  0
BLOCK_RECORD
  5
1F0B
330
1E5C
100
AcDbSymbolTableRecord
100
AcDbBlockTableRecord
  2
*U9
340
0
  0
BLOCK_RECORD
  5
1F0D
330
1E5C
100
AcDbSymbolTableRecord
100
AcDbBlockTableRecord
  2
*U10
340
0
  0
BLOCK_RECORD
  5
1F0F
330
1E5C
100
AcDbSymbolTableRecord
100
AcDbBlockTableRecord
  2
*U11
340
0
  0
BLOCK_RECORD
  5
1F11
330
1E5C
100
AcDbSymbolTableRecord
100
AcDbBlockTableRecord
  2
*U12
340
0
  0
BLOCK_RECORD
  5
1F13
330
1E5C
100
AcDbSymbolTableRecord
100
AcDbBlockTableRecord
  2
*U13
340
0
  0
BLOCK_RECORD
  5
1F15
330
1E5C
100
AcDbSymbolTableRecord
100
AcDbBlockTableRecord
  2
*U14
340
0
  0
BLOCK_RECORD
  5
1F17
330
1E5C
100
AcDbSymbolTableRecord
100
AcDbBlockTableRecord
  2
*U15
340
0
  0
BLOCK_RECORD
  5
1F19
330
1E5C
100
AcDbSymbolTableRecord
100
AcDbBlockTableRecord
  2
*U16
340
0
  0
BLOCK_RECORD
  5
1F1B
330
1E5C
100
AcDbSymbolTableRecord
100
AcDbBlockTableRecord
  2
*U17
340
0
  0
BLOCK_RECORD
  5
1F1D
330
1E5C
100
AcDbSymbolTableRecord
100
AcDbBlockTableRecord
  2
*U18
340
0
  0
BLOCK_RECORD
  5
1F1F
330
1E5C
100
AcDbSymbolTableRecord
100
AcDbBlockTableRecord
  2
*U19
340
0
  0
BLOCK_RECORD
  5
1F21
330
1E5C
100
AcDbSymbolTableRecord
100
AcDbBlockTableRecord
  2
*U20
340
0
  0
BLOCK_RECORD
  5
1F23
330
1E5C
100
AcDbSymbolTableRecord
100
AcDbBlockTableRecord
  2
*U21
340
0
  0
BLOCK_RECORD
  5
1F25
330
1E5C
100
AcDbSymbolTableRecord
100
AcDbBlockTableRecord
  2
*U22
340
0
  0
BLOCK_RECORD
  5
1F27
330
1E5C
100
AcDbSymbolTableRecord
100
AcDbBlockTableRecord
  2
*U23
340
0
  0
BLOCK_RECORD
  5
1F29
330
1E5C
100
AcDbSymbolTableRecord
100
AcDbBlockTableRecord
  2
*U24
340
0
  0
BLOCK_RECORD
  5
1F2B
330
1E5C
100
AcDbSymbolTableRecord
100
AcDbBlockTableRecord
  2
*U25
340
0
  0
ENDTAB
  0
ENDSEC
  0
SECTION
  2
BLOCKS
  0
BLOCK
  5
1EC7
330
1EC6
100
AcDbEntity
  8
0
100
AcDbBlockBegin
  2
*Model_Space
 70
     0
 10
0.0
 20
0.0
 30
0.0
  3
*Model_Space
  1

  0
ENDBLK
  5
1EC8
330
1EC6
100
AcDbEntity
  8
0
100
AcDbBlockEnd
  0
BLOCK
  5
1EC3
330
1EC2
100
AcDbEntity
 67
     1
  8
0
100
AcDbBlockBegin
  2
*Paper_Space
 70
     0
 10
0.0
 20
0.0
 30
0.0
  3
*Paper_Space
  1

  0
ENDBLK
  5
1EC4
330
1EC2
100
AcDbEntity
 67
     1
  8
0
100
AcDbBlockEnd
  0
BLOCK
  5
1EFA
330
1EF9
100
AcDbEntity
  8
0
100
AcDbBlockBegin
  2
$MODEL_SPACE
 70
     0
 10
0.0
 20
0.0
 30
0.0
  3
$MODEL_SPACE
  1

  0
ENDBLK
  5
1D58
330
1EF9
100
AcDbEntity
  8
0
100
AcDbBlockEnd
  0
BLOCK
  5
1EFC
330
1EFB
100
AcDbEntity
  8
0
100
AcDbBlockBegin
  2
$PAPER_SPACE
 70
     0
 10
0.0
 20
0.0
 30
0.0
  3
$PAPER_SPACE
  1

  0
ENDBLK
  5
1D54
330
1EFB
100
AcDbEntity
  8
0
100
AcDbBlockEnd
  0
BLOCK
  5
1EFE
330
1EFD
100
AcDbEntity
  8
0
100
AcDbBlockBegin
  2
NEW_BLOCK
 70
     0
 10
0.0
 20
0.0
 30
0.0
  3
NEW_BLOCK
  1

  0
TEXT
  5
B67
330
1EFD
100
AcDbEntity
  8
TEXT
100
AcDbText
 10
27.285946821803
 20
25.27142175952417
 30
0.0
 40
40.0
  1
available on request
  7
TITLE3
100
AcDbText
  0
TEXT
  5
B68
330
1EFD
100
AcDbEntity
  8
TEXT
100
AcDbText
 10
27.285946821803
 20
93.84285033095272
 30
0.0
 40
40.0
  1
Certified dimensions
  7
TITLE3
100
AcDbText
  0
TEXT
  5
B69
330
1EFD
100
AcDbEntity
  8
TEXT
100
AcDbText
 10
27.285946821803
 20
162.4142789023812
 30
0.0
 40
40.0
  1
without notice or obligation.
  7
TITLE3
100
AcDbText
  0
TEXT
  5
B6A
330
1EFD
100
AcDbEntity
  8
TEXT
100
AcDbText
 10
27.285946821803
 20
230.9857074738097
 30
0.0
 40
40.0
  1
specifications at any time
  7
TITLE3
100
AcDbText
  0
TEXT
  5
B6B
330
1EFD
100
AcDbEntity
  8
TEXT
100
AcDbText
 10
27.285946821803
 20
299.5571360452384
 30
0.0
 40
40.0
  1
the right to change 
  7
TITLE3
100
AcDbText
  0
TEXT
  5
B6C
330
1EFD
100
AcDbEntity
  8
TEXT
100
AcDbText
 10
27.285946821803
 20
436.6999931880949
 30
0.0
 40
40.0
  1
NOTE
  7
TITLE3
100
AcDbText
  0
TEXT
  5
B6D
330
1EFD
100
AcDbEntity
  8
TEXT
100
AcDbText
 10
27.285946821803
 20
368.1285646166668
 30
0.0
 40
40.0
  1
The manufacturer reserves
  7
TITLE3
100
AcDbText
  0
ENDBLK
  5
B6E
330
1EFD
100
AcDbEntity
  8
0
100
AcDbBlockEnd
  0
BLOCK
  5
1F00
330
1EFF
100
AcDbEntity
  8
0
100
AcDbBlockBegin
  2
GENAXEH
 70
     0
 10
0.0
 20
0.0
 30
0.0
  3
GENAXEH
  1

  0
LINE
  5
D72
330
1EFF
100
AcDbEntity
  8
0
100
AcDbLine
 10
-1.0
 20
0.0
 30
0.0
 11
1.0
 21
0.0
 31
0.0
  0
ENDBLK
  5
D74
330
1EFF
100
AcDbEntity
  8
0
100
AcDbBlockEnd
  0
BLOCK
  5
1F02
330
1F01
100
AcDbEntity
  8
0
100
AcDbBlockBegin
  2
*U4
 70
     1
 10
0.0
 20
0.0
 30
0.0
  3
*U4
  1

  0
TEXT
  5
15DB
330
1F01
100
AcDbEntity
  8
DIM
100
AcDbText
 10
2091.876394255876
 20
1169.650276091011
 30
0.0
 40
30.0
  1
825 HANGING CTRS
100
AcDbText
  0
ENDBLK
  5
15DD
330
1F01
100
AcDbEntity
  8
0
100
AcDbBlockEnd
  0
BLOCK
  5
1F04
330
1F03
100
AcDbEntity
  8
0
100
AcDbBlockBegin
  2
*U5
 70
     1
 10
0.0
 20
0.0
 30
0.0
  3
*U5
  1

  0
TEXT
  5
15DF
330
1F03
100
AcDbEntity
  8
DIM
100
AcDbText
 10
1921.876394255876
 20
1107.627356150924
 30
0.0
 40
30.0
  1
900 OPTIONAL SPRING MTG CTRS
100
AcDbText
  0
ENDBLK
  5
15E1
330
1F03
100
AcDbEntity
  8
0
100
AcDbBlockEnd
  0
BLOCK
  5
1F06
330
1F05
100
AcDbEntity
  8
0
100
AcDbBlockBegin
  2
*U6
 70
     1
 10
0.0
 20
0.0
 30
0.0
  3
*U6
  1

  0
TEXT
  5
15E3
330
1F05
100
AcDbEntity
  8
DIM
100
AcDbText
 10
1774.076394255876
 20
1973.823848306443
 30
0.0
 40
30.0
  1
40
100
AcDbText
  0
ENDBLK
  5
15E5
330
1F05
100
AcDbEntity
  8
0
100
AcDbBlockEnd
  0
BLOCK
  5
1F08
330
1F07
100
AcDbEntity
  8
0
100
AcDbBlockBegin
  2
*U7
 70
     1
 10
0.0
 20
0.0
 30
0.0
  3
*U7
  1

  0
TEXT
  5
15E7
330
1F07
100
AcDbEntity
  8
DIM
100
AcDbText
 10
2137.776394255877
 20
1973.578120686029
 30
0.0
 40
30.0
  1
478
100
AcDbText
  0
ENDBLK
  5
15E9
330
1F07
100
AcDbEntity
  8
0
100
AcDbBlockEnd
  0
BLOCK
  5
1F0A
330
1F09
100
AcDbEntity
  8
0
100
AcDbBlockBegin
  2
*U8
 70
     1
 10
0.0
 20
0.0
 30
0.0
  3
*U8
  1

  0
TEXT
  5
15EB
330
1F09
100
AcDbEntity
  8
DIM
100
AcDbText
 10
1769.076394255877
 20
839.620606874023
 30
0.0
 40
30.0
  1
52
100
AcDbText
  0
ENDBLK
  5
15ED
330
1F09
100
AcDbEntity
  8
0
100
AcDbBlockEnd
  0
BLOCK
  5
1F0C
330
1F0B
100
AcDbEntity
  8
0
100
AcDbBlockBegin
  2
*U9
 70
     1
 10
0.0
 20
0.0
 30
0.0
  3
*U9
  1

  0
TEXT
  5
15EF
330
1F0B
100
AcDbEntity
  8
DIM
100
AcDbText
 10
2149.576394255877
 20
839.5387797319164
 30
0.0
 40
30.0
  1
477
100
AcDbText
  0
ENDBLK
  5
15F1
330
1F0B
100
AcDbEntity
  8
0
100
AcDbBlockEnd
  0
BLOCK
  5
1F0E
330
1F0D
100
AcDbEntity
  8
0
100
AcDbBlockBegin
  2
*U10
 70
     1
 10
0.0
 20
0.0
 30
0.0
  3
*U10
  1

  0
TEXT
  5
15F3
330
1F0D
100
AcDbEntity
  8
DIM
100
AcDbText
 10
2221.876394255877
 20
903.4454019475743
 30
0.0
 40
30.0
  1
846 O/A
100
AcDbText
  0
ENDBLK
  5
15F5
330
1F0D
100
AcDbEntity
  8
0
100
AcDbBlockEnd
  0
BLOCK
  5
1F10
330
1F0F
100
AcDbEntity
  8
0
100
AcDbBlockBegin
  2
*U11
 70
     1
 10
0.0
 20
0.0
 30
0.0
  3
*U11
  1

  0
TEXT
  5
15F7
330
1F0F
100
AcDbEntity
  8
DIM
100
AcDbText
 10
1796.711091623166
 20
539.2830775023091
 30
0.0
 40
30.0
  1
350 O/A
 50
90.0
100
AcDbText
  0
ENDBLK
  5
15F9
330
1F0F
100
AcDbEntity
  8
0
100
AcDbBlockEnd
  0
BLOCK
  5
1F12
330
1F11
100
AcDbEntity
  8
0
100
AcDbBlockBegin
  2
*U12
 70
     1
 10
0.0
 20
0.0
 30
0.0
  3
*U12
  1

  0
TEXT
  5
15FB
330
1F11
100
AcDbEntity
  8
DIM
100
AcDbText
 10
2900.16551784755
 20
603.2830775023093
 30
0.0
 40
30.0
  1
337
 50
90.0
100
AcDbText
  0
ENDBLK
  5
15FD
330
1F11
100
AcDbEntity
  8
0
100
AcDbBlockEnd
  0
BLOCK
  5
1F14
330
1F13
100
AcDbEntity
  8
0
100
AcDbBlockBegin
  2
*U13
 70
     1
 10
0.0
 20
0.0
 30
0.0
  3
*U13
  1

  0
TEXT
  5
15FF
330
1F13
100
AcDbEntity
  8
DIM
100
AcDbText
 10
2840.305335407327
 20
615.3290225423567
 30
0.0
 40
30.0
  1
111
 50
90.0
100
AcDbText
  0
ENDBLK
  5
1601
330
1F13
100
AcDbEntity
  8
0
100
AcDbBlockEnd
  0
BLOCK
  5
1F16
330
1F15
100
AcDbEntity
  8
0
100
AcDbBlockBegin
  2
*U14
 70
     1
 10
0.0
 20
0.0
 30
0.0
  3
*U14
  1

  0
TEXT
  5
1603
330
1F15
100
AcDbEntity
  8
DIM
100
AcDbText
 10
3085.697266222859
 20
891.7830775023091
 30
0.0
 40
30.0
  1
39
 50
90.0
100
AcDbText
  0
ENDBLK
  5
1605
330
1F15
100
AcDbEntity
  8
0
100
AcDbBlockEnd
  0
BLOCK
  5
1F18
330
1F17
100
AcDbEntity
  8
0
100
AcDbBlockBegin
  2
*U15
 70
     1
 10
0.0
 20
0.0
 30
0.0
  3
*U15
  1

  0
TEXT
  5
1607
330
1F17
100
AcDbEntity
  8
DIM
100
AcDbText
 10
3085.681924010311
 20
604.2830775023093
 30
0.0
 40
30.0
  1
257
 50
90.0
100
AcDbText
  0
ENDBLK
  5
1609
330
1F17
100
AcDbEntity
  8
0
100
AcDbBlockEnd
  0
BLOCK
  5
1F1A
330
1F19
100
AcDbEntity
  8
0
100
AcDbBlockBegin
  2
*U16
 70
     1
 10
0.0
 20
0.0
 30
0.0
  3
*U16
  1

  0
TEXT
  5
160B
330
1F19
100
AcDbEntity
  8
DIM
100
AcDbText
 10
3847.823572455176
 20
891.7830775023093
 30
0.0
 40
30.0
  1
29
 50
90.0
100
AcDbText
  0
ENDBLK
  5
160D
330
1F19
100
AcDbEntity
  8
0
100
AcDbBlockEnd
  0
BLOCK
  5
1F1C
330
1F1B
100
AcDbEntity
  8
0
100
AcDbBlockBegin
  2
*U17
 70
     1
 10
0.0
 20
0.0
 30
0.0
  3
*U17
  1

  0
TEXT
  5
160F
330
1F1B
100
AcDbEntity
  8
DIM
100
AcDbText
 10
3847.823572455176
 20
614.4830775023092
 30
0.0
 40
30.0
  1
257
 50
90.0
100
AcDbText
  0
ENDBLK
  5
1611
330
1F1B
100
AcDbEntity
  8
0
100
AcDbBlockEnd
  0
BLOCK
  5
1F1E
330
1F1D
100
AcDbEntity
  8
0
100
AcDbBlockBegin
  2
*U18
 70
     1
 10
0.0
 20
0.0
 30
0.0
  3
*U18
  1

  0
TEXT
  5
1613
330
1F1D
100
AcDbEntity
  8
DIM
100
AcDbText
 10
2954.461792250693
 20
1514.690735559124
 30
0.0
 40
30.0
  1
472 CTRS
 50
90.0
100
AcDbText
  0
ENDBLK
  5
1615
330
1F1D
100
AcDbEntity
  8
0
100
AcDbBlockEnd
  0
BLOCK
  5
1F20
330
1F1F
100
AcDbEntity
  8
0
100
AcDbBlockBegin
  2
*U19
 70
     1
 10
0.0
 20
0.0
 30
0.0
  3
*U19
  1

  0
TEXT
  5
1617
330
1F1F
100
AcDbEntity
  8
DIM
100
AcDbText
 10
2882.596627950757
 20
1517.190735559124
 30
0.0
 40
30.0
  1
440 CTRS
 50
90.0
100
AcDbText
  0
ENDBLK
  5
1619
330
1F1F
100
AcDbEntity
  8
0
100
AcDbBlockEnd
  0
BLOCK
  5
1F22
330
1F21
100
AcDbEntity
  8
0
100
AcDbBlockBegin
  2
*U20
 70
     1
 10
0.0
 20
0.0
 30
0.0
  3
*U20
  1

  0
TEXT
  5
161B
330
1F21
100
AcDbEntity
  8
DIM
100
AcDbText
 10
3355.110182386908
 20
858.8776756258937
 30
0.0
 40
30.0
  1
103
100
AcDbText
  0
ENDBLK
  5
161D
330
1F21
100
AcDbEntity
  8
0
100
AcDbBlockEnd
  0
BLOCK
  5
1F24
330
1F23
100
AcDbEntity
  8
0
100
AcDbBlockBegin
  2
*U21
 70
     1
 10
0.0
 20
0.0
 30
0.0
  3
*U21
  1

  0
TEXT
  5
161F
330
1F23
100
AcDbEntity
  8
DIM
100
AcDbText
 10
3373.342764116722
 20
705.6293678620813
 30
0.0
 40
30.0
  1
75
100
AcDbText
  0
ENDBLK
  5
1621
330
1F23
100
AcDbEntity
  8
0
100
AcDbBlockEnd
  0
BLOCK
  5
1F26
330
1F25
100
AcDbEntity
  8
0
100
AcDbBlockBegin
  2
*U22
 70
     1
 10
0.0
 20
0.0
 30
0.0
  3
*U22
  1

  0
TEXT
  5
1623
330
1F25
100
AcDbEntity
  8
DIM
100
AcDbText
 10
3373.342764116722
 20
767.1885034816822
 30
0.0
 40
30.0
  1
56
100
AcDbText
  0
ENDBLK
  5
1625
330
1F25
100
AcDbEntity
  8
0
100
AcDbBlockEnd
  0
BLOCK
  5
1F28
330
1F27
100
AcDbEntity
  8
0
100
AcDbBlockBegin
  2
*U23
 70
     1
 10
0.0
 20
0.0
 30
0.0
  3
*U23
  1

  0
TEXT
  5
1627
330
1F27
100
AcDbEntity
  8
DIM
100
AcDbText
 10
1796.698602351978
 20
1508.230735559123
 30
0.0
 40
30.0
  1
677 O/A
 50
90.0
100
AcDbText
  0
ENDBLK
  5
1629
330
1F27
100
AcDbEntity
  8
0
100
AcDbBlockEnd
  0
BLOCK
  5
1F2A
330
1F29
100
AcDbEntity
  8
0
100
AcDbBlockBegin
  2
*U24
 70
     1
 10
0.0
 20
0.0
 30
0.0
  3
*U24
  1

  0
TEXT
  5
162B
330
1F29
100
AcDbEntity
  8
DIM
100
AcDbText
 10
2954.230765222468
 20
1964.690735559123
 30
0.0
 40
30.0
  1
19
 50
90.0
100
AcDbText
  0
ENDBLK
  5
162D
330
1F29
100
AcDbEntity
  8
0
100
AcDbBlockEnd
  0
BLOCK
  5
1F2C
330
1F2B
100
AcDbEntity
  8
0
100
AcDbBlockBegin
  2
*U25
 70
     1
 10
0.0
 20
0.0
 30
0.0
  3
*U25
  1

  0
TEXT
  5
162F
330
1F2B
100
AcDbEntity
  8
DIM
100
AcDbText
 10
2882.598134009931
 20
1964.690735559123
 30
0.0
 40
30.0
  1
35
 50
90.0
100
AcDbText
  0
ENDBLK
  5
1631
330
1F2B
100
AcDbEntity
  8
0
100
AcDbBlockEnd
  0
ENDSEC
  0
SECTION
  2
ENTITIES
  0
TEXT
  5
B6F
330
1EC6
100
AcDbEntity
  8
TEXT
100
AcDbText
 10
2932.4815966665
 20
271.500140606051
 30
0.0
 40
50.0
  1
temperzone HWP 58Y
  7
TITLE5
 72
     1
 11
3344.386358571262
 21
271.500140606051
 31
0.0
100
AcDbText
  0
TEXT
  5
B70
330
1EC6
100
AcDbEntity
  8
TEXT
100
AcDbText
 10
3430.0
 20
70.0
 30
0.0
 40
30.0
  1
HWP58Y
 41
1.65040650406504
  7
TITLE3
 72
     5
 11
3720.0
 21
70.0
 31
0.0
100
AcDbText
  0
TEXT
  5
B72
330
1EC6
100
AcDbEntity
  8
OVERLAY-A3
100
AcDbText
 10
2847.288544144122
 20
110.8312138601009
 30
0.0
 40
24.0
  1
Date
  7
SIMPLEX
100
AcDbText
  0
TEXT
  5
B73
330
1EC6
100
AcDbEntity
  8
OVERLAY-A3
100
AcDbText
 10
3746.111192373602
 20
129.5033020234112
 30
0.0
 40
24.0
  1
Revision
 41
0.7812095035934773
  7
SIMPLEX
 72
     5
 11
3851.462874001065
 21
129.5033020234112
 31
0.0
100
AcDbText
  0
LINE
  5
B74
330
1EC6
100
AcDbEntity
  8
OVERLAY-A3
100
AcDbLine
 10
3734.49134999016
 20
20.84249284831713
 30
0.0
 11
3734.49134999016
 21
168.2686557085465
 31
0.0
  0
LINE
  5
B75
330
1EC6
100
AcDbEntity
  8
OVERLAY-A3
100
AcDbLine
 10
2819.351529457147
 20
337.3426334543681
 30
0.0
 11
2819.351529457147
 21
20.84249284831713
 31
0.0
  0
LINE
  5
B76
330
1EC6
100
AcDbEntity
  8
OVERLAY-A3
100
AcDbLine
 10
3416.913678013094
 20
20.84249284831713
 30
0.0
 11
3416.913678013094
 21
168.2686557085465
 31
0.0
  0
LINE
  5
B77
330
1EC6
100
AcDbEntity
  8
OVERLAY-A3
100
AcDbLine
 10
3416.913678013094
 20
93.31259926946378
 30
0.0
 11
2819.351529457147
 21
93.31259926946378
 31
0.0
  0
LINE
  5
B78
330
1EC6
100
AcDbEntity
  8
OVERLAY-A3
100
AcDbLine
 10
3861.575465237841
 20
168.2686557085465
 30
0.0
 11
2819.351529457147
 21
168.2686557085465
 31
0.0
  0
LINE
  5
B79
330
1EC6
100
AcDbEntity
  8
OVERLAY-A3
100
AcDbLine
 10
2819.351529457147
 20
20.84249284831713
 30
0.0
 11
3861.277958059491
 21
20.84249284831713
 31
0.0
  0
LINE
  5
B7A
330
1EC6
100
AcDbEntity
  8
OVERLAY-A3
100
AcDbLine
 10
3861.277958059491
 20
20.84249284831713
 30
0.0
 11
3861.277958059491
 21
337.3426334543681
 31
0.0
  0
LINE
  5
B7B
330
1EC6
100
AcDbEntity
  8
OVERLAY-A3
100
AcDbLine
 10
3861.277958059491
 20
337.3426334543681
 30
0.0
 11
2819.351529457147
 21
337.3426334543681
 31
0.0
  0
TEXT
  5
B7C
330
1EC6
100
AcDbEntity
  8
OVERLAY-A3
100
AcDbText
 10
2844.483219103109
 20
47.92248806535767
 30
0.0
 40
20.0
  1
Scale
 41
1.370174796565972
  7
SIMPLEX
 72
     5
 11
2944.962704184614
 21
47.92248806535767
 31
0.0
100
AcDbText
  0
TEXT
  5
B7D
330
1EC6
100
AcDbEntity
  8
OVERLAY-A3
100
AcDbText
 10
3474.859123600798
 20
128.8934315067097
 30
0.0
 40
20.0
  1
Drawing No.
  7
SIMPLEX
 72
     2
 11
3649.144837886512
 21
128.8934315067097
 31
0.0
100
AcDbText
  0
LINE
  5
B7E
330
1EC6
100
AcDbEntity
  8
OVERLAY-A3
100
AcDbLine
 10
1430.578375694022
 20
0.0
 30
0.0
 11
3890.000000000156
 21
0.0
 31
0.0
  0
LINE
  5
B7F
330
1EC6
100
AcDbEntity
  8
OVERLAY-A3
100
AcDbLine
 10
3890.000000000156
 20
0.0
 30
0.0
 11
3890.000000000156
 21
2100.142154073407
 31
0.0
  0
LINE
  5
B80
330
1EC6
100
AcDbEntity
  8
OVERLAY-A3
100
AcDbLine
 10
3890.000000000156
 20
2100.142154073407
 30
0.0
 11
1430.578375694022
 21
2100.142154073407
 31
0.0
  0
LINE
  5
B81
330
1EC6
100
AcDbEntity
  8
OVERLAY-A3
100
AcDbLine
 10
1430.578375694022
 20
2100.142154073407
 30
0.0
 11
1430.578375694022
 21
0.0
 31
0.0
  0
TEXT
  5
C1A
330
1EC6
100
AcDbEntity
  8
TEXT
100
AcDbText
 10
2950.703500661916
 20
110.0
 30
0.0
 40
25.0
  1
12-02-11
 41
0.9020134228187895
  7
TITLE3
 72
     5
 11
3110.703500661915
 21
110.0
 31
0.0
100
AcDbText
  0
TEXT
  5
C49
330
1EC6
100
AcDbEntity
  8
TEXT
100
AcDbText
 10
3001.04344477519
 20
47.4986127328093
 30
0.0
 40
25.0
  1
1:10
  7
TITLE3
100
AcDbText
  0
INSERT
  5
C59
330
1EC6
100
AcDbEntity
  8
TEXT
100
AcDbBlockReference
  2
NEW_BLOCK
 10
1470.557764683153
 20
31.27165940950507
 30
0.0
 41
0.6999999999999888
 42
0.6999999999999888
 43
0.6999999999999888
  0
LINE
  5
D9E
330
1EC6
100
AcDbEntity
  8
OUTLINE
100
AcDbLine
 10
2744.67639425588
 20
816.7830775023086
 30
0.0
 11
1634.076394255876
 21
816.7830775023086
 31
0.0
  0
LINE
  5
DAF
330
1EC6
100
AcDbEntity
  8
OUTLINE
100
AcDbLine
 10
2744.67639425588
 20
816.7830775023086
 30
0.0
 11
2744.67639425588
 21
808.7830775023093
 31
0.0
  0
LINE
  5
DC3
330
1EC6
100
AcDbEntity
  8
OUTLINE
100
AcDbLine
 10
1634.076394255876
 20
816.7830775023086
 30
0.0
 11
1634.076394255876
 21
808.7830775023068
 31
0.0
  0
LINE
  5
DD7
330
1EC6
100
AcDbEntity
  8
OUTLINE
100
AcDbLine
 10
1655.076394255877
 20
816.7830775023086
 30
0.0
 11
1655.076394255877
 21
489.7830775023087
 31
0.0
  0
LINE
  5
DDA
330
1EC6
100
AcDbEntity
  8
OUTLINE
100
AcDbLine
 10
2723.676394255877
 20
816.7830775023086
 30
0.0
 11
2723.676394255877
 21
804.7830775023086
 31
0.0
  0
LINE
  5
DDB
330
1EC6
100
AcDbEntity
  8
OUTLINE
100
AcDbLine
 10
2744.67639425588
 20
489.7830775023087
 30
0.0
 11
1634.076394255876
 21
489.7830775023087
 31
0.0
  0
LINE
  5
DDC
330
1EC6
100
AcDbEntity
  8
OUTLINE
100
AcDbLine
 10
2744.67639425588
 20
489.7830775023087
 30
0.0
 11
2744.67639425588
 21
497.7830775023083
 31
0.0
  0
LINE
  5
DDD
330
1EC6
100
AcDbEntity
  8
OUTLINE
100
AcDbLine
 10
1634.076394255876
 20
489.7830775023087
 30
0.0
 11
1634.076394255876
 21
497.7830775023106
 31
0.0
  0
LINE
  5
DF8
330
1EC6
100
AcDbEntity
  8
OUTLINE
100
AcDbLine
 10
1686.076394255877
 20
772.7830775023086
 30
0.0
 11
1686.076394255877
 21
515.7830775023088
 31
0.0
  0
LINE
  5
DF9
330
1EC6
100
AcDbEntity
  8
OUTLINE
100
AcDbLine
 10
2428.076394255877
 20
772.7830775023085
 30
0.0
 11
1686.076394255877
 21
772.7830775023086
 31
0.0
  0
LINE
  5
DFA
330
1EC6
100
AcDbEntity
  8
OUTLINE
100
AcDbLine
 10
2428.076394255878
 20
515.7830775023088
 30
0.0
 11
1686.076394255877
 21
515.7830775023088
 31
0.0
  0
LINE
  5
DFB
330
1EC6
100
AcDbEntity
  8
OUTLINE
100
AcDbLine
 10
2428.076394255877
 20
772.7830775023085
 30
0.0
 11
2428.076394255878
 21
515.7830775023088
 31
0.0
  0
LINE
  5
E00
330
1EC6
100
AcDbEntity
  8
OUTLINE
100
AcDbLine
 10
2723.676394255877
 20
506.7830775023085
 30
0.0
 11
2723.676394255877
 21
489.7830775023087
 31
0.0
  0
LINE
  5
E1B
330
1EC6
100
AcDbEntity
  8
DIM
100
AcDbLine
 10
1655.076394255877
 20
489.7830775023087
 30
0.0
 11
1655.076394255877
 21
461.7830775023087
 31
0.0
  0
LINE
  5
E1C
330
1EC6
100
AcDbEntity
  8
DIM
100
AcDbLine
 10
2723.676394255877
 20
489.7830775023087
 30
0.0
 11
2723.676394255877
 21
474.7830775023087
 31
0.0
  0
LINE
  5
E1D
330
1EC6
100
AcDbEntity
  8
DIM
100
AcDbLine
 10
2723.676394255877
 20
474.7830775023087
 30
0.0
 11
1655.076394255877
 21
461.7830775023087
 31
0.0
  0
LINE
  5
E22
330
1EC6
100
AcDbEntity
  8
OUTLINE
100
AcDbLine
 10
2744.67639425588
 20
489.7830775023087
 30
0.0
 11
2744.67639425588
 21
481.7830775023089
 31
0.0
  0
LINE
  5
E23
330
1EC6
100
AcDbEntity
  8
OUTLINE
100
AcDbLine
 10
1634.076394255876
 20
489.7830775023087
 30
0.0
 11
1634.076394255876
 21
481.7830775023066
 31
0.0
  0
LINE
  5
E3D
330
1EC6
100
AcDbEntity
  8
OUTLINE
100
AcDbLine
 10
1655.076394255877
 20
483.2830775023087
 30
0.0
 11
1630.076394255876
 21
483.2830775023087
 31
0.0
  0
LINE
  5
E3E
330
1EC6
100
AcDbEntity
  8
OUTLINE
100
AcDbLine
 10
1655.076394255877
 20
464.2830775023087
 30
0.0
 11
1630.076394255876
 21
464.2830775023087
 31
0.0
  0
LINE
  5
E3F
330
1EC6
100
AcDbEntity
  8
DIM
100
AcDbLine
 10
1630.076394255876
 20
483.2830775023087
 30
0.0
 11
1630.076394255876
 21
464.2830775023087
 31
0.0
  0
LINE
  5
E59
330
1EC6
100
AcDbEntity
  8
OUTLINE
100
AcDbLine
 10
1655.076394255877
 20
705.7830775023088
 30
0.0
 11
1589.076394255877
 21
705.7830775023088
 31
0.0
  0
LINE
  5
E5A
330
1EC6
100
AcDbEntity
  8
OUTLINE
100
AcDbLine
 10
1593.576394255876
 20
705.7830775023088
 30
0.0
 11
1624.576394255878
 21
705.7830775023088
 31
0.0
  0
LINE
  5
E5B
330
1EC6
100
AcDbEntity
  8
OUTLINE
100
AcDbLine
 10
1617.076394255876
 20
698.7830775023089
 30
0.0
 11
1597.076394255877
 21
698.7830775023089
 31
0.0
  0
LINE
  5
E5C
330
1EC6
100
AcDbEntity
  8
OUTLINE
100
AcDbLine
 10
1589.076394255877
 20
717.7830775023088
 30
0.0
 11
1589.076394255877
 21
705.7830775023088
 31
0.0
  0
LINE
  5
E61
330
1EC6
100
AcDbEntity
  8
OUTLINE
100
AcDbLine
 10
1655.076394255877
 20
775.7830775023086
 30
0.0
 11
1655.076394255877
 21
715.7830775023088
 31
0.0
  0
LINE
  5
E66
330
1EC6
100
AcDbEntity
  8
OUTLINE
100
AcDbLine
 10
1655.076394255877
 20
779.7830775023086
 30
0.0
 11
1643.076394255876
 21
779.7830775023086
 31
0.0
  0
LINE
  5
E67
330
1EC6
100
AcDbEntity
  8
OUTLINE
100
AcDbLine
 10
1643.076394255876
 20
717.7830775023088
 30
0.0
 11
1589.076394255877
 21
717.7830775023088
 31
0.0
  0
LINE
  5
E68
330
1EC6
100
AcDbEntity
  8
OUTLINE
100
AcDbLine
 10
1643.076394255876
 20
779.7830775023086
 30
0.0
 11
1643.076394255876
 21
717.7830775023088
 31
0.0
  0
LINE
  5
E6E
330
1EC6
100
AcDbEntity
  8
DIM
100
AcDbLine
 10
1595.076394255876
 20
705.7830775023088
 30
0.0
 11
1597.076394255877
 21
698.7830775023089
 31
0.0
  0
LINE
  5
E6F
330
1EC6
100
AcDbEntity
  8
DIM
100
AcDbLine
 10
1619.076394255877
 20
705.7830775023088
 30
0.0
 11
1617.076394255876
 21
698.7830775023089
 31
0.0
  0
LINE
  5
E75
330
1EC6
100
AcDbEntity
  8
OUTLINE
100
AcDbLine
 10
2761.676394255877
 20
698.7830775023089
 30
0.0
 11
2781.676394255877
 21
698.7830775023089
 31
0.0
  0
LINE
  5
E76
330
1EC6
100
AcDbEntity
  8
OUTLINE
100
AcDbLine
 10
2789.676394255878
 20
717.7830775023088
 30
0.0
 11
2789.676394255878
 21
705.7830775023088
 31
0.0
  0
LINE
  5
E79
330
1EC6
100
AcDbEntity
  8
DIM
100
AcDbLine
 10
2783.676394255877
 20
705.7830775023088
 30
0.0
 11
2781.676394255877
 21
698.7830775023089
 31
0.0
  0
LINE
  5
E7A
330
1EC6
100
AcDbEntity
  8
DIM
100
AcDbLine
 10
2759.676394255877
 20
705.7830775023088
 30
0.0
 11
2761.676394255877
 21
698.7830775023089
 31
0.0
  0
LINE
  5
E93
330
1EC6
100
AcDbEntity
  8
OUTLINE
100
AcDbLine
 10
3753.710182386908
 20
816.7830775023086
 30
0.0
 11
3202.11018238691
 21
816.7830775023086
 31
0.0
  0
LINE
  5
E94
330
1EC6
100
AcDbEntity
  8
OUTLINE
100
AcDbLine
 10
3202.11018238691
 20
816.7830775023086
 30
0.0
 11
3202.11018238691
 21
808.7830775023068
 31
0.0
  0
LINE
  5
E95
330
1EC6
100
AcDbEntity
  8
OUTLINE
100
AcDbLine
 10
3753.710182386908
 20
816.7830775023086
 30
0.0
 11
3753.710182386909
 21
808.7830775023068
 31
0.0
  0
LINE
  5
E96
330
1EC6
100
AcDbEntity
  8
OUTLINE
100
AcDbLine
 10
3753.710182386908
 20
489.7830775023087
 30
0.0
 11
3202.11018238691
 21
489.7830775023087
 31
0.0
  0
LINE
  5
E97
330
1EC6
100
AcDbEntity
  8
OUTLINE
100
AcDbLine
 10
3202.11018238691
 20
489.7830775023087
 30
0.0
 11
3202.11018238691
 21
497.7830775023106
 31
0.0
  0
LINE
  5
E98
330
1EC6
100
AcDbEntity
  8
OUTLINE
100
AcDbLine
 10
3753.710182386908
 20
489.7830775023087
 30
0.0
 11
3753.710182386909
 21
497.7830775023106
 31
0.0
  0
LINE
  5
E99
330
1EC6
100
AcDbEntity
  8
OUTLINE
100
AcDbLine
 10
3222.910182386911
 20
816.7830775023086
 30
0.0
 11
3222.910182386911
 21
779.7830775023086
 31
0.0
  0
LINE
  5
E9A
330
1EC6
100
AcDbEntity
  8
OUTLINE
100
AcDbLine
 10
3732.910182386908
 20
816.7830775023073
 30
0.0
 11
3732.910182386909
 21
779.7830775023086
 31
0.0
  0
LINE
  5
E9F
330
1EC6
100
AcDbEntity
  8
OUTLINE
100
AcDbLine
 10
3080.990182386909
 20
772.7830775023088
 30
0.0
 11
3080.990182386909
 21
515.7830775023088
 31
0.0
  0
LINE
  5
EBC
330
1EC6
100
AcDbEntity
  8
DIM
100
AcDbLine
 10
3218.21018238691
 20
705.7830775023088
 30
0.0
 11
3265.210182386911
 21
705.7830775023086
 31
0.0
  0
LINE
  5
EBD
330
1EC6
100
AcDbEntity
  8
DIM
100
AcDbLine
 10
3218.21018238691
 20
779.7830775023086
 30
0.0
 11
3265.210182386911
 21
779.7830775023086
 31
0.0
  0
LINE
  5
EBE
330
1EC6
100
AcDbEntity
  8
OUTLINE
100
AcDbLine
 10
3218.21018238691
 20
779.7830775023086
 30
0.0
 11
3218.21018238691
 21
705.7830775023088
 31
0.0
  0
LINE
  5
EBF
330
1EC6
100
AcDbEntity
  8
OUTLINE
100
AcDbLine
 10
3265.210182386911
 20
779.7830775023093
 30
0.0
 11
3265.210182386911
 21
705.7830775023092
 31
0.0
  0
LINE
  5
EC0
330
1EC6
100
AcDbEntity
  8
OUTLINE
100
AcDbLine
 10
3222.910182386908
 20
705.7830775023088
 30
0.0
 11
3222.910182386908
 21
461.7830775023087
 31
0.0
  0
LINE
  5
EC2
330
1EC6
100
AcDbEntity
  8
OUTLINE
100
AcDbLine
 10
3231.71018238691
 20
698.7830775023089
 30
0.0
 11
3251.710182386909
 21
698.7830775023089
 31
0.0
  0
LINE
  5
EC3
330
1EC6
100
AcDbEntity
  8
DIM
100
AcDbLine
 10
3253.710182386909
 20
705.7830775023088
 30
0.0
 11
3251.710182386909
 21
698.7830775023089
 31
0.0
  0
LINE
  5
EC4
330
1EC6
100
AcDbEntity
  8
DIM
100
AcDbLine
 10
3229.710182386909
 20
705.7830775023088
 30
0.0
 11
3231.71018238691
 21
698.7830775023089
 31
0.0
  0
LINE
  5
EC5
330
1EC6
100
AcDbEntity
  8
OUTLINE
100
AcDbLine
 10
3737.610182386908
 20
779.7830775023086
 30
0.0
 11
3737.610182386907
 21
705.7830775023088
 31
0.0
  0
LINE
  5
EC6
330
1EC6
100
AcDbEntity
  8
OUTLINE
100
AcDbLine
 10
3690.610182386908
 20
779.7830775023093
 30
0.0
 11
3690.610182386907
 21
705.7830775023092
 31
0.0
  0
LINE
  5
EC7
330
1EC6
100
AcDbEntity
  8
DIM
100
AcDbLine
 10
3737.610182386907
 20
717.7830775023088
 30
0.0
 11
3735.110182386907
 21
717.7830775023088
 31
0.0
  0
LINE
  5
EC8
330
1EC6
100
AcDbEntity
  8
DIM
100
AcDbLine
 10
3737.610182386907
 20
705.7830775023088
 30
0.0
 11
3690.610182386907
 21
705.7830775023086
 31
0.0
  0
LINE
  5
EC9
330
1EC6
100
AcDbEntity
  8
DIM
100
AcDbLine
 10
3737.610182386908
 20
779.7830775023086
 30
0.0
 11
3690.610182386907
 21
779.7830775023086
 31
0.0
  0
LINE
  5
ECA
330
1EC6
100
AcDbEntity
  8
OUTLINE
100
AcDbLine
 10
3724.110182386908
 20
698.7830775023089
 30
0.0
 11
3704.110182386907
 21
698.7830775023089
 31
0.0
  0
LINE
  5
ECB
330
1EC6
100
AcDbEntity
  8
DIM
100
AcDbLine
 10
3702.110182386908
 20
705.7830775023088
 30
0.0
 11
3704.110182386907
 21
698.7830775023089
 31
0.0
  0
LINE
  5
ECC
330
1EC6
100
AcDbEntity
  8
DIM
100
AcDbLine
 10
3726.110182386908
 20
705.7830775023088
 30
0.0
 11
3724.110182386908
 21
698.7830775023089
 31
0.0
  0
LINE
  5
ECD
330
1EC6
100
AcDbEntity
  8
OUTLINE
100
AcDbLine
 10
3732.910182386914
 20
705.7830775023086
 30
0.0
 11
3732.910182386927
 21
461.7830775023086
 31
0.0
  0
LINE
  5
ECE
330
1EC6
100
AcDbEntity
  8
DIM
100
AcDbLine
 10
3220.710182386909
 20
708.2830775023088
 30
0.0
 11
3262.710182386911
 21
708.2830775023088
 31
0.0
  0
LINE
  5
ECF
330
1EC6
100
AcDbEntity
  8
OUTLINE
100
AcDbLine
 10
3220.710182386909
 20
779.7830775023086
 30
0.0
 11
3220.710182386909
 21
708.2830775023088
 31
0.0
  0
LINE
  5
ED0
330
1EC6
100
AcDbEntity
  8
OUTLINE
100
AcDbLine
 10
3262.710182386911
 20
779.7830775023093
 30
0.0
 11
3262.710182386911
 21
708.2830775023088
 31
0.0
  0
LINE
  5
ED1
330
1EC6
100
AcDbEntity
  8
OUTLINE
100
AcDbLine
 10
3693.110182386908
 20
779.7830775023093
 30
0.0
 11
3693.110182386906
 21
708.2830775023085
 31
0.0
  0
LINE
  5
ED2
330
1EC6
100
AcDbEntity
  8
DIM
100
AcDbLine
 10
3735.110182386907
 20
708.2830775023085
 30
0.0
 11
3693.110182386906
 21
708.2830775023085
 31
0.0
  0
LINE
  5
ED3
330
1EC6
100
AcDbEntity
  8
OUTLINE
100
AcDbLine
 10
3735.110182386908
 20
779.7830775023086
 30
0.0
 11
3735.110182386907
 21
708.2830775023085
 31
0.0
  0
LINE
  5
ED4
330
1EC6
100
AcDbEntity
  8
DIM
100
AcDbLine
 10
3693.110182386906
 20
717.7830775023086
 30
0.0
 11
3690.610182386908
 21
717.7830775023086
 31
0.0
  0
LINE
  5
ED5
330
1EC6
100
AcDbEntity
  8
DIM
100
AcDbLine
 10
3218.21018238691
 20
717.7830775023088
 30
0.0
 11
3220.710182386909
 21
717.7830775023088
 31
0.0
  0
LINE
  5
ED6
330
1EC6
100
AcDbEntity
  8
DIM
100
AcDbLine
 10
3262.710182386911
 20
717.7830775023088
 30
0.0
 11
3265.210182386911
 21
717.7830775023088
 31
0.0
  0
LINE
  5
EEF
330
1EC6
100
AcDbEntity
  8
OUTLINE
100
AcDbLine
 10
3753.710182386908
 20
489.7830775023087
 30
0.0
 11
3753.710182386909
 21
481.7830775023066
 31
0.0
  0
LINE
  5
EF0
330
1EC6
100
AcDbEntity
  8
DIM
100
AcDbLine
 10
3222.910182386908
 20
474.7830775023087
 30
0.0
 11
3732.910182386927
 21
474.7830775023086
 31
0.0
  0
LINE
  5
EF1
330
1EC6
100
AcDbEntity
  8
DIM
100
AcDbLine
 10
3222.910182386908
 20
461.7830775023087
 30
0.0
 11
3732.910182386927
 21
461.7830775023086
 31
0.0
  0
LINE
  5
EF2
330
1EC6
100
AcDbEntity
  8
OUTLINE
100
AcDbLine
 10
3202.11018238691
 20
489.7830775023087
 30
0.0
 11
3202.110182386908
 21
481.7830775023066
 31
0.0
  0
LINE
  5
F0C
330
1EC6
100
AcDbEntity
  8
OUTLINE
100
AcDbLine
 10
3784.910182386924
 20
526.1830775023087
 30
0.0
 11
3732.910182386924
 21
526.1830775023087
 31
0.0
  0
LINE
  5
F0D
330
1EC6
100
AcDbEntity
  8
OUTLINE
100
AcDbLine
 10
3784.910182386911
 20
782.7830775023086
 30
0.0
 11
3784.910182386924
 21
526.1830775023087
 31
0.0
  0
LINE
  5
F44
330
1EC6
100
AcDbEntity
  8
DIM
100
AcDbLine
 10
1607.076394255877
 20
693.7830775023088
 30
0.0
 11
1607.076394255877
 21
710.7830775023089
 31
0.0
  0
LINE
  5
F47
330
1EC6
100
AcDbEntity
  8
DIM
100
AcDbLine
 10
2771.676394255877
 20
693.7830775023088
 30
0.0
 11
2771.676394255877
 21
710.7830775023089
 31
0.0
  0
LINE
  5
F48
330
1EC6
100
AcDbEntity
  8
DIM
100
AcDbLine
 10
3241.71018238691
 20
693.7830775023088
 30
0.0
 11
3241.71018238691
 21
710.7830775023089
 31
0.0
  0
LINE
  5
F49
330
1EC6
100
AcDbEntity
  8
DIM
100
AcDbLine
 10
3714.110182386908
 20
693.7830775023088
 30
0.0
 11
3714.110182386908
 21
710.7830775023089
 31
0.0
  0
TEXT
  5
F62
330
1EC6
100
AcDbEntity
  8
TEXT
 62
     7
100
AcDbText
 10
1952.413984965247
 20
618.320859072014
 30
0.0
 40
50.0
  1
HWP58Y
  7
TITLE3
100
AcDbText
  0
TEXT
  5
F63
330
1EC6
100
AcDbEntity
  8
TEXT
 62
     7
100
AcDbText
 10
3358.466311855267
 20
562.893393475633
 30
0.0
 40
50.0
  1
HWP58Y
  7
TITLE3
100
AcDbText
  0
LINE
  5
F64
330
1EC6
100
AcDbEntity
  8
DIM
100
AcDbLine
 10
3651.160037265271
 20
659.4830775023092
 30
0.0
 11
3682.496091593482
 21
640.4324132678657
 31
0.0
  0
LINE
  5
F65
330
1EC6
100
AcDbEntity
  8
DIM
100
AcDbLine
 10
3651.160037265271
 20
659.4830775023092
 30
0.0
 11
3682.496091593482
 21
678.5337417367482
 31
0.0
  0
LINE
  5
F66
330
1EC6
100
AcDbEntity
  8
DIM
100
AcDbLine
 10
3719.15336006518
 20
652.2650683036207
 30
0.0
 11
3719.15336006518
 21
666.7010867009968
 31
0.0
  0
LINE
  5
F67
330
1EC6
100
AcDbEntity
  8
DIM
100
AcDbLine
 10
3682.496091593482
 20
652.2650683036207
 30
0.0
 11
3719.15336006518
 21
652.2650683036207
 31
0.0
  0
LINE
  5
F68
330
1EC6
100
AcDbEntity
  8
DIM
100
AcDbLine
 10
3682.496091593482
 20
640.4324132678657
 30
0.0
 11
3682.496091593482
 21
652.2650683036207
 31
0.0
  0
LINE
  5
F69
330
1EC6
100
AcDbEntity
  8
DIM
100
AcDbLine
 10
3682.496091593482
 20
666.7010867009968
 30
0.0
 11
3719.15336006518
 21
666.7010867009968
 31
0.0
  0
LINE
  5
F6A
330
1EC6
100
AcDbEntity
  8
DIM
100
AcDbLine
 10
3682.496091593482
 20
678.5337417367482
 30
0.0
 11
3682.496091593482
 21
666.7010867009968
 31
0.0
  0
LINE
  5
F6D
330
1EC6
100
AcDbEntity
  8
DIM
100
AcDbLine
 10
3232.112369842548
 20
649.2830775023086
 30
0.0
 11
3263.448424170759
 21
630.2324132678651
 31
0.0
  0
LINE
  5
F6E
330
1EC6
100
AcDbEntity
  8
DIM
100
AcDbLine
 10
3232.112369842548
 20
649.2830775023086
 30
0.0
 11
3263.448424170759
 21
668.3337417367473
 31
0.0
  0
LINE
  5
F6F
330
1EC6
100
AcDbEntity
  8
DIM
100
AcDbLine
 10
3300.105692642456
 20
642.0650683036202
 30
0.0
 11
3300.105692642456
 21
656.5010867009958
 31
0.0
  0
LINE
  5
F70
330
1EC6
100
AcDbEntity
  8
DIM
100
AcDbLine
 10
3263.448424170759
 20
642.0650683036202
 30
0.0
 11
3300.105692642456
 21
642.0650683036202
 31
0.0
  0
LINE
  5
F71
330
1EC6
100
AcDbEntity
  8
DIM
100
AcDbLine
 10
3263.448424170759
 20
630.2324132678651
 30
0.0
 11
3263.448424170759
 21
642.0650683036202
 31
0.0
  0
LINE
  5
F72
330
1EC6
100
AcDbEntity
  8
DIM
100
AcDbLine
 10
3263.448424170759
 20
656.5010867009958
 30
0.0
 11
3300.105692642456
 21
656.5010867009958
 31
0.0
  0
LINE
  5
F73
330
1EC6
100
AcDbEntity
  8
DIM
100
AcDbLine
 10
3263.448424170759
 20
668.3337417367473
 30
0.0
 11
3263.448424170759
 21
656.5010867009958
 31
0.0
  0
LINE
  5
F93
330
1EC6
100
AcDbEntity
  8
OUTLINE
100
AcDbLine
 10
2723.676394255877
 20
1369.990735559124
 30
0.0
 11
2789.676394255878
 21
1369.990735559124
 31
0.0
  0
LINE
  5
F94
330
1EC6
100
AcDbEntity
  8
OUTLINE
100
AcDbLine
 10
2723.676394255877
 20
1372.490735559124
 30
0.0
 11
2789.676394255878
 21
1372.490735559124
 31
0.0
  0
LINE
  5
F95
330
1EC6
100
AcDbEntity
  8
OUTLINE
100
AcDbLine
 10
2744.676394255877
 20
1416.990735559124
 30
0.0
 11
2789.676394255878
 21
1416.990735559125
 31
0.0
  0
LINE
  5
F96
330
1EC6
100
AcDbEntity
  8
OUTLINE
100
AcDbLine
 10
2744.676394255877
 20
1414.490735559124
 30
0.0
 11
2789.676394255878
 21
1414.490735559124
 31
0.0
  0
LINE
  5
FC3
330
1EC6
100
AcDbEntity
  8
DIM
100
AcDbLine
 10
1634.076394255876
 20
1374.690735559124
 30
0.0
 11
1634.076394255876
 21
1884.690735559123
 31
0.0
  0
LINE
  5
FC4
330
1EC6
100
AcDbEntity
  8
DIM
100
AcDbLine
 10
2744.676394255877
 20
1374.690735559124
 30
0.0
 11
2744.67639425588
 21
1884.690735559123
 31
0.0
  0
LINE
  5
FC5
330
1EC6
100
AcDbEntity
  8
DIM
100
AcDbLine
 10
2723.676394255877
 20
1905.490735559123
 30
0.0
 11
1655.076394255877
 21
1905.490735559123
 31
0.0
  0
LINE
  5
FC6
330
1EC6
100
AcDbEntity
  8
DIM
100
AcDbLine
 10
2723.676394255877
 20
1353.890735559123
 30
0.0
 11
1655.076394255877
 21
1353.890735559123
 31
0.0
  0
LINE
  5
FC7
330
1EC6
100
AcDbEntity
  8
DIM
100
AcDbLine
 10
1655.076394255877
 20
1353.890735559123
 30
0.0
 11
1655.076394255877
 21
1905.490735559123
 31
0.0
  0
LINE
  5
FC8
330
1EC6
100
AcDbEntity
  8
DIM
100
AcDbLine
 10
2723.676394255877
 20
1353.890735559123
 30
0.0
 11
2723.676394255877
 21
1905.490735559123
 31
0.0
  0
LINE
  5
FC9
330
1EC6
100
AcDbEntity
  8
DIM
100
AcDbLine
 10
2744.67639425588
 20
1884.690735559123
 30
0.0
 11
1634.076394255876
 21
1884.690735559123
 31
0.0
  0
LINE
  5
FCA
330
1EC6
100
AcDbEntity
  8
DIM
100
AcDbLine
 10
2744.676394255877
 20
1374.690735559124
 30
0.0
 11
1634.076394255876
 21
1374.690735559124
 31
0.0
  0
LINE
  5
FCB
330
1EC6
100
AcDbEntity
  8
OUTLINE
100
AcDbLine
 10
1674.076394255877
 20
1936.690735559121
 30
0.0
 11
2416.476394255877
 21
1936.690735559148
 31
0.0
  0
LINE
  5
FCC
330
1EC6
100
AcDbEntity
  8
OUTLINE
100
AcDbLine
 10
1686.076394255877
 20
1353.890735559124
 30
0.0
 11
1686.076394255877
 21
1232.770735559124
 31
0.0
  0
LINE
  5
FCD
330
1EC6
100
AcDbEntity
  8
OUTLINE
100
AcDbLine
 10
2428.076394255878
 20
1353.890735559123
 30
0.0
 11
2428.076394255878
 21
1232.770735559125
 31
0.0
  0
LINE
  5
FCE
330
1EC6
100
AcDbEntity
  8
OUTLINE
100
AcDbLine
 10
1686.076394255877
 20
1232.770735559124
 30
0.0
 11
2428.076394255878
 21
1232.770735559125
 31
0.0
  0
LINE
  5
FEA
330
1EC6
100
AcDbEntity
  8
DIM
100
AcDbLine
 10
1674.076394255877
 20
1905.490735559123
 30
0.0
 11
1674.076394255877
 21
1936.690735559121
 31
0.0
  0
LINE
  5
FEB
330
1EC6
100
AcDbEntity
  8
DIM
100
AcDbLine
 10
2416.476394255878
 20
1905.490735559128
 30
0.0
 11
2416.476394255877
 21
1936.690735559148
 31
0.0
  0
LINE
  5
FED
330
1EC6
100
AcDbEntity
  8
OUTLINE
100
AcDbLine
 10
3257.91018238691
 20
821.7830775023086
 30
0.0
 11
3257.91018238691
 21
811.7830775023087
 31
0.0
  0
LINE
  5
FEE
330
1EC6
100
AcDbEntity
  8
OUTLINE
100
AcDbLine
 10
3697.910182386908
 20
821.7830775023086
 30
0.0
 11
3697.910182386908
 21
811.7830775023088
 31
0.0
  0
ARC
  5
FF6
330
1EC6
100
AcDbEntity
  8
DIM
100
AcDbCircle
 10
1645.076394255877
 20
1854.940735559123
 30
0.0
 40
4.75
100
AcDbArc
 50
0.0
 51
180.0
  0
ARC
  5
FF7
330
1EC6
100
AcDbEntity
  8
DIM
100
AcDbCircle
 10
1645.076394255877
 20
1844.440735559123
 30
0.0
 40
4.75
100
AcDbArc
 50
180.0
 51
0.0
  0
LINE
  5
FF8
330
1EC6
100
AcDbEntity
  8
DIM
100
AcDbLine
 10
1640.326394255876
 20
1854.940735559123
 30
0.0
 11
1640.326394255876
 21
1844.440735559123
 31
0.0
  0
LINE
  5
FF9
330
1EC6
100
AcDbEntity
  8
DIM
100
AcDbLine
 10
1649.826394255875
 20
1854.940735559123
 30
0.0
 11
1649.826394255875
 21
1844.440735559123
 31
0.0
  0
ARC
  5
FFA
330
1EC6
100
AcDbEntity
  8
DIM
100
AcDbCircle
 10
1645.076394255877
 20
1414.940735559124
 30
0.0
 40
4.75
100
AcDbArc
 50
0.0
 51
180.0
  0
ARC
  5
FFB
330
1EC6
100
AcDbEntity
  8
DIM
100
AcDbCircle
 10
1645.076394255877
 20
1404.440735559124
 30
0.0
 40
4.75
100
AcDbArc
 50
180.0
 51
0.0
  0
LINE
  5
FFC
330
1EC6
100
AcDbEntity
  8
DIM
100
AcDbLine
 10
1640.326394255876
 20
1414.940735559124
 30
0.0
 11
1640.326394255876
 21
1404.440735559124
 31
0.0
  0
LINE
  5
FFD
330
1EC6
100
AcDbEntity
  8
DIM
100
AcDbLine
 10
1649.826394255875
 20
1414.940735559124
 30
0.0
 11
1649.826394255875
 21
1404.440735559124
 31
0.0
  0
ARC
  5
FFE
330
1EC6
100
AcDbEntity
  8
DIM
100
AcDbCircle
 10
2733.676394255879
 20
1854.940735559123
 30
0.0
 40
4.75
100
AcDbArc
 50
0.0
 51
180.0
  0
ARC
  5
FFF
330
1EC6
100
AcDbEntity
  8
DIM
100
AcDbCircle
 10
2733.676394255879
 20
1844.440735559123
 30
0.0
 40
4.75
100
AcDbArc
 50
180.0
 51
0.0
  0
LINE
  5
1000
330
1EC6
100
AcDbEntity
  8
DIM
100
AcDbLine
 10
2738.426394255879
 20
1854.940735559123
 30
0.0
 11
2738.426394255879
 21
1844.440735559123
 31
0.0
  0
LINE
  5
1001
330
1EC6
100
AcDbEntity
  8
DIM
100
AcDbLine
 10
2728.926394255877
 20
1854.940735559123
 30
0.0
 11
2728.926394255877
 21
1844.440735559123
 31
0.0
  0
ARC
  5
1002
330
1EC6
100
AcDbEntity
  8
DIM
100
AcDbCircle
 10
2733.676394255879
 20
1414.940735559124
 30
0.0
 40
4.75
100
AcDbArc
 50
0.0
 51
180.0
  0
ARC
  5
1003
330
1EC6
100
AcDbEntity
  8
DIM
100
AcDbCircle
 10
2733.676394255879
 20
1404.440735559124
 30
0.0
 40
4.75
100
AcDbArc
 50
180.0
 51
0.0
  0
LINE
  5
1004
330
1EC6
100
AcDbEntity
  8
DIM
100
AcDbLine
 10
2738.426394255879
 20
1414.940735559124
 30
0.0
 11
2738.426394255879
 21
1404.440735559124
 31
0.0
  0
LINE
  5
1005
330
1EC6
100
AcDbEntity
  8
DIM
100
AcDbLine
 10
2728.926394255877
 20
1414.940735559124
 30
0.0
 11
2728.926394255877
 21
1404.440735559124
 31
0.0
  0
LINE
  5
101E
330
1EC6
100
AcDbEntity
  8
DIM
100
AcDbLine
 10
2789.676394255878
 20
1369.990735559124
 30
0.0
 11
2789.676394255878
 21
1416.990735559125
 31
0.0
  0
CIRCLE
  5
1021
330
1EC6
100
AcDbEntity
  8
DIM
100
AcDbCircle
 10
2771.676394255877
 20
1393.490735559124
 30
0.0
 40
12.0
  0
CIRCLE
  5
1022
330
1EC6
100
AcDbEntity
  8
DIM
100
AcDbCircle
 10
2771.676394255877
 20
1393.490735559124
 30
0.0
 40
10.0
  0
LINE
  5
1023
330
1EC6
100
AcDbEntity
  8
OUTLINE
100
AcDbLine
 10
1655.076394255876
 20
1369.990735559124
 30
0.0
 11
1589.076394255876
 21
1369.990735559124
 31
0.0
  0
LINE
  5
1024
330
1EC6
100
AcDbEntity
  8
OUTLINE
100
AcDbLine
 10
1655.076394255877
 20
1372.490735559124
 30
0.0
 11
1589.076394255877
 21
1372.490735559124
 31
0.0
  0
LINE
  5
1025
330
1EC6
100
AcDbEntity
  8
OUTLINE
100
AcDbLine
 10
1634.076394255876
 20
1416.990735559124
 30
0.0
 11
1589.076394255877
 21
1416.990735559125
 31
0.0
  0
LINE
  5
1026
330
1EC6
100
AcDbEntity
  8
OUTLINE
100
AcDbLine
 10
1634.076394255876
 20
1414.490735559124
 30
0.0
 11
1589.076394255876
 21
1414.490735559124
 31
0.0
  0
LINE
  5
1027
330
1EC6
100
AcDbEntity
  8
DIM
100
AcDbLine
 10
1589.076394255877
 20
1369.990735559124
 30
0.0
 11
1589.076394255877
 21
1416.990735559125
 31
0.0
  0
CIRCLE
  5
1028
330
1EC6
100
AcDbEntity
  8
DIM
100
AcDbCircle
 10
1607.076394255877
 20
1393.490735559124
 30
0.0
 40
12.0
  0
CIRCLE
  5
1029
330
1EC6
100
AcDbEntity
  8
DIM
100
AcDbCircle
 10
1607.076394255877
 20
1393.490735559124
 30
0.0
 40
10.0
  0
LINE
  5
102A
330
1EC6
100
AcDbEntity
  8
OUTLINE
100
AcDbLine
 10
2723.676394255877
 20
1889.390735559123
 30
0.0
 11
2789.676394255878
 21
1889.390735559122
 31
0.0
  0
LINE
  5
102B
330
1EC6
100
AcDbEntity
  8
OUTLINE
100
AcDbLine
 10
2723.676394255877
 20
1886.890735559123
 30
0.0
 11
2789.676394255878
 21
1886.890735559122
 31
0.0
  0
LINE
  5
102C
330
1EC6
100
AcDbEntity
  8
OUTLINE
100
AcDbLine
 10
2744.676394255877
 20
1842.390735559122
 30
0.0
 11
2789.676394255878
 21
1842.390735559122
 31
0.0
  0
LINE
  5
102D
330
1EC6
100
AcDbEntity
  8
OUTLINE
100
AcDbLine
 10
2744.676394255877
 20
1844.890735559122
 30
0.0
 11
2789.676394255878
 21
1844.890735559122
 31
0.0
  0
LINE
  5
102E
330
1EC6
100
AcDbEntity
  8
DIM
100
AcDbLine
 10
2789.676394255878
 20
1889.390735559122
 30
0.0
 11
2789.676394255878
 21
1842.390735559122
 31
0.0
  0
CIRCLE
  5
102F
330
1EC6
100
AcDbEntity
  8
DIM
100
AcDbCircle
 10
2771.676394255877
 20
1865.890735559122
 30
0.0
 40
12.0
  0
CIRCLE
  5
1030
330
1EC6
100
AcDbEntity
  8
DIM
100
AcDbCircle
 10
2771.676394255877
 20
1865.890735559122
 30
0.0
 40
10.0
  0
LINE
  5
1031
330
1EC6
100
AcDbEntity
  8
OUTLINE
100
AcDbLine
 10
1655.076394255876
 20
1889.390735559123
 30
0.0
 11
1589.076394255876
 21
1889.390735559122
 31
0.0
  0
LINE
  5
1032
330
1EC6
100
AcDbEntity
  8
OUTLINE
100
AcDbLine
 10
1655.076394255877
 20
1886.890735559123
 30
0.0
 11
1589.076394255877
 21
1886.890735559122
 31
0.0
  0
LINE
  5
1033
330
1EC6
100
AcDbEntity
  8
OUTLINE
100
AcDbLine
 10
1634.076394255876
 20
1842.390735559122
 30
0.0
 11
1589.076394255877
 21
1842.390735559122
 31
0.0
  0
LINE
  5
1034
330
1EC6
100
AcDbEntity
  8
OUTLINE
100
AcDbLine
 10
1634.076394255876
 20
1844.890735559122
 30
0.0
 11
1589.076394255876
 21
1844.890735559122
 31
0.0
  0
LINE
  5
1035
330
1EC6
100
AcDbEntity
  8
DIM
100
AcDbLine
 10
1589.076394255877
 20
1889.390735559122
 30
0.0
 11
1589.076394255877
 21
1842.390735559122
 31
0.0
  0
CIRCLE
  5
1036
330
1EC6
100
AcDbEntity
  8
DIM
100
AcDbCircle
 10
1607.076394255877
 20
1865.890735559122
 30
0.0
 40
12.0
  0
CIRCLE
  5
1037
330
1EC6
100
AcDbEntity
  8
DIM
100
AcDbCircle
 10
1607.076394255877
 20
1865.890735559122
 30
0.0
 40
10.0
  0
TEXT
  5
1038
330
1EC6
100
AcDbEntity
  8
TEXT
 62
     7
100
AcDbText
 10
2067.873964433214
 20
1615.107649685021
 30
0.0
 40
50.0
  1
HWP58Y
  7
TITLE3
100
AcDbText
  0
LINE
  5
1051
330
1EC6
100
AcDbEntity
  8
DIM
100
AcDbLine
 10
2177.776394255877
 20
1794.060005678701
 30
0.0
 11
2196.82705849032
 21
1825.396060006912
 31
0.0
  0
LINE
  5
1052
330
1EC6
100
AcDbEntity
  8
DIM
100
AcDbLine
 10
2177.776394255877
 20
1794.060005678701
 30
0.0
 11
2158.725730021437
 21
1825.396060006912
 31
0.0
  0
LINE
  5
1053
330
1EC6
100
AcDbEntity
  8
DIM
100
AcDbLine
 10
2184.994403454565
 20
1862.05332847861
 30
0.0
 11
2170.558385057189
 21
1862.05332847861
 31
0.0
  0
LINE
  5
1054
330
1EC6
100
AcDbEntity
  8
DIM
100
AcDbLine
 10
2184.994403454565
 20
1825.396060006912
 30
0.0
 11
2184.994403454565
 21
1862.05332847861
 31
0.0
  0
LINE
  5
1055
330
1EC6
100
AcDbEntity
  8
DIM
100
AcDbLine
 10
2196.82705849032
 20
1825.396060006912
 30
0.0
 11
2184.994403454565
 21
1825.396060006912
 31
0.0
  0
LINE
  5
1056
330
1EC6
100
AcDbEntity
  8
DIM
100
AcDbLine
 10
2170.558385057189
 20
1825.396060006912
 30
0.0
 11
2170.558385057189
 21
1862.05332847861
 31
0.0
  0
LINE
  5
1057
330
1EC6
100
AcDbEntity
  8
DIM
100
AcDbLine
 10
2158.725730021437
 20
1825.396060006912
 30
0.0
 11
2170.558385057189
 21
1825.396060006912
 31
0.0
  0
LINE
  5
1058
330
1EC6
100
AcDbEntity
  8
DIM
100
AcDbLine
 10
2189.576394255877
 20
1394.90634538479
 30
0.0
 11
2208.62705849032
 21
1426.242399713001
 31
0.0
  0
LINE
  5
1059
330
1EC6
100
AcDbEntity
  8
DIM
100
AcDbLine
 10
2189.576394255877
 20
1394.90634538479
 30
0.0
 11
2170.525730021438
 21
1426.242399713001
 31
0.0
  0
LINE
  5
105A
330
1EC6
100
AcDbEntity
  8
DIM
100
AcDbLine
 10
2196.794403454565
 20
1462.899668184699
 30
0.0
 11
2182.358385057189
 21
1462.899668184699
 31
0.0
  0
LINE
  5
105B
330
1EC6
100
AcDbEntity
  8
DIM
100
AcDbLine
 10
2196.794403454565
 20
1426.242399713001
 30
0.0
 11
2196.794403454565
 21
1462.899668184699
 31
0.0
  0
LINE
  5
105C
330
1EC6
100
AcDbEntity
  8
DIM
100
AcDbLine
 10
2208.62705849032
 20
1426.242399713001
 30
0.0
 11
2196.794403454565
 21
1426.242399713001
 31
0.0
  0
LINE
  5
105D
330
1EC6
100
AcDbEntity
  8
DIM
100
AcDbLine
 10
2182.358385057189
 20
1426.242399713001
 30
0.0
 11
2182.358385057189
 21
1462.899668184699
 31
0.0
  0
LINE
  5
105E
330
1EC6
100
AcDbEntity
  8
DIM
100
AcDbLine
 10
2170.525730021438
 20
1426.242399713001
 30
0.0
 11
2182.358385057189
 21
1426.242399713001
 31
0.0
  0
LINE
  5
1079
330
1EC6
100
AcDbEntity
  8
DIM
100
AcDbLine
 10
1675.076394255876
 20
1147.65027609101
 30
0.0
 11
1940.076394255877
 21
1147.65027609101
 31
0.0
  0
LINE
  5
107A
330
1EC6
100
AcDbEntity
  8
DIM
100
AcDbLine
 10
2703.676394255879
 20
1147.65027609101
 30
0.0
 11
2438.676394255877
 21
1147.65027609101
 31
0.0
  0
SOLID
  5
107B
330
1EC6
100
AcDbEntity
  8
DIM
100
AcDbTrace
 10
1675.076394255876
 20
1152.65027609101
 30
0.0
 11
1675.076394255876
 21
1142.650276091011
 31
0.0
 12
1645.076394255877
 22
1147.65027609101
 32
0.0
 13
1645.076394255877
 23
1147.65027609101
 33
0.0
  0
SOLID
  5
107C
330
1EC6
100
AcDbEntity
  8
DIM
100
AcDbTrace
 10
2703.676394255879
 20
1152.65027609101
 30
0.0
 11
2703.676394255879
 21
1142.650276091011
 31
0.0
 12
2733.676394255879
 22
1147.65027609101
 32
0.0
 13
2733.676394255879
 23
1147.65027609101
 33
0.0
  0
LINE
  5
107E
330
1EC6
100
AcDbEntity
  8
DIM
100
AcDbLine
 10
1607.076394255877
 20
1373.490735559124
 30
0.0
 11
1607.076394255877
 21
1065.627356150924
 31
0.0
  0
LINE
  5
107F
330
1EC6
100
AcDbEntity
  8
DIM
100
AcDbLine
 10
2771.676394255877
 20
1373.490735559124
 30
0.0
 11
2771.676394255877
 21
1065.627356150924
 31
0.0
  0
LINE
  5
1080
330
1EC6
100
AcDbEntity
  8
DIM
100
AcDbLine
 10
2741.676394255877
 20
1085.627356150925
 30
0.0
 11
2616.87540552105
 21
1085.627356150925
 31
0.0
  0
LINE
  5
1081
330
1EC6
100
AcDbEntity
  8
DIM
100
AcDbLine
 10
1637.076394255878
 20
1085.627356150925
 30
0.0
 11
1781.875405521049
 21
1085.627356150925
 31
0.0
  0
SOLID
  5
1082
330
1EC6
100
AcDbEntity
  8
DIM
100
AcDbTrace
 10
2741.676394255877
 20
1090.627356150924
 30
0.0
 11
2741.676394255877
 21
1080.627356150924
 31
0.0
 12
2771.676394255877
 22
1085.627356150925
 32
0.0
 13
2771.676394255877
 23
1085.627356150925
 33
0.0
  0
SOLID
  5
1083
330
1EC6
100
AcDbEntity
  8
DIM
100
AcDbTrace
 10
1637.076394255878
 20
1090.627356150924
 30
0.0
 11
1637.076394255878
 21
1080.627356150924
 31
0.0
 12
1607.076394255877
 22
1085.627356150925
 32
0.0
 13
1607.076394255877
 23
1085.627356150925
 33
0.0
  0
LINE
  5
1085
330
1EC6
100
AcDbEntity
  8
DIM
100
AcDbLine
 10
1674.076394255877
 20
1966.69073555912
 30
0.0
 11
1674.076394255877
 21
1998.823848306443
 31
0.0
  0
LINE
  5
1086
330
1EC6
100
AcDbEntity
  8
DIM
100
AcDbLine
 10
1634.076394255876
 20
1904.690735559123
 30
0.0
 11
1634.076394255876
 21
1998.823848306443
 31
0.0
  0
LINE
  5
1087
330
1EC6
100
AcDbEntity
  8
DIM
100
AcDbLine
 10
1704.076394255877
 20
1978.823848306443
 30
0.0
 11
1734.076394255876
 21
1978.823848306443
 31
0.0
  0
LINE
  5
1088
330
1EC6
100
AcDbEntity
  8
DIM
100
AcDbLine
 10
1604.076394255877
 20
1978.823848306443
 30
0.0
 11
1574.076394255877
 21
1978.823848306443
 31
0.0
  0
SOLID
  5
1089
330
1EC6
100
AcDbEntity
  8
DIM
100
AcDbTrace
 10
1704.076394255877
 20
1983.823848306443
 30
0.0
 11
1704.076394255877
 21
1973.823848306443
 31
0.0
 12
1674.076394255877
 22
1978.823848306443
 32
0.0
 13
1674.076394255877
 23
1978.823848306443
 33
0.0
  0
SOLID
  5
108A
330
1EC6
100
AcDbEntity
  8
DIM
100
AcDbTrace
 10
1604.076394255877
 20
1983.823848306443
 30
0.0
 11
1604.076394255877
 21
1973.823848306443
 31
0.0
 12
1634.076394255876
 22
1978.823848306443
 32
0.0
 13
1634.076394255876
 23
1978.823848306443
 33
0.0
  0
LINE
  5
108C
330
1EC6
100
AcDbEntity
  8
DIM
100
AcDbLine
 10
1674.076394255877
 20
1956.690735559122
 30
0.0
 11
1674.076394255877
 21
1998.578120686029
 31
0.0
  0
LINE
  5
108D
330
1EC6
100
AcDbEntity
  8
DIM
100
AcDbLine
 10
2416.476394255876
 20
1956.690735559121
 30
0.0
 11
2416.476394255877
 21
1998.578120686029
 31
0.0
  0
LINE
  5
108E
330
1EC6
100
AcDbEntity
  8
DIM
100
AcDbLine
 10
1704.076394255877
 20
1978.578120686029
 30
0.0
 11
1985.276394255876
 21
1978.578120686029
 31
0.0
  0
LINE
  5
108F
330
1EC6
100
AcDbEntity
  8
DIM
100
AcDbLine
 10
2386.476394255877
 20
1978.578120686029
 30
0.0
 11
2105.276394255877
 21
1978.578120686029
 31
0.0
  0
SOLID
  5
1090
330
1EC6
100
AcDbEntity
  8
DIM
100
AcDbTrace
 10
1704.076394255877
 20
1983.578120686029
 30
0.0
 11
1704.076394255877
 21
1973.578120686029
 31
0.0
 12
1674.076394255877
 22
1978.578120686029
 32
0.0
 13
1674.076394255877
 23
1978.578120686029
 33
0.0
  0
SOLID
  5
1091
330
1EC6
100
AcDbEntity
  8
DIM
100
AcDbTrace
 10
2386.476394255877
 20
1983.578120686029
 30
0.0
 11
2386.476394255877
 21
1973.578120686029
 31
0.0
 12
2416.476394255877
 22
1978.578120686029
 32
0.0
 13
2416.476394255877
 23
1978.578120686029
 33
0.0
  0
LINE
  5
1093
330
1EC6
100
AcDbEntity
  8
DIM
100
AcDbLine
 10
1686.076394255877
 20
792.7830775023086
 30
0.0
 11
1686.076394255877
 21
879.6206068740231
 31
0.0
  0
LINE
  5
1094
330
1EC6
100
AcDbEntity
  8
DIM
100
AcDbLine
 10
1634.076394255876
 20
836.7830775023088
 30
0.0
 11
1634.076394255876
 21
879.6206068740231
 31
0.0
  0
LINE
  5
1095
330
1EC6
100
AcDbEntity
  8
DIM
100
AcDbLine
 10
1716.076394255876
 20
859.6206068740226
 30
0.0
 11
1746.076394255877
 21
859.6206068740226
 31
0.0
  0
LINE
  5
1096
330
1EC6
100
AcDbEntity
  8
DIM
100
AcDbLine
 10
1604.076394255877
 20
859.6206068740226
 30
0.0
 11
1574.076394255877
 21
859.6206068740226
 31
0.0
  0
SOLID
  5
1097
330
1EC6
100
AcDbEntity
  8
DIM
100
AcDbTrace
 10
1716.076394255876
 20
864.6206068740225
 30
0.0
 11
1716.076394255876
 21
854.6206068740231
 31
0.0
 12
1686.076394255877
 22
859.6206068740226
 32
0.0
 13
1686.076394255877
 23
859.6206068740226
 33
0.0
  0
SOLID
  5
1098
330
1EC6
100
AcDbEntity
  8
DIM
100
AcDbTrace
 10
1604.076394255877
 20
864.6206068740225
 30
0.0
 11
1604.076394255877
 21
854.6206068740231
 31
0.0
 12
1634.076394255876
 22
859.6206068740226
 32
0.0
 13
1634.076394255876
 23
859.6206068740226
 33
0.0
  0
LINE
  5
109A
330
1EC6
100
AcDbEntity
  8
DIM
100
AcDbLine
 10
1686.076394255877
 20
792.7830775023086
 30
0.0
 11
1686.076394255877
 21
879.5387797319161
 31
0.0
  0
LINE
  5
109B
330
1EC6
100
AcDbEntity
  8
DIM
100
AcDbLine
 10
2428.076394255877
 20
792.7830775023084
 30
0.0
 11
2428.076394255877
 21
879.5387797319161
 31
0.0
  0
LINE
  5
109C
330
1EC6
100
AcDbEntity
  8
DIM
100
AcDbLine
 10
1716.076394255876
 20
859.5387797319165
 30
0.0
 11
1997.076394255877
 21
859.5387797319165
 31
0.0
  0
LINE
  5
109D
330
1EC6
100
AcDbEntity
  8
DIM
100
AcDbLine
 10
2398.076394255877
 20
859.5387797319165
 30
0.0
 11
2117.076394255877
 21
859.5387797319165
 31
0.0
  0
SOLID
  5
109E
330
1EC6
100
AcDbEntity
  8
DIM
100
AcDbTrace
 10
1716.076394255876
 20
864.5387797319161
 30
0.0
 11
1716.076394255876
 21
854.5387797319161
 31
0.0
 12
1686.076394255877
 22
859.5387797319165
 32
0.0
 13
1686.076394255877
 23
859.5387797319165
 33
0.0
  0
SOLID
  5
109F
330
1EC6
100
AcDbEntity
  8
DIM
100
AcDbTrace
 10
2398.076394255877
 20
864.5387797319161
 30
0.0
 11
2398.076394255877
 21
854.5387797319161
 31
0.0
 12
2428.076394255877
 22
859.5387797319165
 32
0.0
 13
2428.076394255877
 23
859.5387797319165
 33
0.0
  0
LINE
  5
10A1
330
1EC6
100
AcDbEntity
  8
DIM
100
AcDbLine
 10
1634.076394255876
 20
836.7830775023088
 30
0.0
 11
1634.076394255876
 21
943.4454019475742
 31
0.0
  0
LINE
  5
10A2
330
1EC6
100
AcDbEntity
  8
DIM
100
AcDbLine
 10
2744.67639425588
 20
836.7830775023088
 30
0.0
 11
2744.67639425588
 21
943.4454019475742
 31
0.0
  0
LINE
  5
10A3
330
1EC6
100
AcDbEntity
  8
DIM
100
AcDbLine
 10
1664.076394255876
 20
923.4454019475741
 30
0.0
 11
2069.376394255877
 21
923.4454019475741
 31
0.0
  0
LINE
  5
10A4
330
1EC6
100
AcDbEntity
  8
DIM
100
AcDbLine
 10
2714.676394255879
 20
923.4454019475741
 30
0.0
 11
2309.376394255878
 21
923.4454019475741
 31
0.0
  0
SOLID
  5
10A5
330
1EC6
100
AcDbEntity
  8
DIM
100
AcDbTrace
 10
1664.076394255876
 20
928.4454019475743
 30
0.0
 11
1664.076394255876
 21
918.4454019475742
 31
0.0
 12
1634.076394255876
 22
923.4454019475741
 32
0.0
 13
1634.076394255876
 23
923.4454019475741
 33
0.0
  0
SOLID
  5
10A6
330
1EC6
100
AcDbEntity
  8
DIM
100
AcDbTrace
 10
2714.676394255879
 20
928.4454019475743
 30
0.0
 11
2714.676394255879
 21
918.4454019475742
 31
0.0
 12
2744.67639425588
 22
923.4454019475741
 32
0.0
 13
2744.67639425588
 23
923.4454019475741
 33
0.0
  0
LINE
  5
10A8
330
1EC6
100
AcDbEntity
  8
DIM
100
AcDbLine
 10
1614.076394255876
 20
816.7830775023086
 30
0.0
 11
1496.711091623167
 21
816.7830775023086
 31
0.0
  0
LINE
  5
10A9
330
1EC6
100
AcDbEntity
  8
DIM
100
AcDbLine
 10
1635.076394255877
 20
461.7830775023087
 30
0.0
 11
1496.711091623167
 21
461.7830775023087
 31
0.0
  0
LINE
  5
10AA
330
1EC6
100
AcDbEntity
  8
DIM
100
AcDbLine
 10
1516.711091623167
 20
786.7830775023086
 30
0.0
 11
1516.711091623167
 21
759.2830775023086
 31
0.0
  0
LINE
  5
10AB
330
1EC6
100
AcDbEntity
  8
DIM
100
AcDbLine
 10
1516.711091623167
 20
491.7830775023087
 30
0.0
 11
1516.711091623167
 21
524.2830775023088
 31
0.0
  0
SOLID
  5
10AC
330
1EC6
100
AcDbEntity
  8
DIM
100
AcDbTrace
 10
1511.711091623167
 20
786.7830775023086
 30
0.0
 11
1521.711091623167
 21
786.7830775023086
 31
0.0
 12
1516.711091623167
 22
816.7830775023086
 32
0.0
 13
1516.711091623167
 23
816.7830775023086
 33
0.0
  0
SOLID
  5
10AD
330
1EC6
100
AcDbEntity
  8
DIM
100
AcDbTrace
 10
1511.711091623167
 20
491.7830775023087
 30
0.0
 11
1521.711091623167
 21
491.7830775023087
 31
0.0
 12
1516.711091623167
 22
461.7830775023087
 32
0.0
 13
1516.711091623167
 23
461.7830775023087
 33
0.0
  0
LINE
  5
10AF
330
1EC6
100
AcDbEntity
  8
DIM
100
AcDbLine
 10
2764.676394255877
 20
816.7830775023086
 30
0.0
 11
2905.16551784755
 21
816.7830775023086
 31
0.0
  0
LINE
  5
10B0
330
1EC6
100
AcDbEntity
  8
DIM
100
AcDbLine
 10
2743.676394255877
 20
474.7830775023087
 30
0.0
 11
2905.16551784755
 21
474.7830775023087
 31
0.0
  0
LINE
  5
10B1
330
1EC6
100
AcDbEntity
  8
DIM
100
AcDbLine
 10
2885.16551784755
 20
786.7830775023086
 30
0.0
 11
2885.16551784755
 21
703.2830775023088
 31
0.0
  0
LINE
  5
10B2
330
1EC6
100
AcDbEntity
  8
DIM
100
AcDbLine
 10
2885.16551784755
 20
504.7830775023087
 30
0.0
 11
2885.16551784755
 21
588.2830775023087
 31
0.0
  0
SOLID
  5
10B3
330
1EC6
100
AcDbEntity
  8
DIM
100
AcDbTrace
 10
2880.165517847551
 20
786.7830775023086
 30
0.0
 11
2890.165517847551
 21
786.7830775023086
 31
0.0
 12
2885.16551784755
 22
816.7830775023086
 32
0.0
 13
2885.16551784755
 23
816.7830775023086
 33
0.0
  0
SOLID
  5
10B4
330
1EC6
100
AcDbEntity
  8
DIM
100
AcDbTrace
 10
2880.165517847551
 20
504.7830775023087
 30
0.0
 11
2890.165517847551
 21
504.7830775023087
 31
0.0
 12
2885.16551784755
 22
474.7830775023087
 32
0.0
 13
2885.16551784755
 23
474.7830775023087
 33
0.0
  0
LINE
  5
10B6
330
1EC6
100
AcDbEntity
  8
DIM
100
AcDbLine
 10
2809.676394255877
 20
705.7830775023088
 30
0.0
 11
2845.305335407327
 21
705.7830775023088
 31
0.0
  0
LINE
  5
10B7
330
1EC6
100
AcDbEntity
  8
DIM
100
AcDbLine
 10
2764.676394255877
 20
816.7830775023086
 30
0.0
 11
2845.305335407327
 21
816.7830775023086
 31
0.0
  0
LINE
  5
10B8
330
1EC6
100
AcDbEntity
  8
DIM
100
AcDbLine
 10
2825.305335407327
 20
735.7830775023086
 30
0.0
 11
2825.305335407327
 21
786.7830775023086
 31
0.0
  0
LINE
  5
10B9
330
1EC6
100
AcDbEntity
  8
DIM
100
AcDbLine
 10
2825.305335407327
 20
675.7830775023087
 30
0.0
 11
2825.305335407327
 21
705.7830775023088
 31
0.0
  0
SOLID
  5
10BA
330
1EC6
100
AcDbEntity
  8
DIM
100
AcDbTrace
 10
2820.305335407327
 20
735.7830775023086
 30
0.0
 11
2830.305335407328
 21
735.7830775023086
 31
0.0
 12
2825.305335407327
 22
705.7830775023088
 32
0.0
 13
2825.305335407327
 23
705.7830775023088
 33
0.0
  0
SOLID
  5
10BB
330
1EC6
100
AcDbEntity
  8
DIM
100
AcDbTrace
 10
2820.305335407327
 20
786.7830775023086
 30
0.0
 11
2830.305335407328
 21
786.7830775023086
 31
0.0
 12
2825.305335407327
 22
816.7830775023086
 32
0.0
 13
2825.305335407327
 23
816.7830775023086
 33
0.0
  0
LINE
  5
10FF
330
1EC6
100
AcDbEntity
  8
DIM
100
AcDbLine
 10
3060.990182386909
 20
772.7830775023086
 30
0.0
 11
3013.697266222858
 21
772.7830775023086
 31
0.0
  0
LINE
  5
1100
330
1EC6
100
AcDbEntity
  8
DIM
100
AcDbLine
 10
3182.11018238691
 20
816.7830775023086
 30
0.0
 11
3013.697266222858
 21
816.7830775023086
 31
0.0
  0
LINE
  5
1101
330
1EC6
100
AcDbEntity
  8
DIM
100
AcDbLine
 10
3033.697266222858
 20
742.7830775023086
 30
0.0
 11
3033.697266222858
 21
712.7830775023086
 31
0.0
  0
LINE
  5
1102
330
1EC6
100
AcDbEntity
  8
DIM
100
AcDbLine
 10
3033.697266222858
 20
846.7830775023086
 30
0.0
 11
3033.697266222858
 21
876.7830775023085
 31
0.0
  0
SOLID
  5
1103
330
1EC6
100
AcDbEntity
  8
DIM
100
AcDbTrace
 10
3028.697266222858
 20
742.7830775023086
 30
0.0
 11
3038.697266222858
 21
742.7830775023086
 31
0.0
 12
3033.697266222858
 22
772.7830775023086
 32
0.0
 13
3033.697266222858
 23
772.7830775023086
 33
0.0
  0
SOLID
  5
1104
330
1EC6
100
AcDbEntity
  8
DIM
100
AcDbTrace
 10
3028.697266222858
 20
846.7830775023086
 30
0.0
 11
3038.697266222858
 21
846.7830775023086
 31
0.0
 12
3033.697266222858
 22
816.7830775023086
 32
0.0
 13
3033.697266222858
 23
816.7830775023086
 33
0.0
  0
LINE
  5
1106
330
1EC6
100
AcDbEntity
  8
DIM
100
AcDbLine
 10
3060.990182386909
 20
772.7830775023086
 30
0.0
 11
3013.681924010312
 21
772.7830775023086
 31
0.0
  0
LINE
  5
1107
330
1EC6
100
AcDbEntity
  8
DIM
100
AcDbLine
 10
3060.990182386909
 20
515.7830775023088
 30
0.0
 11
3013.681924010312
 21
515.7830775023088
 31
0.0
  0
LINE
  5
1108
330
1EC6
100
AcDbEntity
  8
DIM
100
AcDbLine
 10
3033.68192401031
 20
742.7830775023086
 30
0.0
 11
3033.68192401031
 21
704.2830775023088
 31
0.0
  0
LINE
  5
1109
330
1EC6
100
AcDbEntity
  8
DIM
100
AcDbLine
 10
3033.68192401031
 20
545.7830775023088
 30
0.0
 11
3033.68192401031
 21
584.2830775023087
 31
0.0
  0
SOLID
  5
110A
330
1EC6
100
AcDbEntity
  8
DIM
100
AcDbTrace
 10
3028.681924010311
 20
742.7830775023086
 30
0.0
 11
3038.681924010312
 21
742.7830775023086
 31
0.0
 12
3033.68192401031
 22
772.7830775023086
 32
0.0
 13
3033.68192401031
 23
772.7830775023086
 33
0.0
  0
SOLID
  5
110B
330
1EC6
100
AcDbEntity
  8
DIM
100
AcDbTrace
 10
3028.681924010311
 20
545.7830775023088
 30
0.0
 11
3038.681924010312
 21
545.7830775023088
 31
0.0
 12
3033.68192401031
 22
515.7830775023088
 32
0.0
 13
3033.68192401031
 23
515.7830775023088
 33
0.0
  0
LINE
  5
110D
330
1EC6
100
AcDbEntity
  8
DIM
100
AcDbLine
 10
3804.910182386911
 20
782.7830775023086
 30
0.0
 11
3842.823572455177
 21
782.7830775023086
 31
0.0
  0
LINE
  5
110E
330
1EC6
100
AcDbEntity
  8
DIM
100
AcDbLine
 10
3773.71018238691
 20
816.7830775023086
 30
0.0
 11
3842.823572455177
 21
816.7830775023086
 31
0.0
  0
LINE
  5
110F
330
1EC6
100
AcDbEntity
  8
DIM
100
AcDbLine
 10
3822.823572455176
 20
752.7830775023086
 30
0.0
 11
3822.823572455176
 21
722.7830775023086
 31
0.0
  0
LINE
  5
1110
330
1EC6
100
AcDbEntity
  8
DIM
100
AcDbLine
 10
3822.823572455176
 20
846.7830775023086
 30
0.0
 11
3822.823572455176
 21
876.7830775023085
 31
0.0
  0
SOLID
  5
1111
330
1EC6
100
AcDbEntity
  8
DIM
100
AcDbTrace
 10
3817.823572455177
 20
752.7830775023086
 30
0.0
 11
3827.823572455177
 21
752.7830775023086
 31
0.0
 12
3822.823572455176
 22
782.7830775023086
 32
0.0
 13
3822.823572455176
 23
782.7830775023086
 33
0.0
  0
SOLID
  5
1112
330
1EC6
100
AcDbEntity
  8
DIM
100
AcDbTrace
 10
3817.823572455177
 20
846.7830775023086
 30
0.0
 11
3827.823572455177
 21
846.7830775023086
 31
0.0
 12
3822.823572455176
 22
816.7830775023086
 32
0.0
 13
3822.823572455176
 23
816.7830775023086
 33
0.0
  0
LINE
  5
1114
330
1EC6
100
AcDbEntity
  8
DIM
100
AcDbLine
 10
3804.910182386911
 20
782.7830775023086
 30
0.0
 11
3842.823572455177
 21
782.7830775023086
 31
0.0
  0
LINE
  5
1115
330
1EC6
100
AcDbEntity
  8
DIM
100
AcDbLine
 10
3804.910182386924
 20
526.1830775023087
 30
0.0
 11
3842.823572455177
 21
526.1830775023086
 31
0.0
  0
LINE
  5
1116
330
1EC6
100
AcDbEntity
  8
DIM
100
AcDbLine
 10
3822.823572455176
 20
752.7830775023086
 30
0.0
 11
3822.823572455176
 21
714.4830775023088
 31
0.0
  0
LINE
  5
1117
330
1EC6
100
AcDbEntity
  8
DIM
100
AcDbLine
 10
3822.823572455176
 20
556.1830775023087
 30
0.0
 11
3822.823572455176
 21
594.4830775023087
 31
0.0
  0
SOLID
  5
1118
330
1EC6
100
AcDbEntity
  8
DIM
100
AcDbTrace
 10
3817.823572455177
 20
752.7830775023086
 30
0.0
 11
3827.823572455177
 21
752.7830775023086
 31
0.0
 12
3822.823572455176
 22
782.7830775023086
 32
0.0
 13
3822.823572455176
 23
782.7830775023086
 33
0.0
  0
SOLID
  5
1119
330
1EC6
100
AcDbEntity
  8
DIM
100
AcDbTrace
 10
3817.823572455177
 20
556.1830775023087
 30
0.0
 11
3827.823572455177
 21
556.1830775023087
 31
0.0
 12
3822.823572455176
 22
526.1830775023087
 32
0.0
 13
3822.823572455176
 23
526.1830775023087
 33
0.0
  0
LINE
  5
11BB
330
1EC6
100
AcDbEntity
  8
DIM
100
AcDbLine
 10
2791.676394255877
 20
1865.890735559122
 30
0.0
 11
2959.461792250693
 21
1865.890735559122
 31
0.0
  0
LINE
  5
11BC
330
1EC6
100
AcDbEntity
  8
DIM
100
AcDbLine
 10
2791.676394255877
 20
1393.490735559124
 30
0.0
 11
2959.461792250693
 21
1393.490735559124
 31
0.0
  0
LINE
  5
11BD
330
1EC6
100
AcDbEntity
  8
DIM
100
AcDbLine
 10
2939.461792250693
 20
1835.890735559122
 30
0.0
 11
2939.461792250693
 21
1764.690735559122
 31
0.0
  0
LINE
  5
11BE
330
1EC6
100
AcDbEntity
  8
DIM
100
AcDbLine
 10
2939.461792250693
 20
1423.490735559124
 30
0.0
 11
2939.461792250693
 21
1494.690735559123
 31
0.0
  0
SOLID
  5
11BF
330
1EC6
100
AcDbEntity
  8
DIM
100
AcDbTrace
 10
2934.461792250693
 20
1835.890735559122
 30
0.0
 11
2944.461792250693
 21
1835.890735559122
 31
0.0
 12
2939.461792250693
 22
1865.890735559122
 32
0.0
 13
2939.461792250693
 23
1865.890735559122
 33
0.0
  0
SOLID
  5
11C0
330
1EC6
100
AcDbEntity
  8
DIM
100
AcDbTrace
 10
2934.461792250693
 20
1423.490735559124
 30
0.0
 11
2944.461792250693
 21
1423.490735559124
 31
0.0
 12
2939.461792250693
 22
1393.490735559124
 32
0.0
 13
2939.461792250693
 23
1393.490735559124
 33
0.0
  0
LINE
  5
11C2
330
1EC6
100
AcDbEntity
  8
DIM
100
AcDbLine
 10
2759.126394255877
 20
1849.690735559122
 30
0.0
 11
2887.596627950758
 21
1849.690735559122
 31
0.0
  0
LINE
  5
11C3
330
1EC6
100
AcDbEntity
  8
DIM
100
AcDbLine
 10
2759.126394255877
 20
1409.690735559124
 30
0.0
 11
2887.596627950758
 21
1409.690735559124
 31
0.0
  0
LINE
  5
11C4
330
1EC6
100
AcDbEntity
  8
DIM
100
AcDbLine
 10
2867.596627950758
 20
1819.690735559123
 30
0.0
 11
2867.596627950758
 21
1762.190735559124
 31
0.0
  0
LINE
  5
11C5
330
1EC6
100
AcDbEntity
  8
DIM
100
AcDbLine
 10
2867.596627950758
 20
1439.690735559124
 30
0.0
 11
2867.596627950758
 21
1497.190735559122
 31
0.0
  0
SOLID
  5
11C6
330
1EC6
100
AcDbEntity
  8
DIM
100
AcDbTrace
 10
2862.596627950758
 20
1819.690735559123
 30
0.0
 11
2872.596627950758
 21
1819.690735559123
 31
0.0
 12
2867.596627950758
 22
1849.690735559122
 32
0.0
 13
2867.596627950758
 23
1849.690735559122
 33
0.0
  0
SOLID
  5
11C7
330
1EC6
100
AcDbEntity
  8
DIM
100
AcDbTrace
 10
2862.596627950758
 20
1439.690735559124
 30
0.0
 11
2872.596627950758
 21
1439.690735559124
 31
0.0
 12
2867.596627950758
 22
1409.690735559124
 32
0.0
 13
2867.596627950758
 23
1409.690735559124
 33
0.0
  0
CIRCLE
  5
11CD
330
1EC6
100
AcDbEntity
  8
DIM
100
AcDbCircle
 10
3291.110182386908
 20
760.7830775023086
 30
0.0
 40
10.25
  0
CIRCLE
  5
11CE
330
1EC6
100
AcDbEntity
  8
DIM
100
AcDbCircle
 10
3291.110182386908
 20
685.7830775023087
 30
0.0
 40
10.25
  0
LINE
  5
11CF
330
1EC6
100
AcDbEntity
  8
DIM
100
AcDbLine
 10
3202.11018238691
 20
836.7830775023088
 30
0.0
 11
3202.11018238691
 21
898.8776756258937
 31
0.0
  0
LINE
  5
11D0
330
1EC6
100
AcDbEntity
  8
DIM
100
AcDbLine
 10
3291.110182386908
 20
780.7830775023086
 30
0.0
 11
3291.110182386908
 21
898.8776756258937
 31
0.0
  0
LINE
  5
11D1
330
1EC6
100
AcDbEntity
  8
DIM
100
AcDbLine
 10
3232.11018238691
 20
878.8776756258938
 30
0.0
 11
3261.110182386909
 21
878.8776756258938
 31
0.0
  0
LINE
  5
11D2
330
1EC6
100
AcDbEntity
  8
DIM
100
AcDbLine
 10
3291.110182386908
 20
878.8776756258938
 30
0.0
 11
3321.11018238691
 21
878.8776756258938
 31
0.0
  0
SOLID
  5
11D3
330
1EC6
100
AcDbEntity
  8
DIM
100
AcDbTrace
 10
3232.11018238691
 20
883.8776756258937
 30
0.0
 11
3232.11018238691
 21
873.8776756258937
 31
0.0
 12
3202.11018238691
 22
878.8776756258938
 32
0.0
 13
3202.11018238691
 23
878.8776756258938
 33
0.0
  0
SOLID
  5
11D4
330
1EC6
100
AcDbEntity
  8
DIM
100
AcDbTrace
 10
3261.110182386909
 20
883.8776756258937
 30
0.0
 11
3261.110182386909
 21
873.8776756258937
 31
0.0
 12
3291.110182386908
 22
878.8776756258938
 32
0.0
 13
3291.110182386908
 23
878.8776756258938
 33
0.0
  0
LINE
  5
11D6
330
1EC6
100
AcDbEntity
  8
DIM
100
AcDbLine
 10
3311.110182386909
 20
760.7830775023086
 30
0.0
 11
3381.446258287652
 21
760.7830775023086
 31
0.0
  0
LINE
  5
11D7
330
1EC6
100
AcDbEntity
  8
DIM
100
AcDbLine
 10
3311.110182386909
 20
685.7830775023087
 30
0.0
 11
3381.446258287652
 21
685.7830775023086
 31
0.0
  0
LINE
  5
11DE
330
1EC6
100
AcDbEntity
  8
DIM
100
AcDbLine
 10
3347.200138462834
 20
685.7830775023087
 30
0.0
 11
3347.200138462834
 21
816.7830775023086
 31
0.0
  0
LINE
  5
11E5
330
1EC6
100
AcDbEntity
  8
DIM
100
AcDbLine
 10
3342.012099319477
 20
811.5950383589529
 30
0.0
 11
3347.200138462834
 21
816.7830775023086
 31
0.0
  0
LINE
  5
11E6
330
1EC6
100
AcDbEntity
  8
DIM
100
AcDbLine
 10
3347.200138462834
 20
816.7830775023086
 30
0.0
 11
3352.388177606188
 21
811.5950383589526
 31
0.0
  0
LINE
  5
11E7
330
1EC6
100
AcDbEntity
  8
DIM
100
AcDbLine
 10
3342.012099319477
 20
755.5950383589529
 30
0.0
 11
3352.388177606188
 21
765.9711166456643
 31
0.0
  0
LINE
  5
11E8
330
1EC6
100
AcDbEntity
  8
DIM
100
AcDbLine
 10
3342.012099319477
 20
765.9711166456641
 30
0.0
 11
3352.388177606188
 21
755.5950383589529
 31
0.0
  0
LINE
  5
11E9
330
1EC6
100
AcDbEntity
  8
DIM
100
AcDbLine
 10
3347.200138462834
 20
685.7830775023089
 30
0.0
 11
3352.388177606188
 21
690.9711166456643
 31
0.0
  0
LINE
  5
11EA
330
1EC6
100
AcDbEntity
  8
DIM
100
AcDbLine
 10
3342.012099319477
 20
690.9711166456641
 30
0.0
 11
3347.200138462832
 21
685.7830775023087
 31
0.0
  0
LINE
  5
1464
330
1EC6
100
AcDbEntity
  8
DIM
100
AcDbLine
 10
2791.676394255877
 20
1865.890735559122
 30
0.0
 11
2959.230765222468
 21
1865.890735559122
 31
0.0
  0
LINE
  5
1466
330
1EC6
100
AcDbEntity
  8
DIM
100
AcDbLine
 10
2939.230765222468
 20
1835.890735559122
 30
0.0
 11
2939.230765222468
 21
1805.890735559122
 31
0.0
  0
SOLID
  5
1468
330
1EC6
100
AcDbEntity
  8
DIM
100
AcDbTrace
 10
2934.230765222468
 20
1835.890735559122
 30
0.0
 11
2944.230765222468
 21
1835.890735559122
 31
0.0
 12
2939.230765222468
 22
1865.890735559122
 32
0.0
 13
2939.230765222468
 23
1865.890735559122
 33
0.0
  0
LINE
  5
146B
330
1EC6
100
AcDbEntity
  8
DIM
100
AcDbLine
 10
2759.126394255877
 20
1849.690735559122
 30
0.0
 11
2887.598134009931
 21
1849.690735559122
 31
0.0
  0
LINE
  5
146D
330
1EC6
100
AcDbEntity
  8
DIM
100
AcDbLine
 10
2867.598134009931
 20
1819.690735559123
 30
0.0
 11
2867.598134009931
 21
1789.690735559123
 31
0.0
  0
SOLID
  5
146F
330
1EC6
100
AcDbEntity
  8
DIM
100
AcDbTrace
 10
2862.598134009931
 20
1819.690735559123
 30
0.0
 11
2872.598134009931
 21
1819.690735559123
 31
0.0
 12
2867.598134009931
 22
1849.690735559122
 32
0.0
 13
2867.598134009931
 23
1849.690735559122
 33
0.0
  0
TEXT
  5
1775
330
1EC6
100
AcDbEntity
  8
DIM
100
AcDbText
 10
3359.342764116722
 20
772.1885034816822
 30
0.0
 40
30.0
  1
56
100
AcDbText
  0
TEXT
  5
1776
330
1EC6
100
AcDbEntity
  8
DIM
100
AcDbText
 10
3359.342764116722
 20
710.6293678620812
 30
0.0
 40
30.0
  1
75
100
AcDbText
  0
TEXT
  5
1777
330
1EC6
100
AcDbEntity
  8
DIM
100
AcDbText
 10
3341.110182386908
 20
863.8776756258938
 30
0.0
 40
30.0
  1
89
100
AcDbText
  0
TEXT
  5
1778
330
1EC6
100
AcDbEntity
  8
DIM
100
AcDbText
 10
2882.596627950757
 20
1517.190735559124
 30
0.0
 40
30.0
  1
440 CTRS
 50
90.0
100
AcDbText
  0
TEXT
  5
1779
330
1EC6
100
AcDbEntity
  8
DIM
100
AcDbText
 10
2954.461792250693
 20
1514.690735559124
 30
0.0
 40
30.0
  1
472 CTRS
 50
90.0
100
AcDbText
  0
TEXT
  5
177A
330
1EC6
100
AcDbEntity
  8
DIM
100
AcDbText
 10
3837.823572455176
 20
614.4830775023092
 30
0.0
 40
30.0
  1
257
 50
90.0
100
AcDbText
  0
TEXT
  5
177B
330
1EC6
100
AcDbEntity
  8
DIM
100
AcDbText
 10
3837.823572455176
 20
896.7830775023093
 30
0.0
 40
30.0
  1
34
 50
90.0
100
AcDbText
  0
TEXT
  5
177C
330
1EC6
100
AcDbEntity
  8
DIM
100
AcDbText
 10
3048.681924010312
 20
604.2830775023093
 30
0.0
 40
30.0
  1
257
 50
90.0
100
AcDbText
  0
TEXT
  5
177D
330
1EC6
100
AcDbEntity
  8
DIM
100
AcDbText
 10
3048.697266222859
 20
896.783077502309
 30
0.0
 40
30.0
  1
44
 50
90.0
100
AcDbText
  0
TEXT
  5
177E
330
1EC6
100
AcDbEntity
  8
DIM
100
AcDbText
 10
2840.305335407327
 20
620.3290225423566
 30
0.0
 40
30.0
  1
111
 50
90.0
100
AcDbText
  0
TEXT
  5
177F
330
1EC6
100
AcDbEntity
  8
DIM
100
AcDbText
 10
2900.16551784755
 20
608.2830775023093
 30
0.0
 40
30.0
  1
342
 50
90.0
100
AcDbText
  0
TEXT
  5
1780
330
1EC6
100
AcDbEntity
  8
DIM
100
AcDbText
 10
1529.664319583869
 20
544.2830775023089
 30
0.0
 40
30.0
  1
355 O/A
 50
90.0
100
AcDbText
  0
TEXT
  5
1781
330
1EC6
100
AcDbEntity
  8
DIM
100
AcDbText
 10
2089.376394255877
 20
908.4454019475741
 30
0.0
 40
30.0
  1
1111 O/A
100
AcDbText
  0
TEXT
  5
1782
330
1EC6
100
AcDbEntity
  8
DIM
100
AcDbText
 10
2017.076394255877
 20
844.5387797319163
 30
0.0
 40
30.0
  1
742
100
AcDbText
  0
TEXT
  5
1783
330
1EC6
100
AcDbEntity
  8
DIM
100
AcDbText
 10
1502.02962221658
 20
844.6206068740226
 30
0.0
 40
30.0
  1
52
100
AcDbText
  0
TEXT
  5
1784
330
1EC6
100
AcDbEntity
  8
DIM
100
AcDbText
 10
2005.276394255877
 20
1963.578120686029
 30
0.0
 40
30.0
  1
742
100
AcDbText
  0
TEXT
  5
1785
330
1EC6
100
AcDbEntity
  8
DIM
100
AcDbText
 10
1513.394593252177
 20
1963.823848306443
 30
0.0
 40
30.0
  1
40
100
AcDbText
  0
TEXT
  5
1786
330
1EC6
100
AcDbEntity
  8
DIM
100
AcDbText
 10
1789.376394255876
 20
1070.627356150924
 30
0.0
 40
30.0
  1
1165 OPTIONAL SPRING MTG CTRS
100
AcDbText
  0
TEXT
  5
1787
330
1EC6
100
AcDbEntity
  8
DIM
100
AcDbText
 10
1959.376394255876
 20
1132.650276091011
 30
0.0
 40
30.0
  1
1089 HANGING CTRS
100
AcDbText
  0
LINE
  5
17A7
330
1EC6
100
AcDbEntity
  8
DIM
100
AcDbLine
 10
2789.676394255878
 20
717.7830775023088
 30
0.0
 11
2744.67639425588
 21
717.7830775023088
 31
0.0
  0
LINE
  5
17A8
330
1EC6
100
AcDbEntity
  8
DIM
100
AcDbLine
 10
2789.676394255878
 20
705.7830775023088
 30
0.0
 11
2744.67639425588
 21
705.7830775023088
 31
0.0
  0
LINE
  5
17AF
330
1EC6
100
AcDbEntity
  8
DIM
100
AcDbLine
 10
3080.990182386909
 20
772.7830775023088
 30
0.0
 11
3103.11018238691
 21
772.7830775023087
 31
0.0
  0
LINE
  5
17B2
330
1EC6
100
AcDbEntity
  8
OUTLINE
100
AcDbLine
 10
3784.910182386911
 20
782.7830775023086
 30
0.0
 11
3732.910182386909
 21
782.7830775023086
 31
0.0
  0
LINE
  5
1A26
330
1EC6
100
AcDbEntity
  8
DIM
100
AcDbLine
 10
2764.676394255877
 20
1903.290735559123
 30
0.0
 11
2959.230765222468
 21
1903.290735559123
 31
0.0
  0
LINE
  5
1A27
330
1EC6
100
AcDbEntity
  8
DIM
100
AcDbLine
 10
2939.230765222468
 20
1933.290735559123
 30
0.0
 11
2939.230765222468
 21
1963.290735559123
 31
0.0
  0
SOLID
  5
1A28
330
1EC6
100
AcDbEntity
  8
DIM
100
AcDbTrace
 10
2934.230765222468
 20
1933.290735559123
 30
0.0
 11
2944.230765222468
 21
1933.290735559123
 31
0.0
 12
2939.230765222468
 22
1903.290735559123
 32
0.0
 13
2939.230765222468
 23
1903.290735559123
 33
0.0
  0
TEXT
  5
1A29
330
1EC6
100
AcDbEntity
  8
DIM
100
AcDbText
 10
2954.230765222468
 20
1983.290735559123
 30
0.0
 40
30.0
  1
37
 50
90.0
100
AcDbText
  0
LINE
  5
1A2A
330
1EC6
100
AcDbEntity
  8
DIM
100
AcDbLine
 10
2764.676394255877
 20
1903.290735559123
 30
0.0
 11
2887.598134009931
 21
1903.290735559123
 31
0.0
  0
LINE
  5
1A2B
330
1EC6
100
AcDbEntity
  8
DIM
100
AcDbLine
 10
2867.598134009931
 20
1933.290735559123
 30
0.0
 11
2867.598134009931
 21
1963.290735559123
 31
0.0
  0
SOLID
  5
1A2C
330
1EC6
100
AcDbEntity
  8
DIM
100
AcDbTrace
 10
2862.598134009931
 20
1933.290735559123
 30
0.0
 11
2872.598134009931
 21
1933.290735559123
 31
0.0
 12
2867.598134009931
 22
1903.290735559123
 32
0.0
 13
2867.598134009931
 23
1903.290735559123
 33
0.0
  0
TEXT
  5
1A2D
330
1EC6
100
AcDbEntity
  8
DIM
100
AcDbText
 10
2882.598134009931
 20
1983.290735559123
 30
0.0
 40
30.0
  1
54
 50
90.0
100
AcDbText
  0
LINE
  5
1B5D
330
1EC6
100
AcDbEntity
  8
DIM
100
AcDbLine
 10
1645.076394255877
 20
1384.440735559124
 30
0.0
 11
1645.076394255877
 21
1127.65027609101
 31
0.0
  0
LINE
  5
1B60
330
1EC6
100
AcDbEntity
  8
DIM
100
AcDbLine
 10
2733.676394255879
 20
1358.890735559123
 30
0.0
 11
2733.676394255879
 21
1254.890735559123
 31
0.0
  0
LINE
  5
1B61
330
1EC6
100
AcDbEntity
  8
OUTLINE
100
AcDbLine
 10
2733.676394255879
 20
821.7830775023086
 30
0.0
 11
2733.676394255879
 21
811.7830775023088
 31
0.0
  0
LINE
  5
1B62
330
1EC6
100
AcDbEntity
  8
OUTLINE
100
AcDbLine
 10
1645.076394255877
 20
821.7830775023086
 30
0.0
 11
1645.076394255877
 21
811.7830775023088
 31
0.0
  0
LINE
  5
1FCE
330
1EC6
100
AcDbEntity
  8
DIM
100
AcDbLine
 10
1654.076394255877
 20
1936.690735559121
 30
0.0
 11
1496.698602351978
 21
1936.690735559121
 31
0.0
  0
LINE
  5
1FD0
330
1EC6
100
AcDbEntity
  8
DIM
100
AcDbLine
 10
1516.698602351979
 20
1906.690735559121
 30
0.0
 11
1516.698602351979
 21
1718.230735559122
 31
0.0
  0
LINE
  5
1FD1
330
1EC6
100
AcDbEntity
  8
DIM
100
AcDbLine
 10
1516.698602351978
 20
1232.770735559124
 30
0.0
 11
1516.698602351978
 21
1478.230735559122
 31
0.0
  0
SOLID
  5
1FD2
330
1EC6
100
AcDbEntity
  8
DIM
100
AcDbTrace
 10
1511.698602351979
 20
1906.690735559121
 30
0.0
 11
1521.698602351978
 21
1906.690735559121
 31
0.0
 12
1516.698602351979
 22
1936.690735559121
 32
0.0
 13
1516.698602351979
 23
1936.690735559121
 33
0.0
  0
SOLID
  5
1FD3
330
1EC6
100
AcDbEntity
  8
DIM
100
AcDbTrace
 10
1511.698602351978
 20
1262.770735559123
 30
0.0
 11
1521.698602351978
 21
1262.770735559123
 31
0.0
 12
1516.698602351978
 22
1232.770735559123
 32
0.0
 13
1516.698602351978
 23
1232.770735559123
 33
0.0
  0
TEXT
  5
1FD4
330
1EC6
100
AcDbEntity
  8
DIM
100
AcDbText
 10
1529.651830312681
 20
1498.230735559123
 30
0.0
 40
30.0
  1
704 O/A
 50
90.0
100
AcDbText
  0
LINE
  5
1FDE
330
1EC6
100
AcDbEntity
  8
OUTLINE
100
AcDbLine
 10
2744.67639425588
 20
804.7830775023086
 30
0.0
 11
2465.67639425588
 21
804.7830775023086
 31
0.0
  0
LINE
  5
1FE2
330
1EC6
100
AcDbEntity
  8
OUTLINE
100
AcDbLine
 10
2465.67639425588
 20
804.7830775023086
 30
0.0
 11
2465.67639425588
 21
506.7830775023086
 31
0.0
  0
LINE
  5
1FE3
330
1EC6
100
AcDbEntity
  8
OUTLINE
100
AcDbLine
 10
2744.67639425588
 20
506.7830775023086
 30
0.0
 11
2465.67639425588
 21
506.7830775023086
 31
0.0
  0
LINE
  5
1FE4
330
1EC6
100
AcDbEntity
  8
DIM
100
AcDbLine
 10
2744.67639425588
 20
804.7830775023086
 30
0.0
 11
2744.67639425588
 21
506.7830775023086
 31
0.0
  0
LINE
  5
1FE5
330
1EC6
100
AcDbEntity
  8
OUTLINE
100
AcDbLine
 10
2639.67639425588
 20
699.7830775023085
 30
0.0
 11
2556.67639425588
 21
699.7830775023086
 31
0.0
  0
LINE
  5
1FE6
330
1EC6
100
AcDbEntity
  8
DIM
100
AcDbLine
 10
2639.67639425588
 20
699.7830775023086
 30
0.0
 11
2639.67639425588
 21
539.7830775023086
 31
0.0
  0
LINE
  5
1FE7
330
1EC6
100
AcDbEntity
  8
DIM
100
AcDbLine
 10
2556.67639425588
 20
699.7830775023086
 30
0.0
 11
2556.67639425588
 21
539.7830775023086
 31
0.0
  0
LINE
  5
1FE9
330
1EC6
100
AcDbEntity
  8
OUTLINE
100
AcDbLine
 10
2639.67639425588
 20
539.7830775023086
 30
0.0
 11
2556.67639425588
 21
539.7830775023086
 31
0.0
  0
LINE
  5
1FEA
330
1EC6
100
AcDbEntity
  8
OUTLINE
100
AcDbLine
 10
2465.67639425588
 20
1353.890735559123
 30
0.0
 11
2465.67639425588
 21
1254.890735559123
 31
0.0
  0
LINE
  5
1FEB
330
1EC6
100
AcDbEntity
  8
DIM
100
AcDbLine
 10
2744.67639425588
 20
1370.273348758325
 30
0.0
 11
2744.67639425588
 21
1072.273348758325
 31
0.0
  0
LINE
  5
1FEC
330
1EC6
100
AcDbEntity
  8
DIM
100
AcDbLine
 10
2733.676394255879
 20
1358.890735559123
 30
0.0
 11
2723.676394255877
 21
1358.890735559123
 31
0.0
  0
LINE
  5
1FED
330
1EC6
100
AcDbEntity
  8
DIM
100
AcDbLine
 10
2733.676394255879
 20
1254.890735559123
 30
0.0
 11
2465.67639425588
 21
1254.890735559123
 31
0.0
  0
LINE
  5
1FEE
330
1EC6
100
AcDbEntity
  8
DIM
100
AcDbLine
 10
2639.67639425588
 20
1254.890735559123
 30
0.0
 11
2639.67639425588
 21
1232.770735559125
 31
0.0
  0
LINE
  5
1FEF
330
1EC6
100
AcDbEntity
  8
DIM
100
AcDbLine
 10
2556.67639425588
 20
1254.890735559123
 30
0.0
 11
2556.67639425588
 21
1232.770735559125
 31
0.0
  0
LINE
  5
1FF0
330
1EC6
100
AcDbEntity
  8
DIM
100
AcDbLine
 10
2556.67639425588
 20
1232.770735559125
 30
0.0
 11
2639.676394255879
 21
1232.770735559125
 31
0.0
  0
LINE
  5
1FF1
330
1EC6
100
AcDbEntity
  8
DIM
100
AcDbLine
 10
1666.076394255876
 20
1232.770735559124
 30
0.0
 11
1496.698602351978
 21
1232.770735559124
 31
0.0
  0
LINE
  5
202F
330
1EC6
100
AcDbEntity
  8
OUTLINE
100
AcDbLine
 10
3222.910182386911
 20
804.7830775023086
 30
0.0
 11
3103.11018238691
 21
804.7830775023086
 31
0.0
  0
LINE
  5
2030
330
1EC6
100
AcDbEntity
  8
OUTLINE
100
AcDbLine
 10
3222.910182386908
 20
506.7830775023087
 30
0.0
 11
3103.11018238691
 21
506.7830775023087
 31
0.0
  0
LINE
  5
2032
330
1EC6
100
AcDbEntity
  8
OUTLINE
100
AcDbLine
 10
3103.11018238691
 20
804.7830775023086
 30
0.0
 11
3103.11018238691
 21
506.7830775023087
 31
0.0
  0
LINE
  5
2033
330
1EC6
100
AcDbEntity
  8
OUTLINE
  6
HIDDEN
100
AcDbLine
 10
3218.21018238691
 20
772.7830775023087
 30
0.0
 11
3103.11018238691
 21
772.7830775023087
 31
0.0
  0
LINE
  5
2035
330
1EC6
100
AcDbEntity
  8
OUTLINE
  6
HIDDEN
100
AcDbLine
 10
3222.910182386907
 20
515.7830775023087
 30
0.0
 11
3103.11018238691
 21
515.7830775023087
 31
0.0
  0
LINE
  5
2036
330
1EC6
100
AcDbEntity
  8
DIM
100
AcDbLine
 10
3080.990182386909
 20
515.7830775023088
 30
0.0
 11
3103.11018238691
 21
515.7830775023087
 31
0.0
  0
LINE
  5
2037
330
1EC6
100
AcDbEntity
  8
OUTLINE
100
AcDbLine
 10
3103.11018238691
 20
699.7830775023086
 30
0.0
 11
3080.99018238691
 21
699.7830775023086
 31
0.0
  0
LINE
  5
2038
330
1EC6
100
AcDbEntity
  8
OUTLINE
100
AcDbLine
 10
3103.11018238691
 20
539.7830775023086
 30
0.0
 11
3080.99018238691
 21
539.7830775023086
 31
0.0
  0
ENDSEC
  0
SECTION
  2
OBJECTS
  0
DICTIONARY
  5
1E67
330
0
100
AcDbDictionary
281
     1
  3
ACAD_COLOR
350
1EBD
  3
ACAD_GROUP
350
1E68
  3
ACAD_LAYOUT
350
1EBC
  3
ACAD_MATERIAL
350
1E6B
  3
ACAD_MLEADERSTYLE
350
1EC0
  3
ACAD_MLINESTYLE
350
1EB9
  3
ACAD_PLOTSETTINGS
350
1EBB
  3
ACAD_PLOTSTYLENAME
350
1E69
  3
ACAD_SCALELIST
350
1E9D
  3
ACAD_TABLESTYLE
350
1EBE
  3
ACAD_VISUALSTYLE
350
1E84
  3
ACDB_RECOMPOSE_DATA
350
2120
  3
AcDbVariableDictionary
350
2119
  3
AcmDictionary
350
1F74
  3
AMG
350
1F2D
  3
AMGSNAPSETTINGS
350
1F99
  0
DICTIONARY
  5
2111
330
1E5D
100
AcDbDictionary
280
     1
281
     1
  3
ACAD_LAYERSTATES
360
2112
  0
DICTIONARY
  5
1FDF
330
1EC6
100
AcDbDictionary
280
     1
281
     1
  3
ACAD_SORTENTS
360
1FE0
  0
DICTIONARY
  5
1EBD
102
{ACAD_REACTORS
330
1E67
102
}
330
1E67
100
AcDbDictionary
281
     1
  0
DICTIONARY
  5
1E68
102
{ACAD_REACTORS
330
1E67
102
}
330
1E67
100
AcDbDictionary
281
     1
  0
DICTIONARY
  5
1EBC
102
{ACAD_REACTORS
330
1E67
102
}
330
1E67
100
AcDbDictionary
281
     1
  3
Layout1
350
1EC5
  3
Model
350
1EC9
  0
DICTIONARY
  5
1E6B
102
{ACAD_REACTORS
330
1E67
102
}
330
1E67
100
AcDbDictionary
281
     1
  3
ByBlock
350
1E74
  3
ByLayer
350
1E6C
  3
Global
350
1E7C
  0
DICTIONARY
  5
1EC0
102
{ACAD_REACTORS
330
1E67
102
}
330
1E67
100
AcDbDictionary
281
     1
  3
Standard
350
1EC1
  0
DICTIONARY
  5
1EB9
102
{ACAD_REACTORS
330
1E67
102
}
330
1E67
100
AcDbDictionary
281
     1
  3
Standard
350
1EBA
  0
DICTIONARY
  5
1EBB
102
{ACAD_REACTORS
330
1E67
102
}
330
1E67
100
AcDbDictionary
281
     1
  0
ACDBDICTIONARYWDFLT
  5
1E69
102
{ACAD_REACTORS
330
1E67
102
}
330
1E67
100
AcDbDictionary
281
     1
  3
Normal
350
1E6A
100
AcDbDictionaryWithDefault
340
1E6A
  0
DICTIONARY
  5
1E9D
102
{ACAD_REACTORS
330
1E67
102
}
330
1E67
100
AcDbDictionary
281
     1
  3
A0
350
1E9E
  3
A1
350
1E9F
  3
A2
350
1EA0
  3
A3
350
1EA1
  3
A4
350
1EA2
  3
A5
350
1EA3
  3
A6
350
1EA4
  3
A7
350
1EA5
  3
A8
350
1EA6
  3
A9
350
1EA7
  3
B0
350
1EA8
  3
B1
350
1EA9
  3
B2
350
1EAA
  3
B3
350
1EAB
  3
B4
350
1EAC
  3
B5
350
1EAD
  3
B6
350
1EAE
  0
DICTIONARY
  5
1EBE
102
{ACAD_REACTORS
330
1E67
102
}
330
1E67
100
AcDbDictionary
281
     1
  3
Standard
350
1EBF
  0
DICTIONARY
  5
1E84
102
{ACAD_REACTORS
330
1E67
102
}
330
1E67
100
AcDbDictionary
281
     1
  3
2dWireframe
350
1E8A
  3
Basic
350
1E89
  3
Brighten
350
1E90
  3
ColorChange
350
1E94
  3
Conceptual
350
1E8D
  3
Dim
350
1E8F
  3
EdgeColorOff
350
1E9C
  3
Facepattern
350
1E93
  3
Flat
350
1E85
  3
FlatWithEdges
350
1E86
  3
Gouraud
350
1E87
  3
GouraudWithEdges
350
1E88
  3
Hidden
350
1E8C
  3
JitterOff
350
1E9A
  3
Linepattern
350
1E92
  3
OverhangOff
350
1E9B
  3
Realistic
350
1E8E
  3
Shaded
350
1E99
  3
Shaded with edges
350
1E98
  3
Shades of Gray
350
1E95
  3
Sketchy
350
1E96
  3
Thicken
350
1E91
  3
Wireframe
350
1E8B
  3
X-Ray
350
1E97
  0
XRECORD
  5
2120
102
{ACAD_REACTORS
330
1E67
102
}
330
1E67
100
AcDbXrecord
280
     1
 90
        1
330
1EBF
  0
DICTIONARY
  5
2119
102
{ACAD_REACTORS
330
1E67
102
}
330
1E67
100
AcDbDictionary
281
     1
  3
CANNOSCALE
350
211C
  3
CMLEADERSTYLE
350
211B
  3
CTABLESTYLE
350
211A
  3
XCLIPFRAME
350
211D
  0
DICTIONARY
  5
1F74
102
{ACAD_REACTORS
330
1E67
102
}
330
1E67
100
AcDbDictionary
281
     1
  3
AcmStdDictionary
350
1F7D
  0
DICTIONARY
  5
1F2D
102
{ACAD_REACTORS
330
1E67
102
}
330
1E67
100
AcDbDictionary
281
     1
  0
DICTIONARY
  5
1F99
102
{ACAD_REACTORS
330
1E67
102
}
330
1E67
100
AcDbDictionary
281
     1
  0
DICTIONARY
  5
2112
102
{ACAD_REACTORS
330
2111
102
}
330
2111
100
AcDbDictionary
281
     1
  0
SORTENTSTABLE
  5
1FE0
102
{ACAD_REACTORS
330
1FDF
102
}
330
1FDF
100
AcDbSortentsTable
330
1EC6
331
1A2A
  5
1FA2
331
1109
  5
1115
331
11D4
  5
1464
331
11C3
  5
11D2
331
11E5
  5
146D
331
EC4
  5
ECC
331
ED5
  5
F44
331
146F
  5
177E
331
105A
  5
107F
331
1028
  5
1032
331
F72
  5
FC5
331
1083
  5
108F
331
FC3
  5
FCB
331
DFA
  5
E23
331
1094
  5
109F
331
1777
  5
1781
331
10B6
  5
1103
331
10A5
  5
10B1
331
1FEC
  5
FEB
331
E1B
  5
E3F
331
B75
  5
B75
331
1778
  5
1782
331
17B2
  5
1B60
331
110A
  5
1116
331
E61
  5
E75
331
1A2B
  5
1FA3
331
11C4
  5
11D3
331
11E6
  5
146F
331
EC5
  5
ECD
331
ED6
  5
F47
331
E93
  5
E9A
331
1029
  5
1033
331
105B
  5
1080
331
F62
  5
F6A
331
F73
  5
FC6
331
FC4
  5
FCC
331
DFB
  5
E3D
331
1095
  5
10A1
331
10A6
  5
10B2
331
1FED
  5
FEA
331
10B7
  5
1104
331
FF6
  5
1000
331
E1C
  5
E59
331
B76
  5
B76
331
1779
  5
1783
331
10B8
  5
1106
331
110B
  5
1117
331
1A2C
  5
1FA4
331
11D6
  5
1466
331
11C5
  5
11D4
331
11E7
  5
1775
331
EC6
  5
ECE
331
E94
  5
E9D
331
102A
  5
1034
331
1085
  5
1090
331
105C
  5
1081
331
F63
  5
F6D
331
FC5
  5
FCD
331
1FEE
  5
1FEF
331
1096
  5
10A2
331
FF7
  5
1001
331
E1D
  5
E5A
331
C59
  5
C59
331
B77
  5
B77
331
10A8
  5
10B3
331
177A
  5
1784
331
10B9
  5
1107
331
FF8
  5
1002
331
1A2D
  5
1FA5
331
E95
  5
EA2
331
11D7
  5
1468
331
11C6
  5
11D6
331
11E8
  5
1776
331
EC7
  5
ECF
331
102B
  5
1035
331
1086
  5
1091
331
105D
  5
1082
331
F64
  5
F6E
331
FC6
  5
FCE
331
1FEF
  5
1FF0
331
1097
  5
10A3
331
1FDE
  5
DAF
331
B78
  5
B78
331
1FF0
  5
1FF1
331
1098
  5
10A4
331
10A9
  5
10B4
331
177B
  5
1785
331
10BA
  5
1108
331
FF9
  5
1003
331
110D
  5
1118
331
202F
  5
2030
331
11C7
  5
11D7
331
E96
  5
EBC
331
11E9
  5
1777
331
EC8
  5
ED0
331
E75
  5
E96
331
102C
  5
1036
331
1FCE
  5
1FE2
331
105E
  5
1083
331
F65
  5
F6F
331
F44
  5
F66
331
1087
  5
1093
331
FC7
  5
FED
331
C1A
  5
C1A
331
B79
  5
B79
331
1088
  5
1094
331
1FF1
  5
202F
331
FC8
  5
FEE
331
10AA
  5
10B6
331
177C
  5
1786
331
10BB
  5
1109
331
FFA
  5
1004
331
110E
  5
1119
331
2030
  5
2032
331
E97
  5
EBD
331
11EA
  5
1778
331
EC9
  5
ED1
331
E76
  5
E97
331
102D
  5
1037
331
F66
  5
F70
331
B7A
  5
B7A
331
1FD0
  5
1FE3
331
1089
  5
1095
331
109A
  5
10A5
331
FC9
  5
FF6
331
10AB
  5
10B7
331
FEA
  5
FFC
331
FFB
  5
1005
331
E00
  5
E3E
331
177D
  5
1787
331
E3D
  5
E61
331
110F
  5
11BB
331
ECA
  5
ED2
331
E98
  5
EBE
331
E66
  5
E76
331
1464
  5
1779
331
102E
  5
1038
331
F67
  5
F71
331
DD7
  5
DFA
331
B7B
  5
B7B
331
1FD1
  5
1FE4
331
1079
  5
1085
331
F68
  5
F72
331
108A
  5
1096
331
FCA
  5
FF7
331
109B
  5
10A6
331
10AC
  5
10B8
331
FEB
  5
FFD
331
FFC
  5
101E
331
E22
  5
E5B
331
1FE2
  5
DF8
331
177E
  5
17A7
331
10FF
  5
110A
331
E3E
  5
E66
331
17A7
  5
1A29
331
1110
  5
11BC
331
E99
  5
EBF
331
ECB
  5
ED3
331
2032
  5
E9F
331
E67
  5
E77
331
102F
  5
1051
331
F47
  5
F67
331
DAF
  5
DDD
331
B7C
  5
B7C
331
1030
  5
1052
331
1051
  5
105B
331
F48
  5
F68
331
1FD2
  5
1FE5
331
107A
  5
1086
331
F69
  5
F73
331
FCB
  5
FF8
331
10AD
  5
10B9
331
109C
  5
10A8
331
101E
  5
102A
331
FFD
  5
1021
331
E23
  5
E5C
331
1FE3
  5
DDC
331
177F
  5
17A8
331
1100
  5
110B
331
17A8
  5
1A2C
331
1111
  5
11BD
331
ECC
  5
ED4
331
E9A
  5
EC2
331
E79
  5
E98
331
E68
  5
E79
331
E3F
  5
E67
331
1466
  5
177A
331
B7D
  5
B7D
331
1031
  5
1053
331
1052
  5
105C
331
F49
  5
F69
331
F6A
  5
F93
331
107B
  5
1087
331
1FD3
  5
1FE6
331
F93
  5
FC7
331
108C
  5
1097
331
1FE4
  5
1FEA
331
FCC
  5
FF9
331
DDA
  5
DFB
331
1780
  5
17AD
331
FFE
  5
1022
331
FED
  5
FFE
331
1112
  5
11BE
331
1101
  5
110D
331
109D
  5
10A9
331
11BB
  5
11C6
331
ECD
  5
ED5
331
EBC
  5
EC5
331
E7A
  5
E99
331
B7E
  5
B7E
331
1468
  5
177B
331
1053
  5
105D
331
1032
  5
1054
331
1021
  5
102B
331
107C
  5
1088
331
1FD4
  5
1FE9
331
F94
  5
FC8
331
108D
  5
1098
331
FCD
  5
FFA
331
DDB
  5
E00
331
109E
  5
10AA
331
10AF
  5
10BA
331
FEE
  5
FFF
331
FFF
  5
1023
331
1781
  5
17AE
331
11CD
  5
11DE
331
11BC
  5
11C7
331
1102
  5
110E
331
11DE
  5
146B
331
EBD
  5
EC6
331
EEF
  5
F48
331
ECE
  5
ED6
331
E59
  5
E68
331
1FE5
  5
DD7
331
B7F
  5
B7F
331
EF0
  5
F49
331
1033
  5
1055
331
1022
  5
102C
331
1054
  5
105E
331
DC3
  5
DF9
331
108E
  5
109A
331
F95
  5
FC9
331
1FE6
  5
1FEB
331
FCE
  5
FFB
331
10B0
  5
10BB
331
109F
  5
10AB
331
1000
  5
1024
331
DDC
  5
E1B
331
1782
  5
17AF
331
1B5D
  5
1FA6
331
11BD
  5
11CD
331
1114
  5
11BF
331
1103
  5
110F
331
11CE
  5
11E5
331
ECF
  5
EEF
331
EBE
  5
EC7
331
E5A
  5
E6E
331
C49
  5
C49
331
B80
  5
B80
331
ED0
  5
EF0
331
EF1
  5
F62
331
1055
  5
1079
331
1034
  5
1056
331
1023
  5
102D
331
F6D
  5
F94
331
107E
  5
1089
331
1FE7
  5
1FEC
331
108F
  5
109B
331
F96
  5
FCA
331
10B1
  5
10FF
331
1001
  5
1025
331
DDD
  5
E1C
331
1783
  5
17B1
331
11CF
  5
11E6
331
11BE
  5
11CE
331
1115
  5
11C0
331
1104
  5
1110
331
EBF
  5
EC8
331
E5B
  5
E6F
331
B81
  5
B81
331
B70
  5
B70
331
11D0
  5
11E7
331
146B
  5
177C
331
EF2
  5
F63
331
ED1
  5
EF1
331
EC0
  5
EC9
331
1024
  5
102E
331
1056
  5
107A
331
1035
  5
1057
331
F0C
  5
F64
331
10B2
  5
1100
331
10A1
  5
10AC
331
1090
  5
109C
331
107F
  5
108A
331
1002
  5
1026
331
F6E
  5
F95
331
1784
  5
17B2
331
1A26
  5
1B61
331
1116
  5
11C2
331
11BF
  5
11CF
331
E9F
  5
EC3
331
E5C
  5
E73
331
1B60
  5
1FA7
331
11C0
  5
11D0
331
11D1
  5
11E8
331
ED2
  5
EF2
331
1025
  5
102F
331
1057
  5
107B
331
1036
  5
1058
331
F0D
  5
F65
331
1091
  5
109D
331
1080
  5
108C
331
F6F
  5
F96
331
10B3
  5
1101
331
10A2
  5
10AD
331
1785
  5
1A26
331
1003
  5
1027
331
1106
  5
1111
331
1FE9
  5
DDA
331
1A27
  5
1B62
331
1117
  5
11C3
331
E6E
  5
E7A
331
B72
  5
B72
331
1B61
  5
1FA8
331
1A28
  5
1FA0
331
1118
  5
11C4
331
11D2
  5
11E9
331
ED3
  5
F0C
331
EC2
  5
ECA
331
146D
  5
177D
331
1026
  5
1030
331
1058
  5
107C
331
1037
  5
1059
331
F70
  5
FC3
331
1FEA
  5
1FED
331
1081
  5
108D
331
10B4
  5
1102
331
10A3
  5
10AF
331
1786
  5
1A27
331
1775
  5
177F
331
1004
  5
1028
331
1107
  5
1112
331
DF8
  5
E1D
331
17AF
  5
1A2D
331
E6F
  5
E95
331
D9E
  5
D9E
331
B73
  5
B73
331
1A29
  5
1FA1
331
1119
  5
11C5
331
1108
  5
1114
331
11C2
  5
11D1
331
1B62
  5
1FDE
331
11D3
  5
11EA
331
ED4
  5
F0D
331
EC3
  5
ECB
331
1059
  5
107E
331
1038
  5
105A
331
1027
  5
1031
331
F71
  5
FC4
331
1FEB
  5
1FEE
331
1093
  5
109E
331
1082
  5
108E
331
10A4
  5
10B0
331
1776
  5
1780
331
1005
  5
1029
331
DF9
  5
E22
331
B74
  5
B74
331
1787
  5
1A28
331
B6F
  5
B6F
  0
LAYOUT
  5
1EC5
102
{ACAD_REACTORS
330
1EBC
102
}
330
1EBC
100
AcDbPlotSettings
  1

  2
\\SVR-07\ptr-peg02
  4

  6

 40
0.0
 41
0.0
 42
0.0
 43
0.0
 44
0.0
 45
0.0
 46
0.0
 47
0.0
 48
0.0
 49
0.0
140
0.0
141
0.0
142
1.0
143
1.0
 70
   688
 72
     0
 73
     0
 74
     5
  7

 75
    16
147
1.0
 76
     0
 77
     2
 78
   300
148
0.0
149
0.0
100
AcDbLayout
  1
Layout1
 70
     0
 71
     1
 10
0.0
 20
0.0
 11
12.0
 21
9.0
 12
0.0
 22
0.0
 32
0.0
 14
1.000000000000000E+20
 24
1.000000000000000E+20
 34
1.000000000000000E+20
 15
-1.000000000000000E+20
 25
-1.000000000000000E+20
 35
-1.000000000000000E+20
146
0.0
 13
0.0
 23
0.0
 33
0.0
 16
1.0
 26
0.0
 36
0.0
 17
0.0
 27
1.0
 37
0.0
 76
     0
330
1EC2
  0
LAYOUT
  5
1EC9
102
{ACAD_XDICTIONARY
360
2117
102
}
102
{ACAD_REACTORS
330
1EBC
102
}
330
1EBC
100
AcDbPlotSettings
  1

  2
\\SVR-07\ptr-peg02
  4

  6

 40
0.0
 41
0.0
 42
0.0
 43
0.0
 44
0.0
 45
0.0
 46
0.0
 47
0.0
 48
0.0
 49
0.0
140
0.0
141
0.0
142
1.0
143
1.0
 70
  1712
 72
     0
 73
     0
 74
     0
  7

 75
     0
147
1.0
 76
     0
 77
     2
 78
   300
148
0.0
149
0.0
100
AcDbLayout
  1
Model
 70
     1
 71
     0
 10
0.0
 20
0.0
 11
12.0
 21
9.0
 12
0.0
 22
0.0
 32
0.0
 14
0.0
 24
0.0
 34
0.0
 15
0.0
 25
0.0
 35
0.0
146
0.0
 13
0.0
 23
0.0
 33
0.0
 16
1.0
 26
0.0
 36
0.0
 17
0.0
 27
1.0
 37
0.0
 76
     0
330
1EC6
331
1ECC
  0
MATERIAL
  5
1E74
102
{ACAD_XDICTIONARY
360
1E75
102
}
102
{ACAD_REACTORS
330
1E6B
102
}
330
1E6B
100
AcDbMaterial
  1
ByBlock
 72
     0
 43
0.0208333333333333
 43
0.0
 43
0.0
 43
0.0
 43
0.0
 43
0.0208333333333333
 43
0.0
 43
0.0
 43
0.0
 43
0.0
 43
1.0
 43
0.0
 43
0.0
 43
0.0
 43
0.0
 43
1.0
 77
     0
 47
0.0208333333333333
 47
0.0
 47
0.0
 47
0.0
 47
0.0
 47
0.0208333333333333
 47
0.0
 47
0.0
 47
0.0
 47
0.0
 47
1.0
 47
0.0
 47
0.0
 47
0.0
 47
0.0
 47
1.0
171
     0
 49
0.0208333333333333
 49
0.0
 49
0.0
 49
0.0
 49
0.0
 49
0.0208333333333333
 49
0.0
 49
0.0
 49
0.0
 49
0.0
 49
1.0
 49
0.0
 49
0.0
 49
0.0
 49
0.0
 49
1.0
175
     0
142
0.0208333333333333
142
0.0
142
0.0
142
0.0
142
0.0
142
0.0208333333333333
142
0.0
142
0.0
142
0.0
142
0.0
142
1.0
142
0.0
142
0.0
142
0.0
142
0.0
142
1.0
179
     0
144
0.0208333333333333
144
0.0
144
0.0
144
0.0
144
0.0
144
0.0208333333333333
144
0.0
144
0.0
144
0.0
144
0.0
144
1.0
144
0.0
144
0.0
144
0.0
144
0.0
144
1.0
147
0.0208333333333333
147
0.0
147
0.0
147
0.0
147
0.0
147
0.0208333333333333
147
0.0
147
0.0
147
0.0
147
0.0
147
1.0
147
0.0
147
0.0
147
0.0
147
0.0
147
1.0
  0
MATERIAL
  5
1E6C
102
{ACAD_XDICTIONARY
360
1E6D
102
}
102
{ACAD_REACTORS
330
1E6B
102
}
330
1E6B
100
AcDbMaterial
  1
ByLayer
 72
     0
 43
0.0208333333333333
 43
0.0
 43
0.0
 43
0.0
 43
0.0
 43
0.0208333333333333
 43
0.0
 43
0.0
 43
0.0
 43
0.0
 43
1.0
 43
0.0
 43
0.0
 43
0.0
 43
0.0
 43
1.0
 77
     0
 47
0.0208333333333333
 47
0.0
 47
0.0
 47
0.0
 47
0.0
 47
0.0208333333333333
 47
0.0
 47
0.0
 47
0.0
 47
0.0
 47
1.0
 47
0.0
 47
0.0
 47
0.0
 47
0.0
 47
1.0
171
     0
 49
0.0208333333333333
 49
0.0
 49
0.0
 49
0.0
 49
0.0
 49
0.0208333333333333
 49
0.0
 49
0.0
 49
0.0
 49
0.0
 49
1.0
 49
0.0
 49
0.0
 49
0.0
 49
0.0
 49
1.0
175
     0
142
0.0208333333333333
142
0.0
142
0.0
142
0.0
142
0.0
142
0.0208333333333333
142
0.0
142
0.0
142
0.0
142
0.0
142
1.0
142
0.0
142
0.0
142
0.0
142
0.0
142
1.0
179
     0
144
0.0208333333333333
144
0.0
144
0.0
144
0.0
144
0.0
144
0.0208333333333333
144
0.0
144
0.0
144
0.0
144
0.0
144
1.0
144
0.0
144
0.0
144
0.0
144
0.0
144
1.0
147
0.0208333333333333
147
0.0
147
0.0
147
0.0
147
0.0
147
0.0208333333333333
147
0.0
147
0.0
147
0.0
147
0.0
147
1.0
147
0.0
147
0.0
147
0.0
147
0.0
147
1.0
  0
MATERIAL
  5
1E7C
102
{ACAD_XDICTIONARY
360
1E7D
102
}
102
{ACAD_REACTORS
330
1E6B
102
}
330
1E6B
100
AcDbMaterial
  1
Global
 72
     0
 43
0.0208333333333333
 43
0.0
 43
0.0
 43
0.0
 43
0.0
 43
0.0208333333333333
 43
0.0
 43
0.0
 43
0.0
 43
0.0
 43
1.0
 43
0.0
 43
0.0
 43
0.0
 43
0.0
 43
1.0
 77
     0
 47
0.0208333333333333
 47
0.0
 47
0.0
 47
0.0
 47
0.0
 47
0.0208333333333333
 47
0.0
 47
0.0
 47
0.0
 47
0.0
 47
1.0
 47
0.0
 47
0.0
 47
0.0
 47
0.0
 47
1.0
171
     0
 49
0.0208333333333333
 49
0.0
 49
0.0
 49
0.0
 49
0.0
 49
0.0208333333333333
 49
0.0
 49
0.0
 49
0.0
 49
0.0
 49
1.0
 49
0.0
 49
0.0
 49
0.0
 49
0.0
 49
1.0
175
     0
142
0.0208333333333333
142
0.0
142
0.0
142
0.0
142
0.0
142
0.0208333333333333
142
0.0
142
0.0
142
0.0
142
0.0
142
1.0
142
0.0
142
0.0
142
0.0
142
0.0
142
1.0
179
     0
144
0.0208333333333333
144
0.0
144
0.0
144
0.0
144
0.0
144
0.0208333333333333
144
0.0
144
0.0
144
0.0
144
0.0
144
1.0
144
0.0
144
0.0
144
0.0
144
0.0
144
1.0
147
0.0208333333333333
147
0.0
147
0.0
147
0.0
147
0.0
147
0.0208333333333333
147
0.0
147
0.0
147
0.0
147
0.0
147
1.0
147
0.0
147
0.0
147
0.0
147
0.0
147
1.0
  0
MLEADERSTYLE
  5
1EC1
102
{ACAD_REACTORS
330
1EC0
102
}
330
1EC0
100
AcDbMLeaderStyle
170
     2
171
     1
172
     0
 90
        2
 40
0.0
 41
0.0
173
     1
 91
-1056964608
340
1EB5
 92
       -2
290
     1
 42
0.09
291
     1
 43
0.36
  3
Standard
 44
0.18
300

342
1EB0
174
     1
178
     6
175
     1
176
     0
 93
-1056964608
 45
0.18
292
     0
297
     0
 46
0.18
 94
-1056964608
 47
1.0
 49
1.0
140
1.0
293
     1
141
0.0
294
     1
177
     0
142
1.0
295
     0
296
     0
143
0.125
1001
ACAD_MLEADERVER
1070
     2
  0
MLINESTYLE
  5
1EBA
102
{ACAD_REACTORS
330
1EB9
102
}
330
1EB9
100
AcDbMlineStyle
  2
STANDARD
 70
     0
  3

 62
   256
 51
90.0
 52
90.0
 71
     2
 49
0.5
 62
   256
  6
BYLAYER
 49
-0.5
 62
   256
  6
BYLAYER
  0
ACDBPLACEHOLDER
  5
1E6A
102
{ACAD_REACTORS
330
1E69
102
}
330
1E69
  0
SCALE
  5
1E9E
102
{ACAD_REACTORS
330
1E9D
102
}
330
1E9D
100
AcDbScale
 70
     0
300
1:1
140
1.0
141
1.0
290
     1
  0
SCALE
  5
1E9F
102
{ACAD_REACTORS
330
1E9D
102
}
330
1E9D
100
AcDbScale
 70
     0
300
1/128" = 1'-0"
140
0.0078125
141
12.0
290
     0
  0
SCALE
  5
1EA0
102
{ACAD_REACTORS
330
1E9D
102
}
330
1E9D
100
AcDbScale
 70
     0
300
1/64" = 1'-0"
140
0.015625
141
12.0
290
     0
  0
SCALE
  5
1EA1
102
{ACAD_REACTORS
330
1E9D
102
}
330
1E9D
100
AcDbScale
 70
     0
300
1/32" = 1'-0"
140
0.03125
141
12.0
290
     0
  0
SCALE
  5
1EA2
102
{ACAD_REACTORS
330
1E9D
102
}
330
1E9D
100
AcDbScale
 70
     0
300
1/16" = 1'-0"
140
0.0625
141
12.0
290
     0
  0
SCALE
  5
1EA3
102
{ACAD_REACTORS
330
1E9D
102
}
330
1E9D
100
AcDbScale
 70
     0
300
3/32" = 1'-0"
140
0.09375
141
12.0
290
     0
  0
SCALE
  5
1EA4
102
{ACAD_REACTORS
330
1E9D
102
}
330
1E9D
100
AcDbScale
 70
     0
300
1/8" = 1'-0"
140
0.125
141
12.0
290
     0
  0
SCALE
  5
1EA5
102
{ACAD_REACTORS
330
1E9D
102
}
330
1E9D
100
AcDbScale
 70
     0
300
3/16" = 1'-0"
140
0.1875
141
12.0
290
     0
  0
SCALE
  5
1EA6
102
{ACAD_REACTORS
330
1E9D
102
}
330
1E9D
100
AcDbScale
 70
     0
300
1/4" = 1'-0"
140
0.25
141
12.0
290
     0
  0
SCALE
  5
1EA7
102
{ACAD_REACTORS
330
1E9D
102
}
330
1E9D
100
AcDbScale
 70
     0
300
3/8" = 1'-0"
140
0.375
141
12.0
290
     0
  0
SCALE
  5
1EA8
102
{ACAD_REACTORS
330
1E9D
102
}
330
1E9D
100
AcDbScale
 70
     0
300
1/2" = 1'-0"
140
0.5
141
12.0
290
     0
  0
SCALE
  5
1EA9
102
{ACAD_REACTORS
330
1E9D
102
}
330
1E9D
100
AcDbScale
 70
     0
300
3/4" = 1'-0"
140
0.75
141
12.0
290
     0
  0
SCALE
  5
1EAA
102
{ACAD_REACTORS
330
1E9D
102
}
330
1E9D
100
AcDbScale
 70
     0
300
1" = 1'-0"
140
1.0
141
12.0
290
     0
  0
SCALE
  5
1EAB
102
{ACAD_REACTORS
330
1E9D
102
}
330
1E9D
100
AcDbScale
 70
     0
300
1-1/2" = 1'-0"
140
1.5
141
12.0
290
     0
  0
SCALE
  5
1EAC
102
{ACAD_REACTORS
330
1E9D
102
}
330
1E9D
100
AcDbScale
 70
     0
300
3" = 1'-0"
140
3.0
141
12.0
290
     0
  0
SCALE
  5
1EAD
102
{ACAD_REACTORS
330
1E9D
102
}
330
1E9D
100
AcDbScale
 70
     0
300
6" = 1'-0"
140
6.0
141
12.0
290
     0
  0
SCALE
  5
1EAE
102
{ACAD_REACTORS
330
1E9D
102
}
330
1E9D
100
AcDbScale
 70
     0
300
1'-0" = 1'-0"
140
12.0
141
12.0
290
     0
  0
TABLESTYLE
  5
1EBF
102
{ACAD_XDICTIONARY
360
211E
102
}
102
{ACAD_REACTORS
330
1EBE
102
}
330
1EBE
100
AcDbTableStyle
  3
Standard
 70
     0
 71
     0
 40
0.06
 41
0.06
280
     0
281
     0
  7
STANDARD
140
0.18
170
     2
 62
     0
 63
     7
283
     0
274
    -2
284
     1
 64
     0
275
    -2
285
     1
 65
     0
276
    -2
286
     1
 66
     0
277
    -2
287
     1
 67
     0
278
    -2
288
     1
 68
     0
279
    -2
289
     1
 69
     0
  7
STANDARD
140
0.25
170
     5
 62
     0
 63
     7
283
     0
274
    -2
284
     1
 64
     0
275
    -2
285
     1
 65
     0
276
    -2
286
     1
 66
     0
277
    -2
287
     1
 67
     0
278
    -2
288
     1
 68
     0
279
    -2
289
     1
 69
     0
  7
STANDARD
140
0.18
170
     5
 62
     0
 63
     7
283
     0
274
    -2
284
     1
 64
     0
275
    -2
285
     1
 65
     0
276
    -2
286
     1
 66
     0
277
    -2
287
     1
 67
     0
278
    -2
288
     1
 68
     0
279
    -2
289
     1
 69
     0
  0
VISUALSTYLE
  5
1E8A
102
{ACAD_XDICTIONARY
360
212E
102
}
102
{ACAD_REACTORS
330
1E84
102
}
330
1E84
100
AcDbVisualStyle
  2
2dWireframe
 70
     4
 71
     0
 72
     2
 73
     0
 90
        0
 40
-0.6
 41
-30.0
 62
     5
 63
     7
421
 16777215
 74
     1
 91
        4
 64
     7
 65
   257
 75
     1
175
     1
 42
1.0
 92
        0
 66
   257
 43
1.0
 76
     1
 77
     6
 78
     2
 67
     7
 79
     5
170
     0
171
     0
290
     0
174
     0
 93
        1
 44
0.0
173
     0
291
     0
 45
0.0
1001
ACAD
1000
AcDbSavedByObjectVersion
1070
     0
  0
VISUALSTYLE
  5
1E89
102
{ACAD_XDICTIONARY
360
212C
102
}
102
{ACAD_REACTORS
330
1E84
102
}
330
1E84
100
AcDbVisualStyle
  2
Basic
 70
     7
 71
     1
 72
     0
 73
     1
 90
        0
 40
-0.6
 41
-30.0
 62
     5
 63
     7
421
 16777215
 74
     0
 91
        4
 64
     7
 65
   257
 75
     1
175
     1
 42
1.0
 92
        8
 66
     7
 43
1.0
 76
     1
 77
     6
 78
     2
 67
     7
 79
     5
170
     0
171
     0
290
     0
174
     0
 93
        1
 44
0.0
173
     0
291
     1
 45
0.0
1001
ACAD
1000
AcDbSavedByObjectVersion
1070
     0
  0
VISUALSTYLE
  5
1E90
102
{ACAD_XDICTIONARY
360
213A
102
}
102
{ACAD_REACTORS
330
1E84
102
}
330
1E84
100
AcDbVisualStyle
  2
Brighten
 70
    12
 71
     2
 72
     2
 73
     0
 90
        0
 40
-0.6
 41
-30.0
 62
     5
 63
     7
421
 16777215
 74
     1
 91
        4
 64
     7
 65
   257
 75
     1
175
     1
 42
1.0
 92
        8
 66
     7
 43
1.0
 76
     1
 77
     6
 78
     2
 67
     7
 79
     5
170
     0
171
     0
290
     0
174
     0
 93
        1
 44
50.0
173
     0
291
     1
 45
0.0
1001
ACAD
1000
AcDbSavedByObjectVersion
1070
     0
  0
VISUALSTYLE
  5
1E94
102
{ACAD_XDICTIONARY
360
2142
102
}
102
{ACAD_REACTORS
330
1E84
102
}
330
1E84
100
AcDbVisualStyle
  2
ColorChange
 70
    16
 71
     2
 72
     2
 73
     3
 90
        0
 40
-0.6
 41
-30.0
 62
     5
 63
     8
421
  8421504
 74
     1
 91
        4
 64
     7
 65
   257
 75
     1
175
     1
 42
1.0
 92
        8
 66
     8
424
  8421504
 43
1.0
 76
     1
 77
     6
 78
     2
 67
     7
 79
     5
170
     0
171
     0
290
     0
174
     0
 93
        1
 44
0.0
173
     0
291
     1
 45
0.0
1001
ACAD
1000
AcDbSavedByObjectVersion
1070
     0
  0
VISUALSTYLE
  5
1E8D
102
{ACAD_XDICTIONARY
360
2134
102
}
102
{ACAD_REACTORS
330
1E84
102
}
330
1E84
100
AcDbVisualStyle
  2
Conceptual
 70
     9
 71
     3
 72
     2
 73
     0
 90
        0
 40
-0.6
 41
-30.0
 62
     5
 63
     7
421
 16777215
 74
     2
 91
        2
 64
     7
 65
   257
 75
     1
175
     1
 42
179.0
 92
        8
 66
     7
 43
1.0
 76
     1
 77
     6
 78
     2
 67
     7
 79
     3
170
     0
171
     0
290
     0
174
     0
 93
        1
 44
0.0
173
     0
291
     0
 45
0.0
1001
ACAD
1000
AcDbSavedByObjectVersion
1070
     0
  0
VISUALSTYLE
  5
1E8F
102
{ACAD_XDICTIONARY
360
2138
102
}
102
{ACAD_REACTORS
330
1E84
102
}
330
1E84
100
AcDbVisualStyle
  2
Dim
 70
    11
 71
     2
 72
     2
 73
     0
 90
        0
 40
-0.6
 41
-30.0
 62
     5
 63
     7
421
 16777215
 74
     1
 91
        4
 64
     7
 65
   257
 75
     1
175
     1
 42
1.0
 92
        8
 66
     7
 43
1.0
 76
     1
 77
     6
 78
     2
 67
     7
 79
     5
170
     0
171
     0
290
     0
174
     0
 93
        1
 44
-50.0
173
     0
291
     1
 45
0.0
1001
ACAD
1000
AcDbSavedByObjectVersion
1070
     0
  0
VISUALSTYLE
  5
1E9C
102
{ACAD_XDICTIONARY
360
2152
102
}
102
{ACAD_REACTORS
330
1E84
102
}
330
1E84
100
AcDbVisualStyle
  2
EdgeColorOff
 70
    22
 71
     2
 72
     2
 73
     0
 90
        0
 40
-0.6
 41
-30.0
 62
     5
 63
     7
421
 16777215
 74
     1
 91
        4
 64
     7
 65
   257
 75
     1
175
     1
 42
1.0
 92
        8
 66
     7
 43
1.0
 76
     1
 77
     6
 78
     2
 67
     7
 79
     5
170
     0
171
     0
290
     0
174
     0
 93
        1
 44
0.0
173
     0
291
     1
 45
0.0
1001
ACAD
1000
AcDbSavedByObjectVersion
1070
     0
  0
VISUALSTYLE
  5
1E93
102
{ACAD_XDICTIONARY
360
2140
102
}
102
{ACAD_REACTORS
330
1E84
102
}
330
1E84
100
AcDbVisualStyle
  2
Facepattern
 70
    15
 71
     2
 72
     2
 73
     0
 90
        0
 40
-0.6
 41
-30.0
 62
     5
 63
     7
421
 16777215
 74
     1
 91
        4
 64
     7
 65
   257
 75
     1
175
     1
 42
1.0
 92
        8
 66
     7
 43
1.0
 76
     1
 77
     6
 78
     2
 67
     7
 79
     5
170
     0
171
     0
290
     0
174
     0
 93
        1
 44
0.0
173
     0
291
     1
 45
0.0
1001
ACAD
1000
AcDbSavedByObjectVersion
1070
     0
  0
VISUALSTYLE
  5
1E85
102
{ACAD_XDICTIONARY
360
2124
102
}
102
{ACAD_REACTORS
330
1E84
102
}
330
1E84
100
AcDbVisualStyle
  2
Flat
 70
     0
 71
     2
 72
     1
 73
     1
 90
        2
 40
-0.6
 41
30.0
 62
     5
 63
     7
421
 16777215
 74
     0
 91
        0
 64
     7
 65
   257
 75
     1
175
     1
 42
1.0
 92
        8
 66
     7
 43
1.0
 76
     1
 77
     6
 78
     2
 67
     7
 79
     5
170
     0
171
     0
290
     0
174
     0
 93
       13
 44
0.0
173
     0
291
     1
 45
0.0
1001
ACAD
1000
AcDbSavedByObjectVersion
1070
     0
  0
VISUALSTYLE
  5
1E86
102
{ACAD_XDICTIONARY
360
2126
102
}
102
{ACAD_REACTORS
330
1E84
102
}
330
1E84
100
AcDbVisualStyle
  2
FlatWithEdges
 70
     1
 71
     2
 72
     1
 73
     1
 90
        2
 40
-0.6
 41
30.0
 62
     5
 63
     7
421
 16777215
 74
     1
 91
        0
 64
     7
 65
   257
 75
     1
175
     1
 42
1.0
 92
        0
 66
   257
 43
1.0
 76
     1
 77
     6
 78
     2
 67
     7
 79
     5
170
     0
171
     0
290
     0
174
     0
 93
       13
 44
0.0
173
     0
291
     1
 45
0.0
1001
ACAD
1000
AcDbSavedByObjectVersion
1070
     0
  0
VISUALSTYLE
  5
1E87
102
{ACAD_XDICTIONARY
360
2128
102
}
102
{ACAD_REACTORS
330
1E84
102
}
330
1E84
100
AcDbVisualStyle
  2
Gouraud
 70
     2
 71
     2
 72
     2
 73
     1
 90
        2
 40
-0.6
 41
30.0
 62
     5
 63
     7
421
 16777215
 74
     0
 91
        0
 64
     7
 65
   257
 75
     1
175
     1
 42
1.0
 92
        0
 66
     7
 43
1.0
 76
     1
 77
     6
 78
     2
 67
     7
 79
     5
170
     0
171
     0
290
     0
174
     0
 93
       13
 44
0.0
173
     0
291
     1
 45
0.0
1001
ACAD
1000
AcDbSavedByObjectVersion
1070
     0
  0
VISUALSTYLE
  5
1E88
102
{ACAD_XDICTIONARY
360
212A
102
}
102
{ACAD_REACTORS
330
1E84
102
}
330
1E84
100
AcDbVisualStyle
  2
GouraudWithEdges
 70
     3
 71
     2
 72
     2
 73
     1
 90
        2
 40
-0.6
 41
30.0
 62
     5
 63
     7
421
 16777215
 74
     1
 91
        0
 64
     7
 65
   257
 75
     1
175
     1
 42
1.0
 92
        0
 66
   257
 43
1.0
 76
     1
 77
     6
 78
     2
 67
     7
 79
     5
170
     0
171
     0
290
     0
174
     0
 93
       13
 44
0.0
173
     0
291
     1
 45
0.0
1001
ACAD
1000
AcDbSavedByObjectVersion
1070
     0
  0
VISUALSTYLE
  5
1E8C
102
{ACAD_XDICTIONARY
360
2132
102
}
102
{ACAD_REACTORS
330
1E84
102
}
330
1E84
100
AcDbVisualStyle
  2
Hidden
 70
     6
 71
     1
 72
     2
 73
     2
 90
        0
 40
-0.6
 41
-30.0
 62
     5
 63
     7
421
 16777215
 74
     2
 91
        2
 64
     7
 65
   257
 75
     2
175
     1
 42
40.0
 92
        0
 66
   257
 43
1.0
 76
     1
 77
     6
 78
     2
 67
     7
 79
     3
170
     0
171
     0
290
     0
174
     0
 93
        1
 44
0.0
173
     0
291
     0
 45
0.0
1001
ACAD
1000
AcDbSavedByObjectVersion
1070
     0
  0
VISUALSTYLE
  5
1E9A
102
{ACAD_XDICTIONARY
360
214E
102
}
102
{ACAD_REACTORS
330
1E84
102
}
330
1E84
100
AcDbVisualStyle
  2
JitterOff
 70
    20
 71
     2
 72
     2
 73
     0
 90
        0
 40
-0.6
 41
-30.0
 62
     5
 63
     7
421
 16777215
 74
     1
 91
        4
 64
     7
 65
   257
 75
     1
175
     1
 42
1.0
 92
       10
 66
     7
 43
1.0
 76
     1
 77
     6
 78
     2
 67
     7
 79
     5
170
     0
171
     0
290
     0
174
     0
 93
        1
 44
0.0
173
     0
291
     1
 45
0.0
1001
ACAD
1000
AcDbSavedByObjectVersion
1070
     0
  0
VISUALSTYLE
  5
1E92
102
{ACAD_XDICTIONARY
360
213E
102
}
102
{ACAD_REACTORS
330
1E84
102
}
330
1E84
100
AcDbVisualStyle
  2
Linepattern
 70
    14
 71
     2
 72
     2
 73
     0
 90
        0
 40
-0.6
 41
-30.0
 62
     5
 63
     7
421
 16777215
 74
     1
 91
        4
 64
     7
 65
   257
 75
     7
175
     7
 42
1.0
 92
        8
 66
     7
 43
1.0
 76
     1
 77
     6
 78
     2
 67
     7
 79
     5
170
     0
171
     0
290
     0
174
     0
 93
        1
 44
0.0
173
     0
291
     1
 45
0.0
1001
ACAD
1000
AcDbSavedByObjectVersion
1070
     0
  0
VISUALSTYLE
  5
1E9B
102
{ACAD_XDICTIONARY
360
2150
102
}
102
{ACAD_REACTORS
330
1E84
102
}
330
1E84
100
AcDbVisualStyle
  2
OverhangOff
 70
    21
 71
     2
 72
     2
 73
     0
 90
        0
 40
-0.6
 41
-30.0
 62
     5
 63
     7
421
 16777215
 74
     1
 91
        4
 64
     7
 65
   257
 75
     1
175
     1
 42
1.0
 92
        9
 66
     7
 43
1.0
 76
     1
 77
     6
 78
     2
 67
     7
 79
     5
170
     0
171
     0
290
     0
174
     0
 93
        1
 44
0.0
173
     0
291
     1
 45
0.0
1001
ACAD
1000
AcDbSavedByObjectVersion
1070
     0
  0
VISUALSTYLE
  5
1E8E
102
{ACAD_XDICTIONARY
360
2136
102
}
102
{ACAD_REACTORS
330
1E84
102
}
330
1E84
100
AcDbVisualStyle
  2
Realistic
 70
     8
 71
     2
 72
     3
 73
     0
 90
        2
 40
-0.6
 41
30.0
 62
     5
 63
     7
421
 16777215
 74
     0
 91
        0
 64
     7
 65
   257
 75
     1
175
     1
 42
1.0
 92
        8
 66
   257
 43
1.0
 76
     1
 77
     6
 78
     2
 67
     7
 79
     3
170
     0
171
     0
290
     0
174
     0
 93
       13
 44
0.0
173
     0
291
     0
 45
0.0
1001
ACAD
1000
AcDbSavedByObjectVersion
1070
     0
  0
VISUALSTYLE
  5
1E99
102
{ACAD_XDICTIONARY
360
214C
102
}
102
{ACAD_REACTORS
330
1E84
102
}
330
1E84
100
AcDbVisualStyle
  2
Shaded
 70
    27
 71
     2
 72
     2
 73
     1
 90
        2
 40
-0.6
 41
30.0
 62
     5
 63
     7
421
 16777215
 74
     0
 91
        4
 64
     7
 65
   257
 75
     1
175
     1
 42
1.0
 92
        8
 66
   257
 43
1.0
 76
     1
 77
     6
 78
     2
 67
     8
425
  7895160
 79
     3
170
     0
171
     0
290
     0
174
     0
 93
        5
 44
0.0
173
     0
291
     0
 45
0.0
1001
ACAD
1000
AcDbSavedByObjectVersion
1070
     0
  0
VISUALSTYLE
  5
1E98
102
{ACAD_XDICTIONARY
360
214A
102
}
102
{ACAD_REACTORS
330
1E84
102
}
330
1E84
100
AcDbVisualStyle
  2
Shaded with edges
 70
    26
 71
     2
 72
     2
 73
     1
 90
        2
 40
-0.6
 41
30.0
 62
     5
 63
     7
421
 16777215
 74
     1
 91
       10
 64
     7
 65
   257
 75
     2
175
     1
 42
1.0
 92
        8
 66
   257
 43
1.0
 76
     1
 77
     6
 78
     2
 67
     7
 79
     3
170
     0
171
     0
290
     0
174
     0
 93
        5
 44
0.0
173
     0
291
     0
 45
0.0
1001
ACAD
1000
AcDbSavedByObjectVersion
1070
     0
  0
VISUALSTYLE
  5
1E95
102
{ACAD_XDICTIONARY
360
2144
102
}
102
{ACAD_REACTORS
330
1E84
102
}
330
1E84
100
AcDbVisualStyle
  2
Shades of Gray
 70
    23
 71
     2
 72
     2
 73
     3
 90
        0
 40
-0.6
 41
-30.0
 62
     5
 63
     7
421
 16777215
 74
     2
 91
        2
 64
     7
 65
     7
 75
     1
175
     1
 42
40.0
 92
        8
 66
     7
 43
1.0
 76
     1
 77
     6
 78
     2
 67
     7
 79
     3
170
     0
171
     0
290
     0
174
     0
 93
        1
 44
0.0
173
     0
291
     0
 45
0.0
1001
ACAD
1000
AcDbSavedByObjectVersion
1070
     0
  0
VISUALSTYLE
  5
1E96
102
{ACAD_XDICTIONARY
360
2146
102
}
102
{ACAD_REACTORS
330
1E84
102
}
330
1E84
100
AcDbVisualStyle
  2
Sketchy
 70
    24
 71
     1
 72
     2
 73
     2
 90
        0
 40
-0.6
 41
-30.0
 62
     5
 63
     7
421
 16777215
 74
     2
 91
        2
 64
     7
 65
     7
 75
     1
175
     1
 42
40.0
 92
       11
 66
     7
 43
1.0
 76
     1
 77
     6
 78
     2
 67
     7
 79
     6
170
     0
171
     0
290
     0
174
     0
 93
        1
 44
0.0
173
     0
291
     0
 45
0.0
1001
ACAD
1000
AcDbSavedByObjectVersion
1070
     0
  0
VISUALSTYLE
  5
1E91
102
{ACAD_XDICTIONARY
360
213C
102
}
102
{ACAD_REACTORS
330
1E84
102
}
330
1E84
100
AcDbVisualStyle
  2
Thicken
 70
    13
 71
     2
 72
     2
 73
     0
 90
        0
 40
-0.6
 41
-30.0
 62
     5
 63
     7
421
 16777215
 74
     1
 91
        4
 64
     7
 65
   257
 75
     1
175
     1
 42
1.0
 92
       12
 66
     7
 43
1.0
 76
     1
 77
     6
 78
     2
 67
     7
 79
     5
170
     0
171
     0
290
     0
174
     0
 93
        1
 44
0.0
173
     0
291
     1
 45
0.0
1001
ACAD
1000
AcDbSavedByObjectVersion
1070
     0
  0
VISUALSTYLE
  5
1E8B
102
{ACAD_XDICTIONARY
360
2130
102
}
102
{ACAD_REACTORS
330
1E84
102
}
330
1E84
100
AcDbVisualStyle
  2
Wireframe
 70
     5
 71
     0
 72
     2
 73
     0
 90
        0
 40
-0.6
 41
-30.0
 62
     5
 63
     7
421
 16777215
 74
     1
 91
        4
 64
     7
 65
   257
 75
     1
175
     1
 42
1.0
 92
        0
 66
   257
 43
1.0
 76
     1
 77
     6
 78
     2
 67
     7
 79
     3
170
     0
171
     0
290
     0
174
     0
 93
        1
 44
0.0
173
     0
291
     0
 45
0.0
1001
ACAD
1000
AcDbSavedByObjectVersion
1070
     0
  0
VISUALSTYLE
  5
1E97
102
{ACAD_XDICTIONARY
360
2148
102
}
102
{ACAD_REACTORS
330
1E84
102
}
330
1E84
100
AcDbVisualStyle
  2
X-Ray
 70
    25
 71
     2
 72
     2
 73
     1
 90
        1
 40
0.5
 41
-30.0
 62
     5
 63
     7
421
 16777215
 74
     1
 91
        0
 64
     7
 65
   257
 75
     1
175
     1
 42
1.0
 92
        8
 66
     7
 43
1.0
 76
     1
 77
     6
 78
     2
 67
     7
 79
     3
170
     0
171
     0
290
     0
174
     0
 93
       13
 44
0.0
173
     0
291
     0
 45
0.0
1001
ACAD
1000
AcDbSavedByObjectVersion
1070
     0
  0
DICTIONARYVAR
  5
211C
102
{ACAD_REACTORS
330
2119
102
}
330
2119
100
DictionaryVariables
280
     0
  1
1:1
  0
DICTIONARYVAR
  5
211B
102
{ACAD_REACTORS
330
2119
102
}
330
2119
100
DictionaryVariables
280
     0
  1
STANDARD
  0
DICTIONARYVAR
  5
211A
102
{ACAD_REACTORS
330
2119
102
}
330
2119
100
DictionaryVariables
280
     0
  1
STANDARD
  0
DICTIONARYVAR
  5
211D
102
{ACAD_REACTORS
330
2119
102
}
330
2119
100
DictionaryVariables
280
     0
  1
2
  0
DICTIONARY
  5
1F7D
102
{ACAD_REACTORS
330
1F74
102
}
330
1F74
100
AcDbDictionary
281
     1
  0
DICTIONARY
  5
2117
330
1EC9
100
AcDbDictionary
280
     1
281
     1
  3
ADSK_XREC_LAYOUTTHUMBNAIL
360
2118
  0
DICTIONARY
  5
1E75
330
1E74
100
AcDbDictionary
280
     1
281
     1
  3
ACAD_XREC_ROUNDTRIP
360
2122
  3
BUMPTILE
360
1E77
  3
DIFFUSETILE
360
1E76
  3
OPACITYTILE
360
1E7A
  3
REFLECTIONTILE
360
1E79
  3
REFRACTIONTILE
360
1E7B
  3
SPECULARTILE
360
1E78
  0
DICTIONARY
  5
1E6D
330
1E6C
100
AcDbDictionary
280
     1
281
     1
  3
ACAD_XREC_ROUNDTRIP
360
2121
  3
BUMPTILE
360
1E6F
  3
DIFFUSETILE
360
1E6E
  3
OPACITYTILE
360
1E72
  3
REFLECTIONTILE
360
1E71
  3
REFRACTIONTILE
360
1E73
  3
SPECULARTILE
360
1E70
  0
DICTIONARY
  5
1E7D
330
1E7C
100
AcDbDictionary
280
     1
281
     1
  3
ACAD_XREC_ROUNDTRIP
360
2123
  3
BUMPTILE
360
1E7F
  3
DIFFUSETILE
360
1E7E
  3
OPACITYTILE
360
1E82
  3
REFLECTIONTILE
360
1E81
  3
REFRACTIONTILE
360
1E83
  3
SPECULARTILE
360
1E80
  0
DICTIONARY
  5
211E
330
1EBF
100
AcDbDictionary
280
     1
281
     1
  3
ACAD_ROUNDTRIP_2008_TABLESTYLE_CELLSTYLEMAP
360
211F
  3
ACAD_XREC_ROUNDTRIP
360
2154
  0
DICTIONARY
  5
212E
330
1E8A
100
AcDbDictionary
280
     1
281
     1
  3
ACAD_XREC_ROUNDTRIP
360
212F
  0
DICTIONARY
  5
212C
330
1E89
100
AcDbDictionary
280
     1
281
     1
  3
ACAD_XREC_ROUNDTRIP
360
212D
  0
DICTIONARY
  5
213A
330
1E90
100
AcDbDictionary
280
     1
281
     1
  3
ACAD_XREC_ROUNDTRIP
360
213B
  0
DICTIONARY
  5
2142
330
1E94
100
AcDbDictionary
280
     1
281
     1
  3
ACAD_XREC_ROUNDTRIP
360
2143
  0
DICTIONARY
  5
2134
330
1E8D
100
AcDbDictionary
280
     1
281
     1
  3
ACAD_XREC_ROUNDTRIP
360
2135
  0
DICTIONARY
  5
2138
330
1E8F
100
AcDbDictionary
280
     1
281
     1
  3
ACAD_XREC_ROUNDTRIP
360
2139
  0
DICTIONARY
  5
2152
330
1E9C
100
AcDbDictionary
280
     1
281
     1
  3
ACAD_XREC_ROUNDTRIP
360
2153
  0
DICTIONARY
  5
2140
330
1E93
100
AcDbDictionary
280
     1
281
     1
  3
ACAD_XREC_ROUNDTRIP
360
2141
  0
DICTIONARY
  5
2124
330
1E85
100
AcDbDictionary
280
     1
281
     1
  3
ACAD_XREC_ROUNDTRIP
360
2125
  0
DICTIONARY
  5
2126
330
1E86
100
AcDbDictionary
280
     1
281
     1
  3
ACAD_XREC_ROUNDTRIP
360
2127
  0
DICTIONARY
  5
2128
330
1E87
100
AcDbDictionary
280
     1
281
     1
  3
ACAD_XREC_ROUNDTRIP
360
2129
  0
DICTIONARY
  5
212A
330
1E88
100
AcDbDictionary
280
     1
281
     1
  3
ACAD_XREC_ROUNDTRIP
360
212B
  0
DICTIONARY
  5
2132
330
1E8C
100
AcDbDictionary
280
     1
281
     1
  3
ACAD_XREC_ROUNDTRIP
360
2133
  0
DICTIONARY
  5
214E
330
1E9A
100
AcDbDictionary
280
     1
281
     1
  3
ACAD_XREC_ROUNDTRIP
360
214F
  0
DICTIONARY
  5
213E
330
1E92
100
AcDbDictionary
280
     1
281
     1
  3
ACAD_XREC_ROUNDTRIP
360
213F
  0
DICTIONARY
  5
2150
330
1E9B
100
AcDbDictionary
280
     1
281
     1
  3
ACAD_XREC_ROUNDTRIP
360
2151
  0
DICTIONARY
  5
2136
330
1E8E
100
AcDbDictionary
280
     1
281
     1
  3
ACAD_XREC_ROUNDTRIP
360
2137
  0
DICTIONARY
  5
214C
330
1E99
100
AcDbDictionary
280
     1
281
     1
  3
ACAD_XREC_ROUNDTRIP
360
214D
  0
DICTIONARY
  5
214A
330
1E98
100
AcDbDictionary
280
     1
281
     1
  3
ACAD_XREC_ROUNDTRIP
360
214B
  0
DICTIONARY
  5
2144
330
1E95
100
AcDbDictionary
280
     1
281
     1
  3
ACAD_XREC_ROUNDTRIP
360
2145
  0
DICTIONARY
  5
2146
330
1E96
100
AcDbDictionary
280
     1
281
     1
  3
ACAD_XREC_ROUNDTRIP
360
2147
  0
DICTIONARY
  5
213C
330
1E91
100
AcDbDictionary
280
     1
281
     1
  3
ACAD_XREC_ROUNDTRIP
360
213D
  0
DICTIONARY
  5
2130
330
1E8B
100
AcDbDictionary
280
     1
281
     1
  3
ACAD_XREC_ROUNDTRIP
360
2131
  0
DICTIONARY
  5
2148
330
1E97
100
AcDbDictionary
280
     1
281
     1
  3
ACAD_XREC_ROUNDTRIP
360
2149
  0
XRECORD
  5
2118
102
{ACAD_REACTORS
330
2117
102
}
330
2117
100
AcDbXrecord
280
     1
310
280000000001000096000000010008000000000000960000000000000000000000010000000000000000000000000000FFFFFF000000000000000000000000000000000000000000000000000000000000000000330000006600000099000000CC000000FF00000000330000333300006633000099330000CC330000FF3300
310
0000660000336600006666000099660000CC660000FF66000000990000339900006699000099990000CC990000FF99000000CC000033CC000066CC000099CC0000CCCC0000FFCC000000FF000033FF000066FF000099FF0000CCFF0000FFFF000000003300330033006600330099003300CC003300FF003300003333003333
310
33006633330099333300CC333300FF33330000663300336633006666330099663300CC663300FF66330000993300339933006699330099993300CC993300FF99330000CC330033CC330066CC330099CC3300CCCC3300FFCC330000FF330033FF330066FF330099FF3300CCFF3300FFFF330000006600330066006600660099
310
006600CC006600FF00660000336600333366006633660099336600CC336600FF33660000666600336666006666660099666600CC666600FF66660000996600339966006699660099996600CC996600FF99660000CC660033CC660066CC660099CC6600CCCC6600FFCC660000FF660033FF660066FF660099FF6600CCFF6600
310
FFFF660000009900330099006600990099009900CC009900FF00990000339900333399006633990099339900CC339900FF33990000669900336699006666990099669900CC669900FF66990000999900339999006699990099999900CC999900FF99990000CC990033CC990066CC990099CC9900CCCC9900FFCC990000FF99
310
0033FF990066FF990099FF9900CCFF9900FFFF99000000CC003300CC006600CC009900CC00CC00CC00FF00CC000033CC003333CC006633CC009933CC00CC33CC00FF33CC000066CC003366CC006666CC009966CC00CC66CC00FF66CC000099CC003399CC006699CC009999CC00CC99CC00FF99CC0000CCCC0033CCCC0066CC
310
CC0099CCCC00CCCCCC00FFCCCC0000FFCC0033FFCC0066FFCC0099FFCC00CCFFCC00FFFFCC000000FF003300FF006600FF009900FF00CC00FF00FF00FF000033FF003333FF006633FF009933FF00CC33FF00FF33FF000066FF003366FF006666FF009966FF00CC66FF00FF66FF000099FF003399FF006699FF009999FF00CC
310
99FF00FF99FF0000CCFF0033CCFF0066CCFF0099CCFF00CCCCFF00FFCCFF0000FFFF0033FFFF0066FFFF0099FFFF00CCFFFF00FFFFFF00000000000D0D0D001A1A1A00282828003535350043434300505050005D5D5D006B6B6B00787878008686860093939300A1A1A100AEAEAE00BBBBBB00C9C9C900D6D6D600E4E4E400
310
F1F1F100FFFFFF000000000000000000000000000000000000000000000000000000000000000000000000000000000000000000000000000000000000000000000000000000000000000000000000000000000000000000F5F5F5F5F5F5F5F5F5F5F5F5F5F5F5F5F5F5F5F5F5F5F5F5F5F5F5F5F5F5F5F5F5F5F5F5F5F5F5
310
F5F5F5F5F5F5F5F5F5F5F5F5F5F5F5F5F5F5F5F5F5F5F5F5F5F5F5F5F5F5F5F5F5F5F5F5F5F5F5F5F5F5F5F5F5F5F5F5F5F5F5F5F5F5F5F5F5F5F5F5F5F5F5F5F5F5F5F5F5F5F5F5F5F5F5F5F5F5F5F5F5F5F5F5F5F5F5F5F5F5F5F5F5F5F5F5F5F5F5F5F5F5F5F5F5F5F5F5F5F5F5F5F5F5F5F5F5F5F5F5F5F5F5F5F5F5F5
310
F5F5F5F5F5F5F5F5F5F50000000000000000000000000000000000000000000000000000000000000000000000000000000000000000000000000000000000000000000000000000000000000000000000000000000000000000F5000000000000000000000000000000000000000000000000000000000000000000000000
310
00000000000000000000000000000000000000000000000000000000000000000000000000000000000000000000000000000000000000000000000000000000000000000000000000000000000000000000000000000000000000000000000000000000000000000000000000000000000000000000000000000000000000
310
0000000000000000000000F50000000000000000000000000000000000000000000000000000000000000000000000000000000000000000000000000000000000000000000000000000000000000000000000000000000000000000F500000000000000000000000000000000000000000000000000000000000000000000
310
00000000000000000000000000000000000000000000000000000000000000000000000000000000000000000000000000000000000000000000000000000000F5F5F5F5F5F5F5F5F5F5F5F5F5F5F5F5F5F5F5F5F5F5F5F5F5F5F5F5F5F5F5F5F5F5F5F5F5F5F5F5F5F5F5F5F5F5F5F5F5F5F5F5F5F5F5F5F5F5F5F5F5F5F5
310
F5F5F5F5F5F5F5F5F5F5F5F500F50000000000000000000000000000000000000000000000000000000000000000000000000000000000000000000000000000000000000000000000000000000000000000000000000000000000000000F50000000000000000000000000000000000000000000000000000002900000000
310
000000000000000000000000000000000000000000000000000000000000000000000000000000000000000000000000000000000000000000000000000000000000F50000000000000000000000000000000000000000000000000000000000000000000000000000000000F5000000000000000000000000000000000000
310
00000000F50000000000000000F500F50000000000000000000000000000000000000000000000000000000000000000000000000000000000000000000000000000000000000000000000000000000000000000000000000000000000000000F5000000292900292929292929292929290000292929290029002929292929
310
2929292929000000000000000000000000000000000000000000000000000000000000000000000000000000000000000000000000000000000000000000000000000000F500F5F5F5F5F5F5F5F50000002929002929290000000000000000000000000000000000000000000000F500000000000000000000000000000000
310
000000000000F50000000000000000F500F50000000000000000000000000000000000000000000000000000000000000000000000000000000000000000000000000000000000000000000000000000000000000000000000000000000000000000F500000029292929292929292929292929000029292929002929292929
310
29292929292929000000000000000000000000000000000000000000000000000000000000000000000000000000000000000000000000000000000000000000000000000000F500F5F5F5F5F5F5F5F50000002929292929290000000000000000000000000000000000000000000000F52900002900292900290000002929
310
0000290000290000F50000000000000000F500F50000000000000000000000000000000000000000000000000000000000000000000000000000000000000000000000000000000000000000000000000000000000000000000000000000000000000000F50000000000000000292900002900290000000000000000000000
310
000000000000002900000000000000000000000000000000000000000000000000000000000000000000000000000000000000000000000000000000000000000000000000000000F50000000000000000000000002900002929290000000000000000000000000000000000000000000000F5290000290029290029290029
310
29292929002900290000F50000000000000000F500F50000000000000000000000000000000000000000000000000000000000000000000000000000000000000000000000000000000000000000000000000000000000000000000000000000000000000000F5000000002900292900292929292929290000292929292929
310
2929292929292929292900000000000000000000000000000000000000000000000000000000000000000000000000000000000000000000000000000000000000000000000000000000F5F5F5F5F5F5F5F5F5F5F5F5F5F5F5F5F5F5F5F5F5F5F5F5F5F5F5F5F5F5F5F5F5F5F5F5F5F5F5F5F5F5F529292929290029292900
310
290029292929292900290000F50000000000000000F500F50000000000000000000000000000000000000000000000000000000000000000000000000000000000000000000000000000000000000000000000000000000000000000000000000000000000000000F500000029002929292900292929292929002929292929
310
29292929292929292929292900000000000000000000000000000000000000000000000000000000000000000000000000000000000000000000000000000000000000000000000000000000F500F5F5F5F5F5F500002929000029292900002900290000000000000000000000000000000000000000F52900002929002929
310
2929000029290000290029002929F50000000000000000F500F50000000000000000000000000000000000000000000000000000000000000000000000000000000000000000000000000000000000000000000000000000000000000000000000000000000000000000F50000002929292929292929292929292900002929
310
292929292929292929292929292900000000000000000000000000000000000000000000000000000000000000000000000000000000000000000000000000000000000000000000000000000000F500F5F5F5F5F5F500002929292929292929292900290000000000000000000000000000000000000000F5000000000000
310
0000000000F500000000000000000000F50000000000000000F500F50000000000000000000000000000000000000000000000000000000000000000000000000000000000000000000000000000000000000000000000000000000000000000000000000000000000000000F5000000000000000000000000000000000000
310
0000000000000000000000000000000000000029290000000000000000000000000000000000000000000000000000000000000000000000000000000000000000000000000000000000000000000000F500F5F500F5000000292929000029292900002929290000000000000000000000000000000000000000F5000000F5
310
F5F5F5F5F5F5F5F500F5F5F5F50000000000F5F5F5F5F5F5F5F5F5F500F50000000000000000000000000000000000000000000000000000000000000000000000000000000000000000000000000000000000000000000000000000000000000000000000000000000000000000F500000000292929292929292929292900
310
29292929292929292929002929290000292929292929292929292929292929000000000000000000000000000000000000000000000000000000000000000000000000000000000000000000000000000000F50000000000000000000000000000000000000000000000000000000000000000000000000000000000F50000
310
00F5F5F5F5F5F5F5F5F500F5F5F5000000000000F5F5F5F5F5F5F5F5F5F500F50000000000000000000000000000000000000000000000000000000000000000000000000000000000000000000000000000000000000000000000000000000000000000000000000000000000000000F50000002929292929292929292929
310
290029292929292929292929002929290000292929292929292929292929292900000000000000000000000000000000000000000000000000000000000000000000000000000000000000000000000000000000F5F5F5F5F5F5F5F5F5F5F5F5F5F5F5F5F5F5F5F5F5F5F5F5F5F5F5F5F5F5F5F5F5F5F5F5F5F5F5F5F5F5F5
310
F5F5F5F5F5F5F5F5F5F5F5F5F5F5F5F5F5F5F5F5F5F5F5F5F5F5F5F5F5F5F5F500F50000000000000000000000000000000000000000000000000000000000000000000000000000000000000000000000000000000000000000000000000000000000000000000000000000000000000000F5000000000029292900000000
310
0029000000000000292900000000000000000000000029292900000000292900000000000000000000000000000000000000000000000000000000000000000000000000000000000000000000000000000000000000F500000000000000000000000000000000000000000000000000000000000000000000000000000000
310
000000000000000000000000000000000000000000000000000000000000000000F500F50000000000000000000000000000000000000000000000000000000000000000000000000000000000000000000000000000000000000000000000000000000000000000000000000000000000000000F500000029292929292929
310
29292929292929292929292929290029292929002929292929290029292929292929000000000000000000000000000000000000000000000000000000000000000000000000000000000000000000000000000000000000F50000000000000000000000000000000000000000000000000000000000000000000000000000
310
0000000000000000000000000000000000000000000000000000000000000000000000F500F50000000000000000000000000000000000000000000000000000000000000000000000000000000000000000000000000000000000000000000000000000000000000000000000000000000000000000F50000002929292929
310
292929292929292929292929292929290029292929002929292929290029292929292929000000000000000000000000000000000000000000000000000000000000000000000000000000000000000000000000000000000000F5000000000000000000000000000000000000000000000000000000000000000000000000
310
00000000000000000000000000000000000000000000000000000000000000000000000000F500F50000000000000000000000000000000000000000000000000000000000000000000000000000000000000000000000000000000000000000000000000000000000000000000000000000000000000000F5000000000000
310
0000000029292900000000292900000000000000002900000000000000000029002900000000000000000000000000000000000000000000000000000000000000000000000000000000000000000000000000000000000000000000F500000000000000000000000000000000000000000000000000000000000000000000
310
000000000000000000000000000000000000000000000000000000000000000000000000000000F500F50000000000000000000000000000000000000000000000000000000000000000000000000000000000000000000000000000000000000000000000000000000000000000000000000000000000000000F500000000
310
29292929000029292929292929000029292900002929290029292929292900000000000000000000000000000000000000000000000000000000000000000000000000000000000000000000000000000000000000000000000000000000F50000000000000000000000000000000000000000000000000000000000000000
310
0000000000000000000000000000000000000000000000000000000000000000000000000000000000F500F50000000000000000000000000000000000000000000000000000000000000000000000000000000000000000000000000000000000000000000000000000000000000000000000000000000000000000F50000
310
000029292929290029292929292929000029292900002929292929292929292929000000000000000000000000000000000000000000000000000000000000000000000000000000000000000000000000000000000000000000000000000000F5000000000000000000000000000000000029000000000000000000000000
310
00000000000000000000000000000000000000000000000000000000000000000000000000000000000000F500F50000000000000000000000000000000000000000000000000000000000000000000000000000000000000000000000000000000000000000000000000000000000000000000000000000000000000000F5
310
0000002929292929000029292929292929000029292900002929292929292929292929000000000000000000000000000000000000000000000000000000000000000000000000000000000000000000000000000000000000000000000000000000F500000000000000000000000000000000002900000000000000000000
310
000000000000000000000000000000000000000000000000000000000000000000000000000000000000000000F500F500000000000000000000000000000000000000000000000000000000000000000000000000000000000000000000000000000000000000000000000000000000000000000000000000000000000000
310
00F50000000000000000000000000000000000000000000000000000000000000000000000000000000000000000000000000000000000000000000000000000000000000000000000000000000000000000000000000000000000000000000000000000F50000000000000029292929292900290029292929002929292900
310
2929292929292900292929290000002900002900290029290000000000002929292929292900290000000000000000F500F50000000000000000000000000000000000000000000000000000000000000000000000000000000000000000000000000000000000000000000000000000000000000000000000000000000000
310
000000F50000000029292929290029292929292929292929292929292929290029290000290029292929292929292929290000000000000000000000000000000000000000000000000000000000000000000000000000000000000000000000000000000000F5000000000000002900292929290029002929002900292929
310
29000029002900292900292929290000002929292900290029292929000000000000292929292900290000000000000000F500F5000000000000000000000000000000000000000000000000000000000000000000000000000000000000000000000000000000000000000000000000000000000000000000000000000000
310
0000000000F50000000029292929290029292929292929292929292929292929292929292900292929292929292929292929290000000000000000000000000000000000000000000000000000000000000000000000000000000000000000000000000000000000F500000000000000292900292929292929292929290029
310
290029292929292929002929290029290000002900002929002929290029290000002929292929292900292900000000000000F500F500000000000000000000000000000000000000000000000000000000000000000000000000000000000000000000000000000000000000000000000000000000000000000000000000
310
00000000000000F50000002929290000000000000000000000000029000000290000000000000000000000000000000000000000000000000000000000000000000000000000000000000000000000000000000000000000000000000000000000000000000000000000F50000000000000029000000000000000000000000
310
0000000000000000000000000000000000000000002900002929002929292929000000002929292929292929002900000000000000F500F50000000000000000000000000000000000000000000000000000000000000000000000000000000000000000000000000000000000000000000000000000000000000000000000
310
000000000000000000F50000002900292900292929000000000000000000000000000000000000000000000000000000000000000000000000000000000000000000000000000000000000000000000000000000000000000000000000000000000000000000000000000000F5F5F5F5F5F5F5F5F5F5F5F5F5F5F5F5F5F5F5
310
F5F5F5F5F5F5F5F5F5F5F5F5F5F5F5F5F5F5F5F5F5F5F5F5F5F5F5F5F5F5F5F5F5F5F5F5F5F5F5F5F5F5F5F5F5F5F5F5F5F5F5F5F5F5F5F500F5000000000000000000000000000000000000000000000000000000000000000000000000000000000000000000000000000000000000000000000000000000000000000000
310
0000000000000000000000F500000029292929292929290000000000000000000000000000000000000000000000000000000000000000000000000000000000000000000000000000000000000000000000000000000000000000000000000000000000000000000000000000000000000000000000000000000000000000
310
0000000000000000000000000000000000000000000000000000000000000000000000000000000000000000000000000000000000000000000000F500000000000000000000000000000000000000000000000000000000000000000000000000000000000000000000000000000000000000000000000000000000000000
310
00000000000000000000000000F50000002900292929292929000000000000000000000000000000000000000000000000000000000000000000000000000000000000000000000000000000000000000000000000000000000000000000000000000000000000000000000000000000000000000000000000000000000000
310
00000000000000000000000000000000000000000000000000000000000000000000000000000000000000000000000000000000000000000000000000F50000000000000000000000000000000000000000000000000000000000000000000000000000000000000000000000000000000000000000000000000000000000
310
000000000000000000000000000000F5000000000000000000000000000000000000000000000000000000000000000000000000000000000000000000000000000000000000000000000000000000000000000000000000000000000000000000000000000000000000000000000000000000000000000000000000000000
310
000000000000000000000000000000000000000000000000000000000000000000000000000000000000000000000000000000000000000000000000000000F5000000000000000000000000000000000000000000000000000000000000000000000000000000000000000000000000000000000000000000000000000000
310
0000000000000000000000000000000000F500000000000000000000000000000000000000000000000000000000000000000000000000000000000000000000000000000000000000000000000000000000000000000000000000000000000000000000000000000000000000000000000000000000000000000000000000
310
0000000000000000000000000000000000000000000000000000000000000000000000000000000000000000000000000000000000000000000000000000000000F500000000000000000000000000000000000000000000000000000000000000000000000000000000000000000000000000000000000000000000000000
310
00000000000000000000000000000000000000F50000000000000000000000000000000000000000000000000000000000000000000000000000000000000000000000000000000000000000000000000000000000000000000000000000000000000000000000000000000000000000000000000000000000000000000000
310
00000000000000000000000000000000000000000000000000000000000000000000000000000000000000000000000000000000000000000000000000000000000000F50000000000000000000000000000000000000000000000000000000000000000000000000000000000000000000000000000000000000000000000
310
000000000000000000000000000000000000000000F5000000000000000000000000000000000000000000000000000000000000000000000000000000000000000000000000000000000000000000000000000000000000000000000000000000000000000000000000000000000000000000000000000000000000000000
310
000000000000000000000000000000000000000000000000000000000000000000000000000000000000000000000000000000000000000000000000000000000000000000F5000000000000000000000000000000000000000000000000000000000000000000000000000000000000000000000000000000000000000000
310
0000000000000000000000000000000000000000000000F500000000000000000000000000000000000000000000000000000000000000000000000000000000000000000000000000000000000000000000000000000000000000000000000000000000000000000000000000000000000000000000000000000000000000
310
0000000000000000000000000000000000000000000000000000000000000000000000000000000000000000000000000000000000000000000000000000000000000000000000F500000000000000000000000000000000000000000000000000000000000000000000000000000000000000000000000000000000000000
310
00000000000000000000000000000000000000000000000000F50000000000000000000000000000000000000000000000000000000000000000000000000000000000000000000000000000000000000000000000000000000000000000000000000000000000000000000000000000000000000000000000000000000000
310
00000000000000000000000000000000000000000000000000000000000000000000000000000000000000000000000000000000000000000000000000000000000000000000000000F50000000000000000000000000000000000000000000000000000000000000000000000000000000000000000000000000000000000
310
000000000000000000000000000000000000000000000000000000F500000000F5F5F5F5F5F5F5F5F5F5F5F5F5F5F5F5F5F5F5F5F5F5F5F5F5F5F5F5F5F5F5F5F5F5F5F5F5F5F5F5F5F5F5F5F5F5F5F5F500000000000000000000000000000000000000000000000000000000000000000000000000000000000000000000
310
000000000000000000000000000000000000000000000000000000F5F5F5F5F5F5F5F5F5F5F5F5F5F5F5F5F5F5F5F5F5F5F5F5F5F5F5F5F5F5F5F5F5F5F5F5F5F500000000000000000000F5000000000000000000000000000000000000000000000000000000000000000000000000000000000000000000000000000000
310
0000000000000000000000000000000000000000000000000000000000F50000000000F5F5000000000000F5F5F500000000000000000000000000000000000000000000000000000000000000000000000000F5F5F5F5F5F5F5F5F5F5F5F5F5F5F5F5F5F5F5F5F5F5F5F5F5F5F5F5F5F5F5F5F5F5F5F5F5F5F5F5F5F5F5F5
310
F5F5F5F5F5F5F5F50000000000000000000000000000000000000000F5F5F5F5F5F5F5F5F5F5F5F5F5F5F5F5F5F5F5F5F5F5F5F5F5F5F5F5F5F5F5F5F5F5F5F5F5F5F5F5000000000000000000F500000000000000000000000000000000000000000000000000000000000000000000000000000000000000000000000000
310
00000000000000000000000000000000000000000000000000000000000000F50000000000F5F5000000000000F5F5F5F5F5F5F5F5F5F5F5F5F5F5F5F5F5F5F5F5F5F5F5F5F5F5F5F5F5F5F5F5F5F5F5F5F5F5F5F5F5F5F5F5F5F5F5F5F5F5F5F5F5F5F5F5F5F5F5F5F5F5F5F5F5F5F5F5F5F5F5F5F5F5F5F5F5F5F5F50000
310
00000000000000F5F5000000000000000000000000000000000000000000F5F5F5F5F5F5F5F5F5F5F5F5F5F5F5F5F5F5F5F5F5F5F5F5F5F5F5F5F5F5F5F5F5F5F5F5F5F5F5F5000000000000000000F50000000000000000000000000000000000000000000000000000000000000000000000000000000000000000000000
310
000000000000000000000000000000000000000000000000000000000000000000F50000000000F50000000000000000F5F5000000000000000000000000000000000000000000000000000000000000000000000000000000000000000000000000000000000000000000F5F5F5F5F5F5F5F5F5F5F5F5F5F5F5F5F5F5F5F5
310
000000000000000000F5F50000000000000000000000000000F5F5F5F5F5F5F5F5F5000000000000000000000000000000000000000000000000000000000000000000000000F5F5000000000000000000F5000000000000000000000000000000000000000000000000000000000000000000000000000000000000000000
310
0000000000000000000000000000000000000000000000000000000000000000000000F50000000000F5000000000000000000F500F5F5F5F5F5F5F5F5F5F5F5F5F5F5F5F5F5F5F5F5F5F5F5F5F5F5F5F5F5F5F5F5F5F5F5F5F5F5F5F5F5F5F5F5F5F5F5F5F5F5F5F5F5F50000F50000000000000000000000000000000000
310
00F5000000000000000000F5000000000000000000F5F5F5F5F5F5F5F5F5F5F5F5F5F5F5000000000000000000000000000000000000000000000000000000000000000000000000F500000000000000000000F500000000000000000000000000000000000000000000000000000000000000000000000000000000000000
310
00000000000000000000000000000000000000000000000000000000000000000000000000F5000000000000000000000000000000F500F500000000000000000000000000000000000000000000000000000000000000000000000000000000000000000000000000000000F50000F5000000000000000000000000000000
310
000000F5000000000000000000F500000000000000000000F50000F500F500000000000000F5000000000000000000000000000000000000000000000000000000000000000000000000F5F5F5F500F5F5F5F50000F50000000000000000000000000000000000000000000000000000000000000000000000000000000000
310
000000000000000000000000000000000000000000000000000000000000000000000000000000F500000000F500F50000000000000000F500F500000000000000000000000000000000000000000000000000000000000000000000000000000000000000000000000000000000F50000F50000000000F5F5F5F5F5F5F500
310
0000000000F5000000000000000000F500000000000000000000F50000F5F5F500000000000000F5000000000000000000000000000000000000000000000000000000000000000000000000F50000F50000F5F5000000F5000000000000000000000000000000000000000000000000000000000000000000000000000000
310
0000000000000000000000000000000000000000000000000000000000000000000000000000000000F500000000F5F5F50000000000000000F500F500000000000000000000000000000000000000000000000000000000000000000000000000000000000000000000000000000000F50000F50000000000F50000000000
310
F5000000000000F5000000000000000000F500000000000000000000F50000F500F500000000000000F5000000000000000000F50000F500F5F500F5000000F5F500F5F5F50000F5000000000000F50000F50000F5F5000000F500000000000000000000000000000000000000000000000000000000000000000000000000
310
00000000000000000000000000000000000000000000000000000000000000000000000000000000000000F500000000F5F5F50000000000000000F500F500000000000000000000000000000000000000000000000000000000000000000000000000000000000000000000000000000000F50000F50000000000F5000000
310
0000F5000000000000F5000000000000000000F500000000000000000000F50000F500F500000000000000F5000000000000000000F50000F500F5F500F50000F5F500F5F500F50000F5000000000000F50000F50000F500000000F50000000000000000000000000000000000000000000000000000000000000000000000
310
000000000000000000000000000000000000000000000000000000000000000000000000000000000000000000F500000000F5F5F50000000000000000F500F500000000000000000000000000000000000000000000000000000000000000000000000000000000000000000000000000000000F50000F50000000000F500
310
00000000F5000000000000F5000000000000000000F500000000000000000000F50000F500F500000000000000F5000000000000000000F5F5F5F500F5F5F5F5F5F500F5F5F5F5F5F50000F5000000000000F50000F50000F500000000F5000000000000000000000000000000000000000000000000000000000000000000
310
0000000000000000000000000000000000000000000000000000000000000000000000000000000000000000000000F500000000F5F5F50000000000000000F500F500000000000000000000000000000000000000000000000000000000000000000000000000000000000000000000000000000000F50000F50000000000
310
F50000000000F5000000000000F5000000000000000000F5F50000000000000000F5F5F500F500F500000000000000F5000000000000000000F50000F5F500F5F5F500F500F5F500F500F500F500F50000000000F50000F500000000000000F500000000000000000000000000000000000000000000000000000000000000
310
00000000000000000000000000000000000000000000000000000000000000000000000000000000000000000000000000F500000000F5F5F50000000000000000F500F5000000000000000000000000000000000000F50000F500F5F500F5000000F5F500F5F5F50000F500000000000000000000000000F50000F5000000
310
0000F50000000000F5000000000000F50000000000F5F500F5F500F500000000000000F5F5F500F500F500000000000000F5000000000000000000F50000F5F500F5F5F5F5F500F5F5F5F5F5F5F50000F50000000000F50000F500F5F5F5000000F50000000000000000000000000000000000000000000000000000000000
310
000000000000000000000000000000000000000000000000000000000000000000000000000000000000000000000000000000F5000000000000000000000000000000F500F5000000000000000000000000000000000000F50000F500F5F500F5000000F500F5F500F50000F500000000000000000000000000F50000F500
310
00000000F50000000000F5000000000000F500000000F5F5F50000F5F50000000000000000F5F5F500F500F500000000000000F50000F5000000000000000000000000000000000000000000000000000000000000000000F50000F500F5F5F5000000F5000000000000000000000000000000000000000000000000000000
310
0000000000000000000000000000000000000000000000000000000000000000000000000000000000000000000000000000000000F5000000000000000000000000000000F500F5000000000000000000000000000000000000F5F5F5F500F5F5F5F5F5F500F5F5F5F5F5F50000F500000000000000000000000000F50000
310
F50000000000F50000000000F5000000000000F500000000F5F5F50000F5F50000000000000000F5F5F500F500F500000000000000F5F5F5F5F5F5F50000000000000000000000000000000000000000000000000000F5F5F5F5F50000F500F5F5F5000000F500000000000000000000000000000000000000000000000000
310
00000000000000000000000000000000000000000000000000000000000000000000000000000000000000000000000000000000000000F500000000F5F5F50000000000000000F500F5000000000000000000000000000000000000F50000F5F500F5F5F500F500F50000F500F500F500F5000000000000000000000000F5
310
0000F50000000000F50000000000F5000000000000F500000000F5F5F500F5F5F5F500000000000000F5F5F500F500F500000000000000F500F5F5F5F5F5000000000000000000000000000000000000000000000000F5F5F5F5F5F5F50000F500F5F5F5000000F50000000000000000000000000000000000000000000000
310
000000000000000000000000000000000000000000000000000000000000000000000000000000000000000000000000000000000000000000F500000000F500F50000000000000000F500F5000000000000000000000000000000000000F50000F5F500F5F5F5F50000F5F5F500F500F50000F50000000000000000000000
310
00F50000F50000000000F50000000000F5000000000000F50000000000F5F500F5F5F5F500000000000000F500F500F500F500000000000000F50000F500F5F500000000000000000000000000000000000000000000000000F5F5000000F50000F500F500F5000000F5000000000000000000000000000000000000000000
310
0000000000000000000000000000000000000000000000000000000000000000000000000000000000000000000000000000000000000000000000F500000000F5F5F50000000000F50000F500F500000000000000000000000000000000000000000000000000000000000000000000000000000000000000000000000000
310
000000F50000F50000000000F50000000000F5000000000000F500F5000000F50000F5F500F500000000000000F5F50000F500F500000000000000F500F50000F5F5F5F5F5F5F5F500000000000000000000000000000000000000000000F500F50000F500F5F500000000F500000000000000000000000000000000000000
310
00000000000000000000000000000000000000000000000000000000000000000000000000000000000000000000000000000000000000000000000000F50000000000F500000000F5F5F5F5F5F500F50000000000000000000000000000000000000000000000000000000000000000000000000000000000000000000000
310
0000000000F50000F50000000000F5F5F5F5F5F5F5000000000000F5F5F5F5F5F5F5F5F500F500000000000000000000F50000F5F5F500000000000000F5F5F5F5F5F5000000F5000000000000000000000000000000000000000000000000F5F5F5F50000F500000000000000F50000000000000000000000000000000000
310
000000000000000000000000000000000000000000000000000000000000000000000000000000000000000000000000000000000000000000000000000000F500000000F50000000000F5F5F5F5F5F500F5000000000000000000000000000000000000000000000000000000000000000000000000000000000000000000
310
00000000000000F50000F5000000000000000000000000000000000000F5F5F5F5F500F5F50000F500000000000000000000F50000F500F500000000000000F500F5F5F500000000F500F5F5F5F500000000000000000000000000000000000000F5F500F50000F50000F500000000F5000000000000000000000000000000
310
0000000000000000000000000000000000000000000000000000000000000000000000000000000000000000000000000000000000000000000000000000000000F500000000F5F5F500000000000000F5F500F500000000000000000000000000000000000000000000000000000000000000000000000000000000000000
310
000000000000000000F50000F5000000000000000000000000000000000000F50000000000F5F50000F500000000000000000000F50000F500F500000000000000F50000F5F500000000F50000F5F5F500000000000000000000000000000000000000F50000F50000F50000F500000000F500000000000000000000000000
310
00000000000000000000000000000000000000000000000000000000000000000000000000000000000000000000000000000000000000000000000000000000000000F50000000000F5F500000000000000F5F500F50000000000000000000000000000000000000000000000000000000000000000000000000000000000
310
0000000000000000000000F50000F5000000000000000000000000000000000000F50000000000F5000000F500000000000000000000F50000F500F500000000000000F50000F5F5F5000000F5F5F5F5F5F500000000000000000000000000000000000000F50000F50000F50000F500000000F50000000000000000000000
310
000000000000000000000000000000000000000000000000000000000000000000000000000000000000000000000000000000000000000000000000000000000000000000F50000000000F50000000000000000F5F500F5000000000000000000000000000000000000000000000000000000000000000000000000000000
310
00000000000000000000000000F50000F5000000000000000000000000000000000000F50000000000F5000000F500000000000000000000F50000F500F500000000000000F50000F5F5F5F5F5F5F5F5F5F5000000000000000000000000000000000000000000F50000F50000F50000F5F5000000F5000000000000000000
310
0000000000000000000000000000000000000000000000000000000000000000000000000000000000000000000000000000000000000000000000000000000000000000000000F50000000000F50000000000000000F5F500F5F5F5F5F5F5F5F5F5F5F5F5F5F5F5F5F5F5F5F5F5F5F5F5F5F5F5F5F5F5F5F5F5F5F5F5F5F5
310
F5F5F5F5F5F5F5F5F5F5F5F5F5F5F5F50000F5000000000000000000000000000000000000F50000000000F5000000F5000000000000000000F5F5F5F5F5F5F5F5F5F5F5F5F5F5F5F5F5F5F5F5F50000F5F5F5F5F5F500000000000000000000000000000000000000F5F5F5F50000F50000F5F5000000F500000000000000
310
00000000000000000000000000000000000000000000000000000000000000000000000000000000000000000000000000000000000000000000000000000000000000000000000000F50000000000F5F50000000000000000F500F50000000000000000000000000000000000000000000000000000000000000000000000
310
0000000000000000000000000000000000F50000F5000000000000000000000000000000000000F50000000000F5F50000F5F50000000000000000000000000000F500000000000000F500000000F5000000F5F5F5F5F5F500000000000000000000000000000000000000000000F5F5F5F500F5F5F5F50000F50000000000
310
000000000000000000000000000000000000000000000000000000000000000000000000000000000000000000000000000000000000000000000000000000000000000000000000000000F50000000000F5F500000000000000F5F500F5000000000000000000000000000000000000000000000000000000000000000000
310
00000000000000000000000000000000000000F50000F5F5F5F5F5F5F5F5F5F5F5F5F5F5F5F5F5F5F5F50000000000F5F50000F5F50000000000000000000000000000F5F5F5F5F5F5F5F5F500000000F5000000F5F5F5F5F50000000000000000000000000000000000000000000000F5F5000000000000000000F5000000
310
0000000000000000000000000000000000000000000000000000000000000000000000000000000000000000000000000000000000000000000000000000000000000000000000000000000000F500000000F5F5F5F5F5F5F5F5F500F5F5F5F5F5F5F5F5F5F5F5F5F5F5F5F5F5F5F5F5F5F5F5F5F5F5F5F5F5F5F5F5F5F5F5
310
F5F5F5F5F5F5F5F5F5F5F5F5F5F5F5F5F5F5F5F5F5F5F5F5F5F5F5F5F5F5F5F5F5F5F5F5F5F5F5F5F5F5F5F500F5F5F5F5F5F5F5F5F5F5F500000000000000F5F5F5F5F5F5F5F5F5F5F5F5F5F5F5F5F5F5F5F5F5F5F5F5F5F5F5F5F5F5F5F5F5F5F5F5F5F5F5F5F5F5F5F5F5F5F5F5F5F5F5F5F500F5F5F5F5F5F50000F500
310
00000000000000000000000000000000000000000000000000000000000000000000000000000000000000000000000000000000000000000000000000000000000000000000000000000000000000F50000000000000000000000000000F50000F50000000000000000000000000000000000000000000000000000000000
310
0000000000000000000000000000000000000000000000F5000000000000000000000000000000000000000000F50000000000000000000000000000000000000000F50000000000000000000000F50000000000F500000000000000000000000000000000000000000000000000000000000000000000000000F5F5000000
310
F50000000000000000000000000000000000000000000000000000000000000000000000000000000000000000000000000000000000000000000000000000000000000000000000000000000000000000F500000000F5F5F5F5F50000000000F50000F50000000000000000000000000000000000000000000000F50000F5
310
F5F50000000000000000000000000000000000000000000000F5000000000000000000000000000000000000000000F50000000000000000000000000000000000000000F50000000000000000000000F50000000000F500000000000000000000000000000000000000000000000000000000000000000000000000F5F500
310
0000F50000000000000000000000000000000000000000000000000000000000000000000000000000000000000000000000000000000000000000000000000000000000000000000000000000000000000000F500000000F5F5F5F5F5F5F5F5F5F5F50000F5F5F5F5F5F5F5F5F5F5F5F5F5F5F5F5F5F5F5F5F5F5F50000F5
310
F5F5F5F500F5F5F5F5F5F5F5F5F5F5F5F5F5F5F5F5F5F5F5F5F5F5F5000000000000000000000000000000000000000000F50000000000000000000000000000000000000000F50000000000000000000000F50000000000F5000000F5F5F5F5000000000000000000000000000000000000000000000000000000000000F5
310
00000000F50000000000000000000000000000000000000000000000000000000000000000000000000000000000000000000000000000000000000000000000000000000000000000000000000000000000000000F500000000F5F5F5F5F50000000000F50000F50000000000000000000000000000000000000000000000
310
F5F500F5F5F50000000000000000000000000000000000000000000000F5000000000000000000000000000000000000000000F50000000000000000000000000000000000000000F50000000000000000000000F5F5F5F5F5F5F5F5F500F5F5F5F50000000000000000000000000000000000000000000000000000000000
310
00F500000000F50000000000000000000000000000000000000000000000000000000000000000000000000000000000000000000000000000000000000000000000000000000000000000000000000000000000000000F50000000000000000000000000000F5000000000000000000000000000000000000000000000000
310
0000000000000000000000000000000000000000000000000000000000000000000000000000000000000000000000000000000000F50000000000000000000000000000000000000000000000000000000000000000F5F5F500F5F5F5000000F5F5F5F5000000000000000000000000000000000000000000000000000000
310
0000000000000000F50000000000000000000000000000000000000000000000000000000000000000000000000000000000000000000000000000000000000000000000000000000000000000000000000000000000000000F50000000000000000000000000000F500000000000000000000000000000000000000000000
310
00000000000000000000000000000000000000000000000000000000000000000000000000000000000000000000000000000000000000F50000000000000000000000000000000000000000F50000000000000000000000F50000000000F50000000000000000000000000000000000000000000000000000000000000000
310
00000000F5F5F5000000F50000000000000000000000000000000000000000000000000000000000000000000000000000000000000000000000000000000000000000000000000000000000000000000000000000000000000000F50000000000000000000000000000F500F5000000000000000000000000000000000000
310
0000000000000000000000F5F5F5F5F5F50000F5F5F500F5F5000000000000000000000000000000000000000000000000000000000000F500F500000000000000000000000000000000000000F5F5F50000000000000000000000000000000000000000000000000000000000000000000000000000000000000000000000
310
000000000000F5F5F5000000F50000000000000000000000000000000000000000000000000000000000000000000000000000000000000000000000000000000000000000000000000000000000000000000000000000000000000000F50000000000000000000000000000F5F5F5F5F5F5F5F5F5F5F5F5F5F5F5F5F5F5F5
310
F5F5F5F5F5F5F5F5F5F5F5F500F5F5F5F5F5F50000F5F500F500F50000F5F5F5F5F5F5F5F5F5F5F5F5F5F5F5F5F5F5F5F5F5F5F5F5F5F5F5F5F5F5F50000000000000000000000000000000000000000F500000000000000000000000000000000000000000000000000000000000000000000000000000000000000000000
310
00000000000000000000F5000000F50000000000000000000000000000000000000000000000000000000000000000000000000000000000000000000000000000000000000000000000000000000000000000000000000000000000000000F50000000000000000000000000000F500000000000000000000000000000000
310
000000000000000000000000000000F500F5F500F50000F5F500F500F50000000000000000000000000000000000000000000000000000000000000000F500000000000000000000000000000000000000F5F5F500000000000000000000000000000000000000000000000000000000000000000000000000000000000000
310
00000000000000000000F5F5F5000000F50000000000000000000000000000000000000000000000000000000000000000000000000000000000000000000000000000000000000000000000000000000000000000000000000000000000000000F50000000000000000000000000000000000000000000000000000000000
310
00000000000000000000000000000000000000000000000000000000000000000000000000000000000000000000000000000000000000000000000000000000000000000000000000000000000000000000000000000000000000000000000000000000000000000000000000000000000000000000000000000000000000
310
000000000000000000000000000000000000F50000000000000000000000000000000000000000000000000000000000000000000000000000000000000000000000000000000000000000000000000000000000000000000000000000000000000000F5000000000000000000000000000000000000000000000000000000
310
00000000000000000000000000000000000000000000000000000000000000000000000000000000000000000000000000000000000000000000000000000000000000000000000000000000000000000000000000000000000000000000000000000000000000000000000000000000000000000000000000000000000000
310
0000000000000000000000000000000000000000F50000000000000000000000000000000000000000000000000000000000000000000000000000000000000000000000000000000000000000000000000000000000000000000000000000000000000000F500000000000000000000000000000000000000000000000000
310
00000000000000000000000000000000000000000000000000000000000000000000000000000000000000000000000000000000000000000000000000000000000000000000000000000000000000000000000000000000000000000000000000000000000000000000000000000000000000000000000000000000000000
310
00000000000000000000000000000000000000000000F50000000000000000000000000000000000000000000000000000000000000000000000000000000000000000000000000000000000000000000000000000000000000000000000000000000000000000F50000000000000000000000000000000000000000000000
310
00000000000000000000000000000000000000000000000000000000000000000000000000000000000000000000000000000000000000000000000000000000000000000000000000000000000000000000000000000000000000000000000000000000000000000000000000000000000000000000000000000000000000
310
000000000000000000000000000000000000000000000000F50000000000000000000000000000000000000000000000000000000000000000000000000000000000000000000000000000000000000000000000000000000000000000000000000000000000000000F5000000000000000000000000000000000000000000
310
00000000000000000000000000000000000000000000000000000000000000000000000000000000000000000000000000000000000000000000000000000000000000000000000000000000000000000000000000000000000000000000000000000000000000000000000000000000000000000000000000000000000000
310
0000000000000000000000000000000000000000000000000000F50000000000000000000000000000000000000000000000000000000000000000000000000000000000000000000000000000000000000000000000000000000000000000000000000000000000000000F500000000000000000000000000000000000000
310
00000000000000000000000000000000000000000000000000000000000000000000000000000000000000000000000000000000000000000000000000000000000000000000000000000000000000000000000000000000000000000000000000000000000000000000000000000000000000000000000000000000000000
310
00000000000000000000000000000000000000000000000000000000F50000000000000000000000000000000000000000000000000000000000000000000000000000000000000000000000000000000000000000000000000000000000000000000000000000000000000000F50000000000000000000000000000000000
310
00000000000000000000000000000000000000000000000000000000000000000000000000000000000000000000000000000000000000000000000000000000000000000000000000000000000000000000000000000000000000000000000000000000000000000000000000000000000000000000000000000000000000
310
000000000000000000000000000000000000000000000000000000000000F50000000000000000000000000000000000000000000000000000000000000000000000000000000000000000000000000000000000000000000000000000000000000000000000000000000000000000F5000000000000000000000000000000
310
00000000000000000000000000000000000000000000000000000000000000000000000000000000000000000000000000000000000000000000000000000000000000000000000000000000000000000000000000000000000000000000000000000000000000000000000000000000000000000000000000000000000000
310
0000000000000000000000000000000000000000000000000000000000000000F50000000000000000000000000000000000000000000000000000000000000000000000000000000000000000000000000000000000000000000000000000000000000000000000000000000000000000F5000000000000000000000000F5
310
000000000000000000000000F5F5F5F5F5F5F50000F5F5F50000F5F5F5F5F5F5F5F5F5F5F50000F5F5F50000F5F5F5F500F5F5F50000F5F5F500F5F50000F5F500F5F500F5F5F50000000000000000F500F5000000000000000000000000000000000000000000000000000000000000000000000000000000000000000000
310
00000000000000000000000000000000000000000000000000000000000000000000F50000000000000000000000000000000000000000000000000000000000000000000000000000000000000000000000000000000000000000000000000000000000000000000000000000000000000000F50000000000000000000000
310
00F5F5F5F5F5F5F5F5F5F5F5F5F5F5F5F5F5F5F5F50000F5F5F5F500F500F5F5F5F5F5F5F5F500000000F5F5F5F5F5F5F5F5F5F5F5F50000F5F5F500F5F50000F50000F5F5F5F5F5F5F5F5F5F5F5F5F5F5F5F5F500000000000000000000000000000000000000000000000000000000000000000000000000000000000000
310
000000000000000000000000000000000000000000000000000000000000000000000000F50000000000000000000000000000000000000000000000000000000000000000000000000000000000000000000000000000000000000000000000000000000000000000000000000000000000000000F5000000000000000000
310
000000F5000000000000000000000000F5F500F500F5F50000F5F5F5F5F5F5F5F5F5F5F5F500F5F5000000F5F5F5F5F5F5F5F5F500F5F5F50000F5F5F5F5F5F50000F5F5F5F5F5F5F5F5F50000000000000000F500F50000000000000000000000000000000000000000000000000000000000000000000000000000000000
310
0000000000000000000000000000000000000000000000000000000000000000000000000000F50000000000000000000000000000000000000000000000000000000000000000000000000000000000000000000000000000000000000000000000000000000000000000000000000000000000000000F500000000000000
310
0000000000F500000000000000000000000000000000000000000000000000000000000000000000000000000000000000000000000000000000000000000000000000000000000000000000000000000000000000F500F5000000000000000000000000000000000000000000000000000000000000000000000000000000
310
00000000000000000000000000000000000000000000000000000000000000000000000000000000F50000000000000000000000000000000000000000000000000000000000000000000000000000000000000000000000000000000000000000000000000000000000000000000000000000000000000000F50000000000
310
00000000000000F500F500000000000000000000000000000000000000000000F5F5F5F5F5F5F50000F500F500F5F5F5F5F5F5F500F5F5F50000F5F5F500F5F5F5F5000000000000000000000000000000000000000000F500F500000000000000000000000000000000000000000000000000000000000000000000000000
310
000000000000000000000000000000000000000000000000000000000000000000000000000000000000F50000000000000000000000000000000000000000000000000000000000000000000000000000000000000000000000000000000000000000000000000000000000000000000000000000000000000000F5000000
310
000000000000000000F500F5F5F5F5F5F5F5F5F5F5F5F5F5F5F5F5F5F5F5F5F5F500F5F5F5F5F5F5F50000F5F5F5F5F5F5F5F5F5F5F5F5F5F5F50000F5F5F500F5F5F5F5F5F5F5F5F5F5F5F5F5F5F5F5F5F5F5F5F5F5F5F5F5F500F50000000000000000000000000000000000000000000000000000000000000000000000
310
0000000000000000000000000000000000000000000000000000000000000000000000000000000000000000F50000000000000000000000000000000000000000000000000000000000000000000000000000000000000000000000000000000000000000000000000000000000000000000000000000000000000000F500
310
0000000000000000000000F500F5F5F50000000000000000000000000000000000000000F5F5F5F5F5F5F50000F500F5F500F5F5F5F5F5F500F5F5F50000F5F5F5F5F5F5F5F500000000000000000000000000000000000000F5F5F500F5000000000000000000000000000000000000000000000000000000000000000000
310
00000000000000000000000000000000000000000000000000000000000000000000000000000000000000000000F50000000000000000000000000000000000000000000000000000000000000000000000000000000000000000000000000000000000000000000000000000000000000000000000000000000000000000
310
F5000000000000000000000000F500F50000000000000000000000000000000000000000000000000000000000000000000000000000000000000000000000000000000000000000000000000000000000000000000000000000000000F500F500000000000000000000000000000000000000000000000000000000000000
310
000000000000000000000000000000000000000000000000000000000000000000000000000000000000000000000000F5000000000000000000000000000000000000000000000000000000000000000000000000000000000000000000000000000000000000000000000000000000000000000000000000000000000000
310
0000F5000000000000000000000000F500F50000000000000000000000000000000000000000000000000000000000000000000000000000000000000000000000000000000000000000000000000000000000000000000000000000000000F500F50000000000000000000000000000000000000000000000000000000000
310
0000000000000000000000000000000000000000000000000000000000000000000000000000000000000000000000000000F500000000000000000000000000000000000000000000000000000000000000000000000000000000000000000000000000000000000000000000000000000000000000000000000000000000
310
00000000F5000000000000000000000000F500F50000000000000000000000000000000000000000000000000000000000000000000000000000000000000000000000000000000000000000000000000000000000000000000000000000000000F500F5000000000000000000000000000000000000000000000000000000
310
00000000000000000000000000000000000000000000000000000000000000000000000000000000000000000000000000000000F50000000000000000000000000000000000000000000000000000000000000000000000000000000000000000000000000000000000000000000000000000000000000000000000000000
310
000000000000F5000000000000000000000000F500F50000000000000000000000000000000000000000000000000000000000000000000000000000000000000000000000000000000000000000000000000000000000000000000000000000000000F500F500000000000000000000000000000000000000000000000000
310
000000000000000000000000000000000000000000000000000000000000000000000000000000000000000000000000000000000000F5000000000000000000000000000000000000000000000000000000000000000000000000000000000000000000000000000000000000000000000000000000000000000000000000
310
0000000000000000F500000000F5F5F5F5F5F5F5F5F5F5F5F5F5F5F5F5F5F5F5F5F5F5F5F5F5F5F5F5F5F5F5F5F5F5F5F5F5F5F5F5F5F5F5F5F5F5F5F5F5F5F5F5F5F5F5F5F5F5F5F5F5F5F5F5F5F5F50000000000000000F5F5F5F5F5F5F5000000000000F500F50000000000000000000000000000000000000000000000
310
0000000000000000000000000000000000000000000000000000000000000000000000000000000000000000000000000000000000000000F500000000000000000000000000000000000000000000000000000000000000000000000000000000000000000000000000000000000000000000000000000000000000000000
310
00000000000000000000F50000000000F5F50000000000F500F50000F500000000000000000000000000000000000000000000000000000000000000000000000000000000000000000000000000000000F50000000000000000F50000000000F5000000000000F500F5000000000000000000000000000000000000000000
310
00000000000000000000000000000000000000000000000000000000000000000000000000000000000000000000000000000000000000000000F50000000000000000000000000000000000000000000000000000000000000000000000000000000000000000000000000000000000000000000000000000000000000000
310
000000000000000000000000F50000000000F5F50000000000F500F50000F500000000000000000000000000000000000000000000000000000000000000000000000000000000000000000000000000000000F50000F5F5F5F5F5F5F5F5F5F5F5F5F5F5F5F5F5F5F5F500F500000000000000000000000000000000000000
310
000000000000000000000000000000000000000000000000000000000000000000000000000000000000000000000000000000000000000000000000F5000000000000000000000000000000000000000000000000000000000000000000000000000000000000000000000000000000000000000000000000000000000000
310
0000000000000000000000000000F50000000000F5000000000000F500F50000F500000000000000000000000000000000000000000000000000000000000000000000000000000000000000000000000000000000F50000F5000000000000000000000000000000000000F500F50000000000000000000000000000000000
310
0000000000000000000000000000000000000000000000000000000000000000000000000000000000000000000000000000000000000000000000000000F500000000000000000000000000000000000000000000000000000000000000000000000000000000000000000000000000000000000000000000000000000000
310
00000000000000000000000000000000F50000000000F5000000000000F500F50000F500000000000000000000000000000000000000000000000000000000000000000000000000000000000000000000000000000000F50000F5000000000000000000000000000000000000F500F5000000000000000000000000000000
310
00000000000000000000000000000000000000000000000000000000000000000000000000000000000000000000000000000000000000000000000000000000F50000000000000000000000000000000000000000000000000000000000000000000000000000000000000000000000000000000000000000000000000000
310
000000000000000000000000000000000000F50000000000F5000000000000F500F50000F500000000000000000000000000000000000000000000000000000000000000000000000000000000000000000000000000000000F50000F5000000000000000000000000000000000000F500F500000000000000000000000000
310
000000000000000000000000000000000000000000000000000000000000000000000000000000000000000000000000000000000000000000000000000000000000F5000000000000000000000000000000000000000000000000000000000000000000000000000000000000000000000000000000000000000000000000
310
0000000000000000000000000000000000000000F50000000000F5000000000000F500F50000F500000000000000000000000000000000000000000000000000000000000000000000000000000000000000000000000000000000F50000F5000000000000000000000000000000000000F500F50000000000000000000000
310
0000000000000000000000000000000000000000000000000000000000000000000000000000000000000000000000000000000000000000000000000000000000000000F500000000000000000000000000000000000000000000000000000000000000000000000000000000000000000000000000000000000000000000
310
00000000000000000000000000000000000000000000F50000000000F5000000000000F500F50000F500000000000000000000000000000000000000000000000000000000000000000000000000000000000000000000000000000000F50000F5000000000000000000000000000000000000F500F5000000000000000000
310
00000000000000000000000000000000000000000000000000000000000000000000000000000000000000000000000000000000000000000000000000000000000000000000F50000000000000000000000000000000000000000000000000000000000000000000000000000000000000000000000000000000000000000
310
000000000000000000000000000000000000000000000000F50000000000F5000000000000F500F50000F500000000000000000000000000000000000000000000000000000000000000000000000000000000000000000000000000000000F50000F5000000000000000000000000000000000000F500F500000000000000
310
000000000000000000000000000000000000000000000000000000000000000000000000000000000000000000000000000000000000000000000000000000000000000000000000F5000000000000000000000000000000000000000000000000000000000000000000000000000000000000000000000000000000000000
310
0000000000000000000000000000000000000000000000000000F50000000000F5000000000000F500F5F5F5F5F5F5F5F5F5F5F5F5F5F5F5F5F5F5F5F5F5F5F5F5F5F5F5F5F5F5F5F5F5F5F5F5F5F5F5F5F5F5F5F5F5F5F5F5F5F5F5F5F5F5F5F5F5F5F5F5F5F5F5F5F5F5F5F5F5F5F5F5F5F5F5F5F5F5F500F50000000000
310
0000000000000000000000000000000000000000000000000000000000000000000000000000000000000000000000000000000000000000000000000000000000000000000000000000F500000000000000000000000000000000000000000000000000000000000000000000000000000000000000000000000000000000
310
00000000000000000000000000000000000000000000000000000000F50000000000F500000000F5F5F5F5F5F5F5F5F5F5F5F5F5F5F5F5F5F5F5F5F5F5F5F5F5F5F5F5F5F5F5F5F5F5F5F5F5F5F5F5F5F5F5F5F5F5F5F5F5F5F5F5F5F5F5F5F5F5F5F5F5F5F5F5F5F5F5F5F5F5F5F5F5F5F5F5F5F5F5F5F5F5F5F5F5F5F500
310
00000000000000000000000000000000000000000000000000000000000000000000000000000000000000000000000000000000000000000000000000000000000000000000000000000000F50000000000000000000000000000000000000000000000000000000000000000000000000000000000000000000000000000
310
000000000000000000000000000000000000000000000000000000000000F50000000000F500000000F5F5F500F5F5000000000000000000000000000000000000000000000000000000000000000000000000000000000000000000000000000000000000000000000000000000000000000000000000000000F5F500F5F5
310
F50000000000000000000000000000000000000000000000000000000000000000000000000000000000000000000000000000000000000000000000000000000000000000000000000000000000F5000000000000000000000000000000000000000000000000000000000000000000000000000000000000000000000000
310
0000000000000000000000000000000000000000000000000000000000000000F50000000000F500000000F5F5F500F5F500000000000000000000000000000000000000000000000000000000000000000000000000F500000000000000000000000000000000000000000000000000000000000000000000000000F5F500
310
F5F5F5F5F5F5F5F5F5F5F5F5F5F5F50000000000000000000000000000000000000000000000000000000000000000000000000000000000000000000000000000000000000000000000000000000000F500000000000000000000000000000000000000000000000000000000000000000000000000000000000000000000
310
00000000000000000000000000000000000000000000000000000000000000000000F50000000000F500000000F5F5F5F5F5F500000000000000000000000000000000000000000000000000000000000000000000000000F5F5000000000000000000000000000000000000000000000000000000000000000000000000F5
310
F5F5F5F5F5F5F5F5F5F5F5F50000F5F5000000000000000000000000000000000000000000000000000000000000000000000000000000000000000000000000000000000000000000000000000000000000F50000000000000000000000000000000000000000000000000000000000000000000000000000000000000000
310
000000000000000000000000000000000000000000000000000000000000000000000000F50000000000F50000000000000000F5F5000000000000000000000000000000000000000000000000000000000000000000000000F5F5F50000000000000000000000000000000000000000000000000000000000000000000000
310
00F5F50000000000000000F5F5000000F5F5000000000000000000000000000000000000000000000000000000000000000000000000000000000000000000000000000000000000000000000000000000000000F5000000000000000000000000000000000000000000000000000000000000000000000000000000000000
310
0000000000000000000000000000000000000000000000000000000000000000000000000000F50000000000F50000000000000000F5F500000000000000000000000000000000000000000000000000000000000000000000000000F5F5000000000000000000000000000000000000000000000000000000000000000000
310
000000F5F50000000000000000F5F5000000F500000000000000000000000000000000000000000000000000000000000000000000000000000000000000000000000000000000000000000000000000000000000000F500000000000000000000000000000000000000000000000000000000000000000000000000000000
310
00000000000000000000000000000000000000000000000000000000000000000000000000000000F50000000000F50000000000000000F5F500000000000000000000000000000000000000000000000000000000000000000000000000F5F500000000000000000000000000000000000000000000000000000000000000
310
0000000000F5F50000000000000000F500000000F500000000000000000000000000000000000000000000000000000000000000000000000000000000000000000000000000000000000000000000000000000000000000F50000000000000000000000000000000000000000000000000000000000000000000000000000
310
000000000000000000000000000000000000000000000000000000000000000000000000000000000000F50000000000F50000000000000000F5F500000000000000000000000000000000000000000000000000000000000000000000000000F5F50000000000000000000000000000000000000000000000000000000000
310
00000000000000F5F50000000000000000F500000000F500000000000000000000000000000000000000000000000000000000000000000000000000000000000000000000000000000000000000000000000000000000000000F5000000000000000000000000000000000000000000000000000000000000000000000000
310
0000000000000000000000000000000000000000000000000000000000000000000000000000000000000000F50000000000F50000000000000000F5F5000000000000000000000000000000000000000000000000000000000000000000000000000000000000000000000000000000000000000000000000000000000000
310
000000000000000000F5F50000000000000000F500000000F500000000000000000000000000000000000000000000000000000000000000000000000000000000000000000000000000000000000000000000000000000000000000F500000000000000000000000000000000000000000000000000000000000000000000
310
00000000000000000000000000000000000000000000000000000000000000000000000000000000000000000000F500000000F500F500000000000000F5F500000000000000000000000000000000000000000000000000000000000000000000000000000000000000000000000000000000000000000000000000000000
310
0000000000000000000000F5F50000000000000000F500000000F500000000000000000000000000000000000000000000000000000000000000000000000000000000000000000000000000000000000000000000000000000000000000F50000000000000000000000000000000000000000000000000000000000000000
310
000000000000000000000000000000000000000000000000000000000000000000000000000000000000000000000000F500000000F5F50000000000000000F5F50000000000000000000000000000000000000000000000000000000000000000000000000000000000000000000000000000000000000000000000000000
310
00000000000000000000000000F5F5000000000000000000F500000000F5000000000000000000000000000000000000000000000000000000000000000000000000000000000000000000000000000000000000000000000000000000000000F5000000000000000000000000000000000000000000000000000000000000
310
0000000000000000000000000000000000000000000000000000000000000000000000000000000000000000000000000000F500000000F5F5F500000000000000F5F5000000000000000000000000000000000000000000000000000000000000000000000000000000000000000000000000000000000000000000000000
310
000000000000000000000000000000F5F500000000000000F5F5F50000F5F5F5000000000000000000000000000000000000000000000000000000000000000000000000000000000000000000000000000000000000000000000000000000000000F500000000000000000000000000000000000000000000000000000000
310
00000000000000000000000000000000000000000000000000000000000000000000000000000000000000000000000000000000F500000000F5F5F500000000000000F5F500000000000000000000000000000000000000000000000000000000000000000000000000000000000000000000000000000000000000000000
310
0000000000000000000000000000000000F5F5000000000000000000F50000F500F5000000000000000000000000000000000000000000000000000000000000000000000000000000000000000000000000000000000000000000000000000000000000F50000000000000000000000000000000000000000000000000000
310
000000000000000000000000000000000000000000000000000000000000000000000000000000000000000000000000000000000000F50000000000F50000000000000000F5F50000000000000000000000000000000000000000000000000000000000000000000000000000000000000000000000000000000000000000
310
00000000000000000000000000000000000000F5F5000000000000000000F50000F500F5000000000000000000000000000000000000000000000000000000000000000000000000000000000000000000000000000000000000000000000000000000000000F5000000000000000000000000000000000000000000000000
310
0000000000000000000000000000000000000000000000000000000000000000000000000000000000000000000000000000000000000000F500000000F5F5F500000000000000F5F5000000000000000000000000000000000000000000000000000000000000000000000000000000000000000000000000000000000000
310
000000000000000000000000000000000000000000F5F500000000000000F5F5F50000F5F5F5000000000000000000000000000000000000000000000000000000000000000000000000000000000000000000000000000000000000000000000000000000000000F500000000000000000000000000000000000000000000
310
00000000000000000000000000000000000000000000000000000000000000000000000000000000000000000000000000000000000000000000F50000000000000000000000000000F5F500000000000000000000000000000000000000000000000000000000000000000000000000000000000000000000000000000000
310
0000000000000000000000000000000000000000000000F5F500000000000000F5F5F50000F5F5F5000000000000000000000000000000000000000000000000000000000000000000000000000000000000000000000000000000000000000000000000000000000000F50000000000000000000000000000000000000000
310
000000000000000000000000000000000000000000000000000000000000000000000000000000000000000000000000000000000000000000000000F50000000000000000000000000000F5F50000000000000000000000000000000000000000000000000000000000000000000000000000000000000000000000000000
310
00000000000000000000000000000000000000000000000000F5F50000000000000000F5F50000F5F5F5000000000000000000000000000000000000000000000000000000000000000000000000000000000000000000000000000000000000000000000000000000000000F5000000000000000000000000000000000000
310
0000000000000000000000000000000000000000000000000000000000000000000000000000000000000000000000000000000000000000000000000000F500000000F5F5F500000000000000F5F500000000000000000000000000000000000000000000000000000000F50000F500F500F5F5000000F5F5F5F5F5F50000
310
F50000000000000000000000000000000000000000000000000000F5F5000000000000000000000000000000000000000000000000000000000000000000000000000000000000000000000000000000000000000000000000000000000000000000000000000000000000000000F500000000000000000000000000000000
310
00000000000000000000000000000000000000000000000000000000000000000000000000000000000000000000000000000000000000000000000000000000F500000000F500F500000000000000F5F500000000000000000000000000000000000000000000000000000000F50000F500F500F5F5000000F500F5F500F5
310
0000F50000000000000000000000000000000000000000000000000000F5F5000000000000000000000000000000000000000000000000000000000000000000000000000000000000000000000000000000000000000000000000000000000000000000000000000000000000000000F50000000000000000000000000000
310
000000000000000000000000000000000000000000000000000000000000000000000000000000000000000000000000000000000000000000000000000000000000F500000000F5F5F500000000000000F5F500000000000000000000000000000000000000000000000000000000F5F5F5F500F5F5F5F5F5F500F500F5F5
310
F5F50000F50000000000000000000000000000000000000000000000000000F5F500000000000000F5F5F50000F5F5F5000000000000000000000000000000000000000000000000000000000000000000000000000000000000000000000000000000000000000000000000000000000000F5000000000000000000000000
310
0000000000000000000000000000000000000000000000000000000000000000000000000000000000000000000000000000000000000000000000000000000000000000F50000000000F50000000000000000F5F500000000000000000000000000000000000000000000000000000000F50000F5F500F5F5F50000F5F5F5
310
F5F5F5F500F500F500000000000000000000000000000000000000000000000000F5F500000000000000F5F5F50000F5F5F5000000000000000000000000000000000000000000000000000000000000000000000000000000000000000000000000000000000000000000000000000000000000F500000000000000000000
310
00000000000000000000000000000000000000000000000000000000000000000000000000000000000000000000000000000000000000000000000000000000000000000000F500000000F5F5F500000000000000F5F500000000000000000000000000000000000000000000000000000000F50000F5F500F5F5F5F5F500
310
F5F5F5F5F5F5F50000F500000000000000000000000000000000000000000000000000F5F500000000000000F5F5F50000F50000000000000000000000000000000000000000000000000000000000000000000000000000000000000000000000000000000000000000000000000000000000000000F50000000000000000
310
000000000000000000000000000000000000000000000000000000000000000000000000000000000000000000000000000000000000000000000000000000000000000000000000F500000000F5F50000000000000000F5F50000000000000000000000000000000000000000000000000000000000000000000000000000
310
00000000000000000000000000000000000000000000000000000000000000000000000000F5F500000000000000F500000000F5F5F5000000000000000000000000000000000000000000000000000000000000000000000000000000000000000000000000000000000000000000000000000000000000F5000000000000
310
0000000000000000000000000000000000000000000000000000000000000000000000000000000000000000000000000000000000000000000000000000000000000000000000000000F50000000000F5F500000000000000F5F5000000000000000000000000000000000000000000000000000000000000000000000000
310
000000000000000000000000000000000000000000000000000000000000000000000000000000F5F500000000000000F5F5F50000F5F5F5000000000000000000000000000000000000000000000000000000000000000000000000000000000000000000000000000000000000000000000000000000000000F500000000
310
00000000000000000000000000000000000000000000000000000000000000000000000000000000000000000000000000000000000000000000000000000000000000000000000000000000F50000000000000000000000000000F5F500000000000000000000000000000000000000000000000000000000000000000000
310
0000000000000000000000000000000000000000000000000000000000000000000000000000000000F5F500000000000000F5F5F50000F5F5F5000000000000000000000000000000000000000000000000000000000000000000000000000000000000000000000000000000000000000000000000000000000000F50000
310
000000000000000000000000000000000000000000000000000000000000000000000000000000000000000000000000000000000000000000000000000000000000000000000000000000000000F50000000000F50000000000000000F5F50000000000000000000000000000000000000000000000000000000000000000
310
00000000000000000000000000000000000000000000000000000000000000000000000000000000000000F5F500000000000000F5F5F50000F5F5F5000000000000000000000000000000000000000000000000000000000000000000000000000000000000000000000000000000000000000000000000000000000000F5
310
0000000000000000000000000000000000000000000000000000000000000000000000000000000000000000000000000000000000000000000000000000000000000000000000000000000000000000F50000000000F50000000000000000F5F5000000000000000000000000000000000000000000000000000000000000
310
000000000000000000000000000000000000000000000000000000000000000000000000000000000000000000F5F500000000000000F5F5F50000F5F5F50000000000000000000000000000000000000000000000000000000000000000000000000000000000000000000000000000000000000000000000000000000000
310
00F50000000000000000000000000000000000000000000000000000000000000000000000000000000000000000000000000000000000000000000000000000000000000000000000000000000000000000F50000000000F50000000000000000F5F500000000000000000000000000000000000000000000000000000000
310
0000000000000000000000000000000000000000000000000000000000000000000000000000000000000000000000F5F5000000000000000000000000000000000000000000000000000000000000000000000000000000000000000000000000000000000000000000000000000000000000000000000000000000000000
310
000000F50000000000000000000000000000000000000000000000000000000000000000000000000000000000000000000000000000000000000000000000000000000000000000000000000000000000000000F50000000000F50000000000000000F5F50000000000000000000000000000000000000000000000000000
310
00000000000000000000000000000000000000000000000000000000000000000000000000000000000000000000000000F5F50000000000000000F500000000F50000000000000000000000000000000000000000000000000000000000000000000000000000000000000000000000000000000000000000000000000000
310
0000000000F50000000000000000000000000000000000000000000000000000000000000000000000000000000000000000000000000000000000000000000000000000000000000000000000000000000000000000F50000000000F50000000000000000F5F5000000000000000000000000000000000000000000000000
310
000000000000000000000000000000000000000000000000000000000000000000000000000000000000000000000000000000F5F50000000000000000F500000000F5000000000000000000000000000000000000000000000000000000000000000000000000000000000000000000000000000000000000000000000000
310
00000000000000F50000000000000000000000000000000000000000000000000000000000000000000000000000000000000000000000000000000000000000000000000000000000000000000000000000000000000000F50000000000F50000000000000000F5F500000000000000000000000000000000000000000000
310
0000000000000000000000000000F50000000000000000000000000000000000000000000000000000000000000000000000000000F5F50000000000000000F500000000F500000000000000000000000000000000000000000000000000000000000000000000000000000000000000000000000000000000000000000000
310
000000000000000000F50000000000000000000000000000000000000000000000000000000000000000000000000000000000000000000000000000000000000000000000000000000000000000000000000000000000000000F50000000000F50000000000000000F5F50000000000000000000000000000000000000000
310
00000000000000000000000000000000F5F500000000000000000000000000000000000000000000000000000000000000000000000000F5F50000000000000000F500000000F50000000000000000000000000000000000000000000000000000000000000000000000000000000000000000000000000000000000000000
310
0000000000000000000000F50000000000000000000000000000000000000000000000000000000000000000000000000000000000000000000000000000000000000000000000000000000000000000000000000000000000000000F50000000000F50000000000000000F5F5000000000000000000000000000000000000
310
0000000000000000000000000000000000F5F5F5F5000000000000000000000000000000000000000000000000000000000000000000000000F5F50000000000000000F5F5000000F5000000000000000000000000000000000000000000000000000000000000000000000000000000000000000000000000000000000000
310
00000000000000000000000000F50000000000000000000000000000000000000000000000000000000000000000000000000000000000000000000000000000000000000000000000000000000000000000000000000000000000000000F50000000000F500000000F5F5F5F5F5F500000000000000000000000000000000
310
0000000000000000000000000000000000000000F5F500000000000000000000000000000000000000000000000000000000000000000000000000F5F5F5F5F5F500000000F5F5000000F5F5000000000000000000000000000000000000000000000000000000000000000000000000000000000000000000000000000000
310
000000000000000000000000000000F50000000000000000000000000000000000000000000000000000000000000000000000000000000000000000000000000000000000000000000000000000000000000000000000000000000000000000F50000000000F500000000F5F5F5F5F5F50000000000000000000000000000
310
00000000000000000000000000000000000000000000F5F500000000000000000000000000000000000000000000000000000000000000000000000000F5F5F5F5F5F5F5F5F5F5F5F5F50000F5F500000000000000000000000000000000000000000000000000000000000000000000000000000000000000000000000000
310
0000000000000000000000000000000000F50000000000000000000000000000000000000000000000000000000000000000000000000000000000000000000000000000000000000000000000000000000000000000000000000000000000000000F50000000000F500000000F5F5F500F5F5000000000000000000000000
310
000000000000000000000000000000000000000000000000F5F500000000000000000000000000000000000000000000000000000000000000000000000000F5F500F5F5F5F5F5F5F5F5F5F5F5F5F5F5F500000000000000000000000000000000000000000000000000000000000000000000000000000000000000000000
310
00000000000000000000000000000000000000F50000000000000000000000000000000000000000000000000000000000000000000000000000000000000000000000000000000000000000000000000000000000000000000000000000000000000000F50000000000F500000000F5F5F5F5F5F5F5F5F5F5F5F5F5F5F5F5
310
F5F5F5F5F5F5F5F5F5F5F5F5F5F5F5F5F5F5F5F5F5F5F5F5F5F5F5F5F5F5F5F5F5F5F5F5F5F5F5F5F5F5F5F5F5F5F5F5F5F5F5F5F5F5F5F5F5F5F5F5F5F5F5F5F5F5F5F5F5F5F50000000000000000000000000000000000000000000000000000000000000000000000000000000000000000000000000000000000000000
310
000000000000000000000000000000000000000000F50000000000000000000000000000000000000000000000000000000000000000000000000000000000000000000000000000000000000000000000000000000000000000000000000000000000000000F50000000000F500000000F5F5F5F5F5F50000000000000000
310
00000000000000000000000000000000000000000000000000000000000000000000000000000000000000000000000000000000000000000000000000000000000000F5F5F5F5F5F5000000000000000000000000000000000000000000000000000000000000000000000000000000000000000000000000000000000000
310
0000000000000000000000000000000000000000000000F50000000000000000000000000000000000000000000000000000000000000000000000000000000000000000000000000000000000000000000000000000000000000000000000000000000000000000F50000000000F5F500000000000000F5F5F5F5F5F5F5F5
310
F5F5F5F5F5F5F5F5F5F5F5F5F5F5F5F5F5F5F5F5F5F5F5F5F5F5F5F5F5F5F5F5F5F5F5F5F5F5F5F5F5F5F5F5F5F5F5F5F5F5F5F5F5F5F5F5F5F5F5F5F5F5F5F5F5F5F5F5F5F50000F5F5F5F5F5F5F5F5F5F5F5F5F5F5F500000000000000000000000000000000000000000000000000000000000000000000000000000000
310
00000000000000000000000000000000000000000000000000F50000000000000000000000000000000000000000000000000000000000000000000000000000000000000000000000000000000000000000000000000000000000000000000000000000000000000000F50000000000F5F500000000000000F500F5000000
310
00000000000000000000000000000000000000000000000000000000000000000000000000000000000000000000000000F500000000000000000000000000000000000000000000000000000000000000F5F5000000F5F5000000000000000000000000000000000000000000000000000000000000000000000000000000
310
000000000000000000000000000000000000000000000000000000F50000000000000000000000000000000000000000000000000000000000000000000000000000000000000000000000000000000000000000000000000000000000000000000000000000000000000000F500000000F5F5F5F5F5F5F5F5F5F5F5F5F5F5
310
F5F5F5F5F5F5F5F5F5F5F5F5F5F5F5F5F5F5F5F5F5F5F5F5F5F5F5F5F5F5F5F5F5F5F5F5F5F5F5F5F5F5F5F5F5F5F5F5F5F5F5F500000000000000000000000000000000000000000000000000000000000000F5F5000000F5F500000000000000000000000000000000000000000000000000000000000000000000000000
310
0000000000000000000000000000000000000000000000000000000000F50000000000000000000000000000000000000000000000000000000000000000000000000000000000000000000000000000000000000000000000000000000000000000000000000000000000000000F50000000000000000000000000000F500
310
F500000000000000000000000000000000000000000000000000000000000000000000000000000000000000000000000000000000F500000000000000000000000000000000000000000000000000000000000000F500000000F5000000000000000000000000000000000000000000000000000000000000000000000000
310
00000000000000000000000000000000000000000000000000000000000000F50000000000000000000000000000000000000000000000000000000000000000000000000000000000000000000000000000000000000000000000000000000000000000000000000000000000000000F5000000000000F5F5F50000000000
310
F500F50000000000000000000000000000000000000000000000F50000F5F5F5F500000000000000000000000000000000000000000000F500000000000000000000000000000000000000000000000000000000000000F500000000F500000000000000000000000000000000000000000000000000000000000000000000
310
000000000000000000000000000000000000000000000000000000000000000000F50000000000000000000000000000000000000000000000000000000000000000000000000000000000000000000000000000000000000000000000000000000000000000000000000000000000000000F50000000000F5F5F5F5F5F5F5
310
F5F5F500F5F5F5F5F5F5F5F5F5F5F5F5F5F5F5F5F5F5F5F5F5F5F5F500F5F5F5F5F5F5F5F5F5F5F5F5F5F5F5F5F5F5F5F5F5F5F5F5F5F5F5F5F5000000000000000000000000000000000000000000000000000000000000F5F5F5000000F5F500000000000000000000000000000000000000000000000000000000000000
310
0000000000000000000000000000000000000000000000000000000000000000000000F50000000000000000000000000000000000000000000000000000000000000000000000000000000000000000000000000000000000000000000000000000000000000000000000000000000000000000F5000000000000F5F5F500
310
00000000F500F50000000000000000000000000000000000000000000000F5F500F5F5F5F500000000000000000000000000000000000000000000F5000000000000000000000000000000000000000000000000000000000000F5F5F50000F5F5F50000000000000000000000000000000000000000000000000000000000
310
00000000000000000000000000000000000000000000000000000000000000000000000000F50000000000000000000000000000000000000000000000000000000000000000000000000000000000000000000000000000000000000000000000000000000000000000000000000000000000000000F50000000000000000
310
0000000000000000000000000000000000000000000000000000000000000000000000000000000000000000000000000000000000000000000000000000000000000000000000000000000000000000000000000000000000000000F5F5F50000F5F5F5000000000000000000000000000000000000000000000000000000
310
000000000000000000000000000000000000000000000000000000000000000000000000000000F50000000000000000000000000000000000000000000000000000000000000000000000000000000000000000000000000000000000000000000000000000000000000000000000000000000000000000F5000000000000
310
00000000000000000000000000000000000000000000000000000000000000000000000000000000000000000000000000000000000000000000000000000000000000000000000000000000000000000000000000000000000000000000F5F5F50000F500F500000000000000000000000000000000000000000000000000
310
0000000000000000000000000000000000000000000000000000000000000000000000000000000000F50000000000000000000000000000000000000000000000000000000000000000000000000000000000000000000000000000000000000000000000000000000000000000000000000000000000000000F500000000
310
0000000000000000000000000000000000000000000000000000000000000000000000000000000000000000000000000000000000000000000000000000000000000000000000000000000000000000000000000000000000000000000000000000F50000F5F5000000000000000000000000000000000000000000000000
310
00000000000000000000000000000000000000000000000000000000000000000000000000000000000000F50000000000000000000000000000000000000000000000000000000000000000000000000000000000000000000000000000000000000000000000000000000000000000000000000000000000000000F50000
310
00000000000000000000000000000000000000000000000000000000000000000000000000000000000000000000000000000000000000000000000000000000000000000000000000000000000000000000000000000000000000000000000000000000000000000000000000000000000000000000000000000000000000
310
000000000000000000000000000000000000000000000000000000000000000000000000000000000000000000F50000000000000000000000000000000000000000000000000000000000000000000000000000000000000000000000000000000000000000000000000000000000000000000000000000000000000000F5
310
00000000000000000000000000000000000000000000000000000000000000000000000000000000000000000000000000000000000000000000000000000000000000000000000000000000000000000000000000000000000000000000000000000000000000000000000000000000000000000000000000000000000000
310
0000000000000000000000000000000000000000000000000000000000000000000000000000000000000000000000F500000000000000000000000000000000000000000000000000000000000000000000000000000000000000000000000000000000000000000000000000000000000000000000000000000000000000
310
00F50000000000000000000000000000000000000000000000000000000000000000000000000000000000000000000000000000000000000000000000000000000000000000000000000000000000000000000000000000000000000000000000000000000000000000000000000000000000000000000000000000000000
310
00000000000000000000000000000000000000000000000000000000000000000000000000000000000000000000000000F50000000000000000000000000000000000000000000000000000000000000000000000000000000000000000000000000000000000000000000000000000000000000000000000000000000000
310
000000F5000000000000000000000000000000000000000000000000000000000000000000000000000000000000000000000000000000000000000000000000000000000000000000000000000000000000000000000000000000000000000000000000000000000000000000000000000000000000000000000000000000
310
000000000000000000000000000000000000000000000000000000000000000000000000000000000000000000000000000000F5000000000000000000000000000000000000000000000000000000000000000000000000000000000000000000000000000000000000000000000000000000000000000000000000000000
310
0000000000F5F5F5F5F5F5F5F5F5F5F5F5F5F5F5F5F5F5F5F5F5F5F5F5F5F5F5F5F5F5F5F5F5F5F5F5F5F5F5F5F5F5F5F5F5F5F5F5F5F5F5F5F5F5F5F5F5F5F5F5F5F5F5F5F5F5F5F5F5F5F5F5F5F5F5F5F5F5F5F5F5F5F5F5F5F5F5F5F5F5F5F5F5F5F5F5F5F5F5F5F5F5F5F5F5F5F5F5F5F5F5F5F5F5F5F5F5F5F5F5F5F5
310
F5F5F5F5F5F5F5F5F5F5F5F5F5F5F5F5F5F5F5F5F5F5F5F5F5F5F5F5F5F5F5F5F5F5F5F5F5F5F5F5F5F5F5F5F5F5F5F5F5F5F5F5F5F500000000000000000000000000000000000000000000000000000000000000000000000000000000
  0
XRECORD
  5
2122
102
{ACAD_REACTORS
330
1E75
102
}
330
1E75
100
AcDbXrecord
280
     1
102
MATERIAL
148
0.0
149
0.0
149
0.0
 93
        0
 94
      127
282
     0
 72
     0
 77
     0
171
     0
175
     0
179
     0
273
     0
  0
XRECORD
  5
1E77
102
{ACAD_REACTORS
330
1E75
102
}
330
1E75
100
AcDbXrecord
280
     1
270
     1
271
     1
  0
XRECORD
  5
1E76
102
{ACAD_REACTORS
330
1E75
102
}
330
1E75
100
AcDbXrecord
280
     1
270
     1
271
     1
  0
XRECORD
  5
1E7A
102
{ACAD_REACTORS
330
1E75
102
}
330
1E75
100
AcDbXrecord
280
     1
270
     1
271
     1
  0
XRECORD
  5
1E79
102
{ACAD_REACTORS
330
1E75
102
}
330
1E75
100
AcDbXrecord
280
     1
270
     1
271
     1
  0
XRECORD
  5
1E7B
102
{ACAD_REACTORS
330
1E75
102
}
330
1E75
100
AcDbXrecord
280
     1
270
     1
271
     1
  0
XRECORD
  5
1E78
102
{ACAD_REACTORS
330
1E75
102
}
330
1E75
100
AcDbXrecord
280
     1
270
     1
271
     1
  0
XRECORD
  5
2121
102
{ACAD_REACTORS
330
1E6D
102
}
330
1E6D
100
AcDbXrecord
280
     1
102
MATERIAL
148
0.0
149
0.0
149
0.0
 93
        0
 94
      127
282
     0
 72
     0
 77
     0
171
     0
175
     0
179
     0
273
     0
  0
XRECORD
  5
1E6F
102
{ACAD_REACTORS
330
1E6D
102
}
330
1E6D
100
AcDbXrecord
280
     1
270
     1
271
     1
  0
XRECORD
  5
1E6E
102
{ACAD_REACTORS
330
1E6D
102
}
330
1E6D
100
AcDbXrecord
280
     1
270
     1
271
     1
  0
XRECORD
  5
1E72
102
{ACAD_REACTORS
330
1E6D
102
}
330
1E6D
100
AcDbXrecord
280
     1
270
     1
271
     1
  0
XRECORD
  5
1E71
102
{ACAD_REACTORS
330
1E6D
102
}
330
1E6D
100
AcDbXrecord
280
     1
270
     1
271
     1
  0
XRECORD
  5
1E73
102
{ACAD_REACTORS
330
1E6D
102
}
330
1E6D
100
AcDbXrecord
280
     1
270
     1
271
     1
  0
XRECORD
  5
1E70
102
{ACAD_REACTORS
330
1E6D
102
}
330
1E6D
100
AcDbXrecord
280
     1
270
     1
271
     1
  0
XRECORD
  5
2123
102
{ACAD_REACTORS
330
1E7D
102
}
330
1E7D
100
AcDbXrecord
280
     1
102
MATERIAL
148
0.0
149
0.0
149
0.0
 93
        0
 94
      127
282
     0
 72
     0
 77
     0
171
     0
175
     0
179
     0
273
     0
  0
XRECORD
  5
1E7F
102
{ACAD_REACTORS
330
1E7D
102
}
330
1E7D
100
AcDbXrecord
280
     1
270
     1
271
     1
  0
XRECORD
  5
1E7E
102
{ACAD_REACTORS
330
1E7D
102
}
330
1E7D
100
AcDbXrecord
280
     1
270
     1
271
     1
  0
XRECORD
  5
1E82
102
{ACAD_REACTORS
330
1E7D
102
}
330
1E7D
100
AcDbXrecord
280
     1
270
     1
271
     1
  0
XRECORD
  5
1E81
102
{ACAD_REACTORS
330
1E7D
102
}
330
1E7D
100
AcDbXrecord
280
     1
270
     1
271
     1
  0
XRECORD
  5
1E83
102
{ACAD_REACTORS
330
1E7D
102
}
330
1E7D
100
AcDbXrecord
280
     1
270
     1
271
     1
  0
XRECORD
  5
1E80
102
{ACAD_REACTORS
330
1E7D
102
}
330
1E7D
100
AcDbXrecord
280
     1
270
     1
271
     1
  0
CELLSTYLEMAP
  5
211F
102
{ACAD_REACTORS
330
211E
102
}
330
211E
100
AcDbCellStyleMap
 90
        3
300
CELLSTYLE
  1
TABLEFORMAT_BEGIN
 90
        5
170
     1
 91
        0
 92
    32768
 62
   257
 93
        1
300
CONTENTFORMAT
  1
CONTENTFORMAT_BEGIN
 90
        0
 91
        0
 92
      512
 93
        0
300

 40
0.0
140
1.0
 94
        5
 62
     0
340
1EB0
144
0.25
309
CONTENTFORMAT_END
171
     0
 94
        0
309
TABLEFORMAT_END
  1
CELLSTYLE_BEGIN
 90
        1
 91
        1
300
_TITLE
309
CELLSTYLE_END
300
CELLSTYLE
  1
TABLEFORMAT_BEGIN
 90
        5
170
     1
 91
        0
 92
        0
 62
   257
 93
        1
300
CONTENTFORMAT
  1
CONTENTFORMAT_BEGIN
 90
        0
 91
        0
 92
      512
 93
        0
300

 40
0.0
140
1.0
 94
        5
 62
     0
340
1EB0
144
0.18
309
CONTENTFORMAT_END
171
     0
 94
        0
309
TABLEFORMAT_END
  1
CELLSTYLE_BEGIN
 90
        2
 91
        1
300
_HEADER
309
CELLSTYLE_END
300
CELLSTYLE
  1
TABLEFORMAT_BEGIN
 90
        5
170
     1
 91
        0
 92
        0
 62
   257
 93
        1
300
CONTENTFORMAT
  1
CONTENTFORMAT_BEGIN
 90
        0
 91
        0
 92
      512
 93
        0
300

 40
0.0
140
1.0
 94
        2
 62
     0
340
1EB0
144
0.18
309
CONTENTFORMAT_END
171
     0
 94
        0
309
TABLEFORMAT_END
  1
CELLSTYLE_BEGIN
 90
        3
 91
        2
300
_DATA
309
CELLSTYLE_END
  0
XRECORD
  5
2154
102
{ACAD_REACTORS
330
211E
102
}
330
211E
100
AcDbXrecord
280
     1
102
ACAD_ROUNDTRIP_PRE2007_TABLESTYLE
 90
      512
 91
        0
  1

 92
      512
 93
        0
  2

 94
      512
 95
        0
  3

  0
XRECORD
  5
212F
102
{ACAD_REACTORS
330
212E
102
}
330
212E
100
AcDbXrecord
280
     1
102
RTVSPropertyOp0
 70
     1
102
RTVSPropertyOp1
 70
     1
102
RTVSPropertyOp2
 70
     1
102
RTVSPropertyOp3
 70
     1
102
RTVSPropertyOp4
 70
     1
102
RTVSPropertyOp5
 70
     1
102
RTVSPropertyOp6
 70
     1
102
RTVSPropertyOp7
 70
     1
102
RTVSPropertyOp8
 70
     1
102
RTVSPropertyOp9
 70
     1
102
RTVSPropertyOp10
 70
     1
102
RTVSPropertyOp11
 70
     1
102
RTVSPropertyOp12
 70
     1
102
RTVSPropertyOp13
 70
     1
102
RTVSPropertyOp14
 70
     1
102
RTVSPropertyOp15
 70
     1
102
RTVSPropertyOp16
 70
     1
102
RTVSPropertyOp17
 70
     1
102
RTVSPropertyOp18
 70
     1
102
RTVSPropertyOp19
 70
     1
102
RTVSPropertyOp20
 70
     1
102
RTVSPropertyOp21
 70
     1
102
RTVSPropertyOp22
 70
     1
102
RTVSPropertyOp23
 70
     1
102
RTVSPropertyOp24
 70
     1
102
RTVSPropertyOp25
 70
     1
102
RTVSPropertyOp26
 70
     1
102
RTVSPropertyOp27
 70
     1
102
RTVSPropertyOp28
 70
     1
102
RTVSPropertyOp29
 70
     1
102
RTVSPropertyOp30
 70
     1
102
RTVSPropertyOp31
 70
     1
102
RTVSPropertyOp32
 70
     1
  0
XRECORD
  5
212D
102
{ACAD_REACTORS
330
212C
102
}
330
212C
100
AcDbXrecord
280
     1
102
RTVSPropertyOp0
 70
     1
102
RTVSPropertyOp1
 70
     1
102
RTVSPropertyOp2
 70
     1
102
RTVSPropertyOp3
 70
     1
102
RTVSPropertyOp4
 70
     1
102
RTVSPropertyOp5
 70
     1
102
RTVSPropertyOp6
 70
     1
102
RTVSPropertyOp7
 70
     1
102
RTVSPropertyOp8
 70
     1
102
RTVSPropertyOp9
 70
     1
102
RTVSPropertyOp10
 70
     1
102
RTVSPropertyOp11
 70
     1
102
RTVSPropertyOp12
 70
     1
102
RTVSPropertyOp13
 70
     1
102
RTVSPropertyOp14
 70
     1
102
RTVSPropertyOp15
 70
     1
102
RTVSPropertyOp16
 70
     1
102
RTVSPropertyOp17
 70
     1
102
RTVSPropertyOp18
 70
     1
102
RTVSPropertyOp19
 70
     1
102
RTVSPropertyOp20
 70
     1
102
RTVSPropertyOp21
 70
     1
102
RTVSPropertyOp22
 70
     1
102
RTVSPropertyOp23
 70
     1
102
RTVSPropertyOp24
 70
     1
102
RTVSPropertyOp25
 70
     1
102
RTVSPropertyOp26
 70
     1
102
RTVSPropertyOp27
 70
     1
102
RTVSPropertyOp28
 70
     1
102
RTVSPropertyOp29
 70
     1
102
RTVSPropertyOp30
 70
     1
102
RTVSPropertyOp31
 70
     1
102
RTVSPropertyOp32
 70
     1
  0
XRECORD
  5
213B
102
{ACAD_REACTORS
330
213A
102
}
330
213A
100
AcDbXrecord
280
     1
102
RTVSPropertyOp0
 70
     1
102
RTVSPropertyOp1
 70
     1
102
RTVSPropertyOp2
 70
     1
102
RTVSPropertyOp3
 70
     1
102
RTVSPropertyOp4
 70
     1
102
RTVSPropertyOp5
 70
     1
102
RTVSPropertyOp6
 70
     1
102
RTVSPropertyOp7
 70
     1
102
RTVSPropertyOp8
 70
     1
102
RTVSPropertyOp9
 70
     1
102
RTVSPropertyOp10
 70
     1
102
RTVSPropertyOp11
 70
     1
102
RTVSPropertyOp12
 70
     1
102
RTVSPropertyOp13
 70
     1
102
RTVSPropertyOp14
 70
     1
102
RTVSPropertyOp15
 70
     1
102
RTVSPropertyOp16
 70
     1
102
RTVSPropertyOp17
 70
     1
102
RTVSPropertyOp18
 70
     1
102
RTVSPropertyOp19
 70
     1
102
RTVSPropertyOp20
 70
     1
102
RTVSPropertyOp21
 70
     1
102
RTVSPropertyOp22
 70
     1
102
RTVSPropertyOp23
 70
     1
102
RTVSPropertyOp24
 70
     1
102
RTVSPropertyOp25
 70
     1
102
RTVSPropertyOp26
 70
     1
102
RTVSPropertyOp27
 70
     1
102
RTVSPropertyOp28
 70
     1
102
RTVSPropertyOp29
 70
     1
102
RTVSPropertyOp30
 70
     1
102
RTVSPropertyOp31
 70
     1
102
RTVSPropertyOp32
 70
     1
  0
XRECORD
  5
2143
102
{ACAD_REACTORS
330
2142
102
}
330
2142
100
AcDbXrecord
280
     1
102
RTVSPropertyOp0
 70
     1
102
RTVSPropertyOp1
 70
     1
102
RTVSPropertyOp2
 70
     1
102
RTVSPropertyOp3
 70
     1
102
RTVSPropertyOp4
 70
     1
102
RTVSPropertyOp5
 70
     1
102
RTVSPropertyOp6
 70
     1
102
RTVSPropertyOp7
 70
     1
102
RTVSPropertyOp8
 70
     1
102
RTVSPropertyOp9
 70
     1
102
RTVSPropertyOp10
 70
     1
102
RTVSPropertyOp11
 70
     1
102
RTVSPropertyOp12
 70
     1
102
RTVSPropertyOp13
 70
     1
102
RTVSPropertyOp14
 70
     1
102
RTVSPropertyOp15
 70
     1
102
RTVSPropertyOp16
 70
     1
102
RTVSPropertyOp17
 70
     1
102
RTVSPropertyOp18
 70
     1
102
RTVSPropertyOp19
 70
     1
102
RTVSPropertyOp20
 70
     1
102
RTVSPropertyOp21
 70
     1
102
RTVSPropertyOp22
 70
     1
102
RTVSPropertyOp23
 70
     1
102
RTVSPropertyOp24
 70
     1
102
RTVSPropertyOp25
 70
     1
102
RTVSPropertyOp26
 70
     1
102
RTVSPropertyOp27
 70
     1
102
RTVSPropertyOp28
 70
     1
102
RTVSPropertyOp29
 70
     1
102
RTVSPropertyOp30
 70
     1
102
RTVSPropertyOp31
 70
     1
102
RTVSPropertyOp32
 70
     1
  0
XRECORD
  5
2135
102
{ACAD_REACTORS
330
2134
102
}
330
2134
100
AcDbXrecord
280
     1
102
RTVSPropertyOp0
 70
     1
102
RTVSPropertyOp1
 70
     1
102
RTVSPropertyOp2
 70
     1
102
RTVSPropertyOp3
 70
     1
102
RTVSPropertyOp4
 70
     1
102
RTVSPropertyOp5
 70
     1
102
RTVSPropertyOp6
 70
     1
102
RTVSPropertyOp7
 70
     1
102
RTVSPropertyOp8
 70
     1
102
RTVSPropertyOp9
 70
     1
102
RTVSPropertyOp10
 70
     1
102
RTVSPropertyOp11
 70
     1
102
RTVSPropertyOp12
 70
     1
102
RTVSPropertyOp13
 70
     1
102
RTVSPropertyOp14
 70
     1
102
RTVSPropertyOp15
 70
     1
102
RTVSPropertyOp16
 70
     1
102
RTVSPropertyOp17
 70
     1
102
RTVSPropertyOp18
 70
     1
102
RTVSPropertyOp19
 70
     1
102
RTVSPropertyOp20
 70
     1
102
RTVSPropertyOp21
 70
     1
102
RTVSPropertyOp22
 70
     1
102
RTVSPropertyOp23
 70
     1
102
RTVSPropertyOp24
 70
     1
102
RTVSPropertyOp25
 70
     1
102
RTVSPropertyOp26
 70
     1
102
RTVSPropertyOp27
 70
     1
102
RTVSPropertyOp28
 70
     1
102
RTVSPropertyOp29
 70
     1
102
RTVSPropertyOp30
 70
     1
102
RTVSPropertyOp31
 70
     1
102
RTVSPropertyOp32
 70
     1
  0
XRECORD
  5
2139
102
{ACAD_REACTORS
330
2138
102
}
330
2138
100
AcDbXrecord
280
     1
102
RTVSPropertyOp0
 70
     1
102
RTVSPropertyOp1
 70
     1
102
RTVSPropertyOp2
 70
     1
102
RTVSPropertyOp3
 70
     1
102
RTVSPropertyOp4
 70
     1
102
RTVSPropertyOp5
 70
     1
102
RTVSPropertyOp6
 70
     1
102
RTVSPropertyOp7
 70
     1
102
RTVSPropertyOp8
 70
     1
102
RTVSPropertyOp9
 70
     1
102
RTVSPropertyOp10
 70
     1
102
RTVSPropertyOp11
 70
     1
102
RTVSPropertyOp12
 70
     1
102
RTVSPropertyOp13
 70
     1
102
RTVSPropertyOp14
 70
     1
102
RTVSPropertyOp15
 70
     1
102
RTVSPropertyOp16
 70
     1
102
RTVSPropertyOp17
 70
     1
102
RTVSPropertyOp18
 70
     1
102
RTVSPropertyOp19
 70
     1
102
RTVSPropertyOp20
 70
     1
102
RTVSPropertyOp21
 70
     1
102
RTVSPropertyOp22
 70
     1
102
RTVSPropertyOp23
 70
     1
102
RTVSPropertyOp24
 70
     1
102
RTVSPropertyOp25
 70
     1
102
RTVSPropertyOp26
 70
     1
102
RTVSPropertyOp27
 70
     1
102
RTVSPropertyOp28
 70
     1
102
RTVSPropertyOp29
 70
     1
102
RTVSPropertyOp30
 70
     1
102
RTVSPropertyOp31
 70
     1
102
RTVSPropertyOp32
 70
     1
  0
XRECORD
  5
2153
102
{ACAD_REACTORS
330
2152
102
}
330
2152
100
AcDbXrecord
280
     1
102
RTVSPropertyOp0
 70
     0
102
RTVSPropertyOp1
 70
     0
102
RTVSPropertyOp2
 70
     0
102
RTVSPropertyOp3
 70
     0
102
RTVSPropertyOp4
 70
     0
102
RTVSPropertyOp5
 70
     0
102
RTVSPropertyOp6
 70
     0
102
RTVSPropertyOp7
 70
     0
102
RTVSPropertyOp8
 70
     0
102
RTVSPropertyOp9
 70
     0
102
RTVSPropertyOp10
 70
     0
102
RTVSPropertyOp11
 70
     0
102
RTVSPropertyOp12
 70
     0
102
RTVSPropertyOp13
 70
     0
102
RTVSPropertyOp14
 70
     2
102
RTVSPropertyOp15
 70
     0
102
RTVSPropertyOp16
 70
     0
102
RTVSPropertyOp17
 70
     0
102
RTVSPropertyOp18
 70
     0
102
RTVSPropertyOp19
 70
     0
102
RTVSPropertyOp20
 70
     0
102
RTVSPropertyOp21
 70
     0
102
RTVSPropertyOp22
 70
     0
102
RTVSPropertyOp23
 70
     0
102
RTVSPropertyOp24
 70
     0
102
RTVSPropertyOp25
 70
     0
102
RTVSPropertyOp26
 70
     0
102
RTVSPropertyOp27
 70
     0
102
RTVSPropertyOp28
 70
     0
102
RTVSPropertyOp29
 70
     0
102
RTVSPropertyOp30
 70
     0
102
RTVSPropertyOp31
 70
     0
102
RTVSPropertyOp32
 70
     0
  0
XRECORD
  5
2141
102
{ACAD_REACTORS
330
2140
102
}
330
2140
100
AcDbXrecord
280
     1
102
RTVSPropertyOp0
 70
     1
102
RTVSPropertyOp1
 70
     1
102
RTVSPropertyOp2
 70
     1
102
RTVSPropertyOp3
 70
     1
102
RTVSPropertyOp4
 70
     1
102
RTVSPropertyOp5
 70
     1
102
RTVSPropertyOp6
 70
     1
102
RTVSPropertyOp7
 70
     1
102
RTVSPropertyOp8
 70
     1
102
RTVSPropertyOp9
 70
     1
102
RTVSPropertyOp10
 70
     1
102
RTVSPropertyOp11
 70
     1
102
RTVSPropertyOp12
 70
     1
102
RTVSPropertyOp13
 70
     1
102
RTVSPropertyOp14
 70
     1
102
RTVSPropertyOp15
 70
     1
102
RTVSPropertyOp16
 70
     1
102
RTVSPropertyOp17
 70
     1
102
RTVSPropertyOp18
 70
     1
102
RTVSPropertyOp19
 70
     1
102
RTVSPropertyOp20
 70
     1
102
RTVSPropertyOp21
 70
     1
102
RTVSPropertyOp22
 70
     1
102
RTVSPropertyOp23
 70
     1
102
RTVSPropertyOp24
 70
     1
102
RTVSPropertyOp25
 70
     1
102
RTVSPropertyOp26
 70
     1
102
RTVSPropertyOp27
 70
     1
102
RTVSPropertyOp28
 70
     1
102
RTVSPropertyOp29
 70
     1
102
RTVSPropertyOp30
 70
     1
102
RTVSPropertyOp31
 70
     1
102
RTVSPropertyOp32
 70
     1
  0
XRECORD
  5
2125
102
{ACAD_REACTORS
330
2124
102
}
330
2124
100
AcDbXrecord
280
     1
102
RTVSPropertyOp0
 70
     1
102
RTVSPropertyOp1
 70
     1
102
RTVSPropertyOp2
 70
     1
102
RTVSPropertyOp3
 70
     1
102
RTVSPropertyOp4
 70
     1
102
RTVSPropertyOp5
 70
     1
102
RTVSPropertyOp6
 70
     1
102
RTVSPropertyOp7
 70
     1
102
RTVSPropertyOp8
 70
     1
102
RTVSPropertyOp9
 70
     1
102
RTVSPropertyOp10
 70
     1
102
RTVSPropertyOp11
 70
     1
102
RTVSPropertyOp12
 70
     1
102
RTVSPropertyOp13
 70
     1
102
RTVSPropertyOp14
 70
     1
102
RTVSPropertyOp15
 70
     1
102
RTVSPropertyOp16
 70
     1
102
RTVSPropertyOp17
 70
     1
102
RTVSPropertyOp18
 70
     1
102
RTVSPropertyOp19
 70
     1
102
RTVSPropertyOp20
 70
     1
102
RTVSPropertyOp21
 70
     1
102
RTVSPropertyOp22
 70
     1
102
RTVSPropertyOp23
 70
     1
102
RTVSPropertyOp24
 70
     1
102
RTVSPropertyOp25
 70
     1
102
RTVSPropertyOp26
 70
     1
102
RTVSPropertyOp27
 70
     1
102
RTVSPropertyOp28
 70
     1
102
RTVSPropertyOp29
 70
     1
102
RTVSPropertyOp30
 70
     1
102
RTVSPropertyOp31
 70
     1
102
RTVSPropertyOp32
 70
     1
  0
XRECORD
  5
2127
102
{ACAD_REACTORS
330
2126
102
}
330
2126
100
AcDbXrecord
280
     1
102
RTVSPropertyOp0
 70
     1
102
RTVSPropertyOp1
 70
     1
102
RTVSPropertyOp2
 70
     1
102
RTVSPropertyOp3
 70
     1
102
RTVSPropertyOp4
 70
     1
102
RTVSPropertyOp5
 70
     1
102
RTVSPropertyOp6
 70
     1
102
RTVSPropertyOp7
 70
     1
102
RTVSPropertyOp8
 70
     1
102
RTVSPropertyOp9
 70
     1
102
RTVSPropertyOp10
 70
     1
102
RTVSPropertyOp11
 70
     1
102
RTVSPropertyOp12
 70
     1
102
RTVSPropertyOp13
 70
     1
102
RTVSPropertyOp14
 70
     1
102
RTVSPropertyOp15
 70
     1
102
RTVSPropertyOp16
 70
     1
102
RTVSPropertyOp17
 70
     1
102
RTVSPropertyOp18
 70
     1
102
RTVSPropertyOp19
 70
     1
102
RTVSPropertyOp20
 70
     1
102
RTVSPropertyOp21
 70
     1
102
RTVSPropertyOp22
 70
     1
102
RTVSPropertyOp23
 70
     1
102
RTVSPropertyOp24
 70
     1
102
RTVSPropertyOp25
 70
     1
102
RTVSPropertyOp26
 70
     1
102
RTVSPropertyOp27
 70
     1
102
RTVSPropertyOp28
 70
     1
102
RTVSPropertyOp29
 70
     1
102
RTVSPropertyOp30
 70
     1
102
RTVSPropertyOp31
 70
     1
102
RTVSPropertyOp32
 70
     1
  0
XRECORD
  5
2129
102
{ACAD_REACTORS
330
2128
102
}
330
2128
100
AcDbXrecord
280
     1
102
RTVSPropertyOp0
 70
     1
102
RTVSPropertyOp1
 70
     1
102
RTVSPropertyOp2
 70
     1
102
RTVSPropertyOp3
 70
     1
102
RTVSPropertyOp4
 70
     1
102
RTVSPropertyOp5
 70
     1
102
RTVSPropertyOp6
 70
     1
102
RTVSPropertyOp7
 70
     1
102
RTVSPropertyOp8
 70
     1
102
RTVSPropertyOp9
 70
     1
102
RTVSPropertyOp10
 70
     1
102
RTVSPropertyOp11
 70
     1
102
RTVSPropertyOp12
 70
     1
102
RTVSPropertyOp13
 70
     1
102
RTVSPropertyOp14
 70
     1
102
RTVSPropertyOp15
 70
     1
102
RTVSPropertyOp16
 70
     1
102
RTVSPropertyOp17
 70
     1
102
RTVSPropertyOp18
 70
     1
102
RTVSPropertyOp19
 70
     1
102
RTVSPropertyOp20
 70
     1
102
RTVSPropertyOp21
 70
     1
102
RTVSPropertyOp22
 70
     1
102
RTVSPropertyOp23
 70
     1
102
RTVSPropertyOp24
 70
     1
102
RTVSPropertyOp25
 70
     1
102
RTVSPropertyOp26
 70
     1
102
RTVSPropertyOp27
 70
     1
102
RTVSPropertyOp28
 70
     1
102
RTVSPropertyOp29
 70
     1
102
RTVSPropertyOp30
 70
     1
102
RTVSPropertyOp31
 70
     1
102
RTVSPropertyOp32
 70
     1
  0
XRECORD
  5
212B
102
{ACAD_REACTORS
330
212A
102
}
330
212A
100
AcDbXrecord
280
     1
102
RTVSPropertyOp0
 70
     1
102
RTVSPropertyOp1
 70
     1
102
RTVSPropertyOp2
 70
     1
102
RTVSPropertyOp3
 70
     1
102
RTVSPropertyOp4
 70
     1
102
RTVSPropertyOp5
 70
     1
102
RTVSPropertyOp6
 70
     1
102
RTVSPropertyOp7
 70
     1
102
RTVSPropertyOp8
 70
     1
102
RTVSPropertyOp9
 70
     1
102
RTVSPropertyOp10
 70
     1
102
RTVSPropertyOp11
 70
     1
102
RTVSPropertyOp12
 70
     1
102
RTVSPropertyOp13
 70
     1
102
RTVSPropertyOp14
 70
     1
102
RTVSPropertyOp15
 70
     1
102
RTVSPropertyOp16
 70
     1
102
RTVSPropertyOp17
 70
     1
102
RTVSPropertyOp18
 70
     1
102
RTVSPropertyOp19
 70
     1
102
RTVSPropertyOp20
 70
     1
102
RTVSPropertyOp21
 70
     1
102
RTVSPropertyOp22
 70
     1
102
RTVSPropertyOp23
 70
     1
102
RTVSPropertyOp24
 70
     1
102
RTVSPropertyOp25
 70
     1
102
RTVSPropertyOp26
 70
     1
102
RTVSPropertyOp27
 70
     1
102
RTVSPropertyOp28
 70
     1
102
RTVSPropertyOp29
 70
     1
102
RTVSPropertyOp30
 70
     1
102
RTVSPropertyOp31
 70
     1
102
RTVSPropertyOp32
 70
     1
  0
XRECORD
  5
2133
102
{ACAD_REACTORS
330
2132
102
}
330
2132
100
AcDbXrecord
280
     1
102
RTVSPropertyOp0
 70
     1
102
RTVSPropertyOp1
 70
     1
102
RTVSPropertyOp2
 70
     1
102
RTVSPropertyOp3
 70
     1
102
RTVSPropertyOp4
 70
     1
102
RTVSPropertyOp5
 70
     1
102
RTVSPropertyOp6
 70
     1
102
RTVSPropertyOp7
 70
     1
102
RTVSPropertyOp8
 70
     1
102
RTVSPropertyOp9
 70
     1
102
RTVSPropertyOp10
 70
     1
102
RTVSPropertyOp11
 70
     1
102
RTVSPropertyOp12
 70
     1
102
RTVSPropertyOp13
 70
     1
102
RTVSPropertyOp14
 70
     1
102
RTVSPropertyOp15
 70
     1
102
RTVSPropertyOp16
 70
     1
102
RTVSPropertyOp17
 70
     1
102
RTVSPropertyOp18
 70
     1
102
RTVSPropertyOp19
 70
     1
102
RTVSPropertyOp20
 70
     1
102
RTVSPropertyOp21
 70
     1
102
RTVSPropertyOp22
 70
     1
102
RTVSPropertyOp23
 70
     1
102
RTVSPropertyOp24
 70
     1
102
RTVSPropertyOp25
 70
     1
102
RTVSPropertyOp26
 70
     1
102
RTVSPropertyOp27
 70
     1
102
RTVSPropertyOp28
 70
     1
102
RTVSPropertyOp29
 70
     1
102
RTVSPropertyOp30
 70
     1
102
RTVSPropertyOp31
 70
     1
102
RTVSPropertyOp32
 70
     1
  0
XRECORD
  5
214F
102
{ACAD_REACTORS
330
214E
102
}
330
214E
100
AcDbXrecord
280
     1
102
RTVSPropertyOp0
 70
     0
102
RTVSPropertyOp1
 70
     0
102
RTVSPropertyOp2
 70
     0
102
RTVSPropertyOp3
 70
     0
102
RTVSPropertyOp4
 70
     0
102
RTVSPropertyOp5
 70
     0
102
RTVSPropertyOp6
 70
     0
102
RTVSPropertyOp7
 70
     0
102
RTVSPropertyOp8
 70
     0
102
RTVSPropertyOp9
 70
     0
102
RTVSPropertyOp10
 70
     0
102
RTVSPropertyOp11
 70
     0
102
RTVSPropertyOp12
 70
     0
102
RTVSPropertyOp13
 70
     0
102
RTVSPropertyOp14
 70
     2
102
RTVSPropertyOp15
 70
     0
102
RTVSPropertyOp16
 70
     0
102
RTVSPropertyOp17
 70
     0
102
RTVSPropertyOp18
 70
     0
102
RTVSPropertyOp19
 70
     0
102
RTVSPropertyOp20
 70
     0
102
RTVSPropertyOp21
 70
     0
102
RTVSPropertyOp22
 70
     0
102
RTVSPropertyOp23
 70
     0
102
RTVSPropertyOp24
 70
     0
102
RTVSPropertyOp25
 70
     0
102
RTVSPropertyOp26
 70
     0
102
RTVSPropertyOp27
 70
     0
102
RTVSPropertyOp28
 70
     0
102
RTVSPropertyOp29
 70
     0
102
RTVSPropertyOp30
 70
     0
102
RTVSPropertyOp31
 70
     0
102
RTVSPropertyOp32
 70
     0
  0
XRECORD
  5
213F
102
{ACAD_REACTORS
330
213E
102
}
330
213E
100
AcDbXrecord
280
     1
102
RTVSPropertyOp0
 70
     1
102
RTVSPropertyOp1
 70
     1
102
RTVSPropertyOp2
 70
     1
102
RTVSPropertyOp3
 70
     1
102
RTVSPropertyOp4
 70
     1
102
RTVSPropertyOp5
 70
     1
102
RTVSPropertyOp6
 70
     1
102
RTVSPropertyOp7
 70
     1
102
RTVSPropertyOp8
 70
     1
102
RTVSPropertyOp9
 70
     1
102
RTVSPropertyOp10
 70
     1
102
RTVSPropertyOp11
 70
     1
102
RTVSPropertyOp12
 70
     1
102
RTVSPropertyOp13
 70
     1
102
RTVSPropertyOp14
 70
     1
102
RTVSPropertyOp15
 70
     1
102
RTVSPropertyOp16
 70
     1
102
RTVSPropertyOp17
 70
     1
102
RTVSPropertyOp18
 70
     1
102
RTVSPropertyOp19
 70
     1
102
RTVSPropertyOp20
 70
     1
102
RTVSPropertyOp21
 70
     1
102
RTVSPropertyOp22
 70
     1
102
RTVSPropertyOp23
 70
     1
102
RTVSPropertyOp24
 70
     1
102
RTVSPropertyOp25
 70
     1
102
RTVSPropertyOp26
 70
     1
102
RTVSPropertyOp27
 70
     1
102
RTVSPropertyOp28
 70
     1
102
RTVSPropertyOp29
 70
     1
102
RTVSPropertyOp30
 70
     1
102
RTVSPropertyOp31
 70
     1
102
RTVSPropertyOp32
 70
     1
  0
XRECORD
  5
2151
102
{ACAD_REACTORS
330
2150
102
}
330
2150
100
AcDbXrecord
280
     1
102
RTVSPropertyOp0
 70
     0
102
RTVSPropertyOp1
 70
     0
102
RTVSPropertyOp2
 70
     0
102
RTVSPropertyOp3
 70
     0
102
RTVSPropertyOp4
 70
     0
102
RTVSPropertyOp5
 70
     0
102
RTVSPropertyOp6
 70
     0
102
RTVSPropertyOp7
 70
     0
102
RTVSPropertyOp8
 70
     0
102
RTVSPropertyOp9
 70
     0
102
RTVSPropertyOp10
 70
     0
102
RTVSPropertyOp11
 70
     0
102
RTVSPropertyOp12
 70
     0
102
RTVSPropertyOp13
 70
     0
102
RTVSPropertyOp14
 70
     2
102
RTVSPropertyOp15
 70
     0
102
RTVSPropertyOp16
 70
     0
102
RTVSPropertyOp17
 70
     0
102
RTVSPropertyOp18
 70
     0
102
RTVSPropertyOp19
 70
     0
102
RTVSPropertyOp20
 70
     0
102
RTVSPropertyOp21
 70
     0
102
RTVSPropertyOp22
 70
     0
102
RTVSPropertyOp23
 70
     0
102
RTVSPropertyOp24
 70
     0
102
RTVSPropertyOp25
 70
     0
102
RTVSPropertyOp26
 70
     0
102
RTVSPropertyOp27
 70
     0
102
RTVSPropertyOp28
 70
     0
102
RTVSPropertyOp29
 70
     0
102
RTVSPropertyOp30
 70
     0
102
RTVSPropertyOp31
 70
     0
102
RTVSPropertyOp32
 70
     0
  0
XRECORD
  5
2137
102
{ACAD_REACTORS
330
2136
102
}
330
2136
100
AcDbXrecord
280
     1
102
RTVSPropertyOp0
 70
     1
102
RTVSPropertyOp1
 70
     1
102
RTVSPropertyOp2
 70
     1
102
RTVSPropertyOp3
 70
     1
102
RTVSPropertyOp4
 70
     1
102
RTVSPropertyOp5
 70
     1
102
RTVSPropertyOp6
 70
     1
102
RTVSPropertyOp7
 70
     1
102
RTVSPropertyOp8
 70
     1
102
RTVSPropertyOp9
 70
     1
102
RTVSPropertyOp10
 70
     1
102
RTVSPropertyOp11
 70
     1
102
RTVSPropertyOp12
 70
     1
102
RTVSPropertyOp13
 70
     1
102
RTVSPropertyOp14
 70
     1
102
RTVSPropertyOp15
 70
     1
102
RTVSPropertyOp16
 70
     1
102
RTVSPropertyOp17
 70
     1
102
RTVSPropertyOp18
 70
     1
102
RTVSPropertyOp19
 70
     1
102
RTVSPropertyOp20
 70
     1
102
RTVSPropertyOp21
 70
     1
102
RTVSPropertyOp22
 70
     1
102
RTVSPropertyOp23
 70
     1
102
RTVSPropertyOp24
 70
     1
102
RTVSPropertyOp25
 70
     1
102
RTVSPropertyOp26
 70
     1
102
RTVSPropertyOp27
 70
     1
102
RTVSPropertyOp28
 70
     1
102
RTVSPropertyOp29
 70
     1
102
RTVSPropertyOp30
 70
     1
102
RTVSPropertyOp31
 70
     1
102
RTVSPropertyOp32
 70
     1
  0
XRECORD
  5
214D
102
{ACAD_REACTORS
330
214C
102
}
330
214C
100
AcDbXrecord
280
     1
102
RTVSPropertyOp0
 70
     1
102
RTVSPropertyOp1
 70
     1
102
RTVSPropertyOp2
 70
     1
102
RTVSPropertyOp3
 70
     1
102
RTVSPropertyOp4
 70
     1
102
RTVSPropertyOp5
 70
     1
102
RTVSPropertyOp6
 70
     1
102
RTVSPropertyOp7
 70
     1
102
RTVSPropertyOp8
 70
     1
102
RTVSPropertyOp9
 70
     1
102
RTVSPropertyOp10
 70
     1
102
RTVSPropertyOp11
 70
     1
102
RTVSPropertyOp12
 70
     1
102
RTVSPropertyOp13
 70
     1
102
RTVSPropertyOp14
 70
     1
102
RTVSPropertyOp15
 70
     1
102
RTVSPropertyOp16
 70
     1
102
RTVSPropertyOp17
 70
     1
102
RTVSPropertyOp18
 70
     1
102
RTVSPropertyOp19
 70
     1
102
RTVSPropertyOp20
 70
     1
102
RTVSPropertyOp21
 70
     1
102
RTVSPropertyOp22
 70
     1
102
RTVSPropertyOp23
 70
     1
102
RTVSPropertyOp24
 70
     1
102
RTVSPropertyOp25
 70
     1
102
RTVSPropertyOp26
 70
     1
102
RTVSPropertyOp27
 70
     1
102
RTVSPropertyOp28
 70
     1
102
RTVSPropertyOp29
 70
     1
102
RTVSPropertyOp30
 70
     1
102
RTVSPropertyOp31
 70
     1
102
RTVSPropertyOp32
 70
     1
  0
XRECORD
  5
214B
102
{ACAD_REACTORS
330
214A
102
}
330
214A
100
AcDbXrecord
280
     1
102
RTVSPropertyOp0
 70
     1
102
RTVSPropertyOp1
 70
     1
102
RTVSPropertyOp2
 70
     1
102
RTVSPropertyOp3
 70
     1
102
RTVSPropertyOp4
 70
     1
102
RTVSPropertyOp5
 70
     1
102
RTVSPropertyOp6
 70
     1
102
RTVSPropertyOp7
 70
     1
102
RTVSPropertyOp8
 70
     1
102
RTVSPropertyOp9
 70
     1
102
RTVSPropertyOp10
 70
     1
102
RTVSPropertyOp11
 70
     1
102
RTVSPropertyOp12
 70
     1
102
RTVSPropertyOp13
 70
     1
102
RTVSPropertyOp14
 70
     1
102
RTVSPropertyOp15
 70
     1
102
RTVSPropertyOp16
 70
     1
102
RTVSPropertyOp17
 70
     1
102
RTVSPropertyOp18
 70
     1
102
RTVSPropertyOp19
 70
     1
102
RTVSPropertyOp20
 70
     1
102
RTVSPropertyOp21
 70
     1
102
RTVSPropertyOp22
 70
     1
102
RTVSPropertyOp23
 70
     1
102
RTVSPropertyOp24
 70
     1
102
RTVSPropertyOp25
 70
     1
102
RTVSPropertyOp26
 70
     1
102
RTVSPropertyOp27
 70
     1
102
RTVSPropertyOp28
 70
     1
102
RTVSPropertyOp29
 70
     1
102
RTVSPropertyOp30
 70
     1
102
RTVSPropertyOp31
 70
     1
102
RTVSPropertyOp32
 70
     1
  0
XRECORD
  5
2145
102
{ACAD_REACTORS
330
2144
102
}
330
2144
100
AcDbXrecord
280
     1
102
RTVSPropertyOp0
 70
     1
102
RTVSPropertyOp1
 70
     1
102
RTVSPropertyOp2
 70
     1
102
RTVSPropertyOp3
 70
     1
102
RTVSPropertyOp4
 70
     1
102
RTVSPropertyOp5
 70
     1
102
RTVSPropertyOp6
 70
     1
102
RTVSPropertyOp7
 70
     1
102
RTVSPropertyOp8
 70
     1
102
RTVSPropertyOp9
 70
     1
102
RTVSPropertyOp10
 70
     1
102
RTVSPropertyOp11
 70
     1
102
RTVSPropertyOp12
 70
     1
102
RTVSPropertyOp13
 70
     1
102
RTVSPropertyOp14
 70
     1
102
RTVSPropertyOp15
 70
     1
102
RTVSPropertyOp16
 70
     1
102
RTVSPropertyOp17
 70
     1
102
RTVSPropertyOp18
 70
     1
102
RTVSPropertyOp19
 70
     1
102
RTVSPropertyOp20
 70
     1
102
RTVSPropertyOp21
 70
     1
102
RTVSPropertyOp22
 70
     1
102
RTVSPropertyOp23
 70
     1
102
RTVSPropertyOp24
 70
     1
102
RTVSPropertyOp25
 70
     1
102
RTVSPropertyOp26
 70
     1
102
RTVSPropertyOp27
 70
     1
102
RTVSPropertyOp28
 70
     1
102
RTVSPropertyOp29
 70
     1
102
RTVSPropertyOp30
 70
     1
102
RTVSPropertyOp31
 70
     1
102
RTVSPropertyOp32
 70
     1
  0
XRECORD
  5
2147
102
{ACAD_REACTORS
330
2146
102
}
330
2146
100
AcDbXrecord
280
     1
102
RTVSPropertyOp0
 70
     1
102
RTVSPropertyOp1
 70
     1
102
RTVSPropertyOp2
 70
     1
102
RTVSPropertyOp3
 70
     1
102
RTVSPropertyOp4
 70
     1
102
RTVSPropertyOp5
 70
     1
102
RTVSPropertyOp6
 70
     1
102
RTVSPropertyOp7
 70
     1
102
RTVSPropertyOp8
 70
     1
102
RTVSPropertyOp9
 70
     1
102
RTVSPropertyOp10
 70
     1
102
RTVSPropertyOp11
 70
     1
102
RTVSPropertyOp12
 70
     1
102
RTVSPropertyOp13
 70
     1
102
RTVSPropertyOp14
 70
     1
102
RTVSPropertyOp15
 70
     1
102
RTVSPropertyOp16
 70
     1
102
RTVSPropertyOp17
 70
     1
102
RTVSPropertyOp18
 70
     1
102
RTVSPropertyOp19
 70
     1
102
RTVSPropertyOp20
 70
     1
102
RTVSPropertyOp21
 70
     1
102
RTVSPropertyOp22
 70
     1
102
RTVSPropertyOp23
 70
     1
102
RTVSPropertyOp24
 70
     1
102
RTVSPropertyOp25
 70
     1
102
RTVSPropertyOp26
 70
     1
102
RTVSPropertyOp27
 70
     1
102
RTVSPropertyOp28
 70
     1
102
RTVSPropertyOp29
 70
     1
102
RTVSPropertyOp30
 70
     1
102
RTVSPropertyOp31
 70
     1
102
RTVSPropertyOp32
 70
     1
  0
XRECORD
  5
213D
102
{ACAD_REACTORS
330
213C
102
}
330
213C
100
AcDbXrecord
280
     1
102
RTVSPropertyOp0
 70
     1
102
RTVSPropertyOp1
 70
     1
102
RTVSPropertyOp2
 70
     1
102
RTVSPropertyOp3
 70
     1
102
RTVSPropertyOp4
 70
     1
102
RTVSPropertyOp5
 70
     1
102
RTVSPropertyOp6
 70
     1
102
RTVSPropertyOp7
 70
     1
102
RTVSPropertyOp8
 70
     1
102
RTVSPropertyOp9
 70
     1
102
RTVSPropertyOp10
 70
     1
102
RTVSPropertyOp11
 70
     1
102
RTVSPropertyOp12
 70
     1
102
RTVSPropertyOp13
 70
     1
102
RTVSPropertyOp14
 70
     1
102
RTVSPropertyOp15
 70
     1
102
RTVSPropertyOp16
 70
     1
102
RTVSPropertyOp17
 70
     1
102
RTVSPropertyOp18
 70
     1
102
RTVSPropertyOp19
 70
     1
102
RTVSPropertyOp20
 70
     1
102
RTVSPropertyOp21
 70
     1
102
RTVSPropertyOp22
 70
     1
102
RTVSPropertyOp23
 70
     1
102
RTVSPropertyOp24
 70
     1
102
RTVSPropertyOp25
 70
     1
102
RTVSPropertyOp26
 70
     1
102
RTVSPropertyOp27
 70
     1
102
RTVSPropertyOp28
 70
     1
102
RTVSPropertyOp29
 70
     1
102
RTVSPropertyOp30
 70
     1
102
RTVSPropertyOp31
 70
     1
102
RTVSPropertyOp32
 70
     1
  0
XRECORD
  5
2131
102
{ACAD_REACTORS
330
2130
102
}
330
2130
100
AcDbXrecord
280
     1
102
RTVSPropertyOp0
 70
     1
102
RTVSPropertyOp1
 70
     1
102
RTVSPropertyOp2
 70
     1
102
RTVSPropertyOp3
 70
     1
102
RTVSPropertyOp4
 70
     1
102
RTVSPropertyOp5
 70
     1
102
RTVSPropertyOp6
 70
     1
102
RTVSPropertyOp7
 70
     1
102
RTVSPropertyOp8
 70
     1
102
RTVSPropertyOp9
 70
     1
102
RTVSPropertyOp10
 70
     1
102
RTVSPropertyOp11
 70
     1
102
RTVSPropertyOp12
 70
     1
102
RTVSPropertyOp13
 70
     1
102
RTVSPropertyOp14
 70
     1
102
RTVSPropertyOp15
 70
     1
102
RTVSPropertyOp16
 70
     1
102
RTVSPropertyOp17
 70
     1
102
RTVSPropertyOp18
 70
     1
102
RTVSPropertyOp19
 70
     1
102
RTVSPropertyOp20
 70
     1
102
RTVSPropertyOp21
 70
     1
102
RTVSPropertyOp22
 70
     1
102
RTVSPropertyOp23
 70
     1
102
RTVSPropertyOp24
 70
     1
102
RTVSPropertyOp25
 70
     1
102
RTVSPropertyOp26
 70
     1
102
RTVSPropertyOp27
 70
     1
102
RTVSPropertyOp28
 70
     1
102
RTVSPropertyOp29
 70
     1
102
RTVSPropertyOp30
 70
     1
102
RTVSPropertyOp31
 70
     1
102
RTVSPropertyOp32
 70
     1
  0
XRECORD
  5
2149
102
{ACAD_REACTORS
330
2148
102
}
330
2148
100
AcDbXrecord
280
     1
102
RTVSPropertyOp0
 70
     1
102
RTVSPropertyOp1
 70
     1
102
RTVSPropertyOp2
 70
     1
102
RTVSPropertyOp3
 70
     1
102
RTVSPropertyOp4
 70
     1
102
RTVSPropertyOp5
 70
     1
102
RTVSPropertyOp6
 70
     1
102
RTVSPropertyOp7
 70
     1
102
RTVSPropertyOp8
 70
     1
102
RTVSPropertyOp9
 70
     1
102
RTVSPropertyOp10
 70
     1
102
RTVSPropertyOp11
 70
     1
102
RTVSPropertyOp12
 70
     1
102
RTVSPropertyOp13
 70
     1
102
RTVSPropertyOp14
 70
     1
102
RTVSPropertyOp15
 70
     1
102
RTVSPropertyOp16
 70
     1
102
RTVSPropertyOp17
 70
     1
102
RTVSPropertyOp18
 70
     1
102
RTVSPropertyOp19
 70
     1
102
RTVSPropertyOp20
 70
     1
102
RTVSPropertyOp21
 70
     1
102
RTVSPropertyOp22
 70
     1
102
RTVSPropertyOp23
 70
     1
102
RTVSPropertyOp24
 70
     1
102
RTVSPropertyOp25
 70
     1
102
RTVSPropertyOp26
 70
     1
102
RTVSPropertyOp27
 70
     1
102
RTVSPropertyOp28
 70
     1
102
RTVSPropertyOp29
 70
     1
102
RTVSPropertyOp30
 70
     1
102
RTVSPropertyOp31
 70
     1
102
RTVSPropertyOp32
 70
     1
  0
ENDSEC
  0
EOF
