  0
SECTION
  2
HEADER
  9
$ACADVER
  1
AC1009
  9
$INSBASE
 10
0.0
 20
0.0
 30
0.0
  9
$EXTMIN
 10
1659.92812731041
 20
-0.1331117004783664
 30
-0.0000000000000058
  9
$EXTMAX
 10
5293.0651937261928
 20
2908.771980247051
 30
0.0000000000000104
  9
$LIMMIN
 10
0.0
 20
0.0
  9
$LIMMAX
 10
3890.0
 20
2660.0
  9
$ORTHOMODE
 70
     1
  9
$REGENMODE
 70
     1
  9
$FILLMODE
 70
     1
  9
$QTEXTMODE
 70
     0
  9
$MIRRTEXT
 70
     0
  9
$DRAGMODE
 70
     2
  9
$LTSCALE
 40
100.0
  9
$OSMODE
 70
     0
  9
$ATTMODE
 70
     1
  9
$TEXTSIZE
 40
30.0
  9
$TRACEWID
 40
0.05
  9
$TEXTSTYLE
  7
TITLE3
  9
$CLAYER
  8
OUTLINE
  9
$CELTYPE
  6
BYLAYER
  9
$CECOLOR
 62
   256
  9
$DIMSCALE
 40
1.0
  9
$DIMASZ
 40
0.12
  9
$DIMEXO
 40
0.05
  9
$DIMDLI
 40
0.5
  9
$DIMRND
 40
0.0
  9
$DIMDLE
 40
0.0
  9
$DIMEXE
 40
0.1
  9
$DIMTP
 40
0.1
  9
$DIMTM
 40
0.1
  9
$DIMTXT
 40
0.12
  9
$DIMCEN
 40
0.0
  9
$DIMTSZ
 40
0.0
  9
$DIMTOL
 70
     0
  9
$DIMLIM
 70
     0
  9
$DIMTIH
 70
     1
  9
$DIMTOH
 70
     1
  9
$DIMSE1
 70
     0
  9
$DIMSE2
 70
     0
  9
$DIMTAD
 70
     0
  9
$DIMZIN
 70
     7
  9
$DIMBLK
  1

  9
$DIMASO
 70
     0
  9
$DIMSHO
 70
     0
  9
$DIMPOST
  1

  9
$DIMAPOST
  1
mm
  9
$DIMALT
 70
     0
  9
$DIMALTD
 70
     2
  9
$DIMALTF
 40
25.399999999999999
  9
$DIMLFAC
 40
1.0
  9
$DIMTOFL
 70
     0
  9
$DIMTVP
 40
0.0
  9
$DIMTIX
 70
     0
  9
$DIMSOXD
 70
     0
  9
$DIMSAH
 70
     0
  9
$DIMBLK1
  1

  9
$DIMBLK2
  1

  9
$DIMSTYLE
  2
AM_ANSI
  9
$DIMCLRD
 70
   256
  9
$DIMCLRE
 70
   256
  9
$DIMCLRT
 70
     2
  9
$DIMTFAC
 40
0.71
  9
$DIMGAP
 40
0.06
  9
$LUNITS
 70
     2
  9
$LUPREC
 70
     2
  9
$SKETCHINC
 40
0.1
  9
$FILLETRAD
 40
0.0
  9
$AUNITS
 70
     0
  9
$AUPREC
 70
     2
  9
$MENU
  1
\acad12\support\cnc
  9
$ELEVATION
 40
0.0
  9
$PELEVATION
 40
0.0
  9
$THICKNESS
 40
0.0
  9
$LIMCHECK
 70
     0
  9
$BLIPMODE
 70
     0
  9
$CHAMFERA
 40
40.0
  9
$CHAMFERB
 40
40.0
  9
$SKPOLY
 70
     0
  9
$TDCREATE
 40
2451227.5696063661
  9
$TDUPDATE
 40
2454699.5268036691
  9
$TDINDWG
 40
0.5478991319
  9
$TDUSRTIMER
 40
0.5478969444
  9
$USRTIMER
 70
     1
  9
$ANGBASE
 50
0.0
  9
$ANGDIR
 70
     0
  9
$PDMODE
 70
     2
  9
$PDSIZE
 40
10.0
  9
$PLINEWID
 40
0.0
  9
$COORDS
 70
     1
  9
$SPLFRAME
 70
     0
  9
$SPLINETYPE
 70
     6
  9
$SPLINESEGS
 70
     8
  9
$ATTDIA
 70
     1
  9
$ATTREQ
 70
     1
  9
$HANDLING
 70
     1
  9
$HANDSEED
  5
166C
  9
$SURFTAB1
 70
     6
  9
$SURFTAB2
 70
     6
  9
$SURFTYPE
 70
     6
  9
$SURFU
 70
     6
  9
$SURFV
 70
     6
  9
$UCSNAME
  2

  9
$UCSORG
 10
0.0
 20
0.0
 30
0.0
  9
$UCSXDIR
 10
1.0
 20
0.0
 30
0.0
  9
$UCSYDIR
 10
0.0
 20
1.0
 30
0.0
  9
$PUCSNAME
  2

  9
$PUCSORG
 10
0.0
 20
0.0
 30
0.0
  9
$PUCSXDIR
 10
1.0
 20
0.0
 30
0.0
  9
$PUCSYDIR
 10
0.0
 20
1.0
 30
0.0
  9
$USERI1
 70
     0
  9
$USERI2
 70
     0
  9
$USERI3
 70
     0
  9
$USERI4
 70
     0
  9
$USERI5
 70
     0
  9
$USERR1
 40
0.0
  9
$USERR2
 40
0.0
  9
$USERR3
 40
0.0
  9
$USERR4
 40
0.0
  9
$USERR5
 40
0.0
  9
$WORLDVIEW
 70
     1
  9
$SHADEDGE
 70
     3
  9
$SHADEDIF
 70
    70
  9
$TILEMODE
 70
     1
  9
$MAXACTVP
 70
    16
  9
$PLIMCHECK
 70
     0
  9
$PEXTMIN
 10
1.0499999523162831
 20
0.7999999523162842
 30
0.0
  9
$PEXTMAX
 10
9.4499995708465594
 20
7.1999995708465541
 30
0.0
  9
$PLIMMIN
 10
-0.2500002402958907
 20
-0.2499999962453767
  9
$PLIMMAX
 10
10.74999951940822
 20
8.2499997634587334
  9
$UNITMODE
 70
     0
  9
$VISRETAIN
 70
     0
  9
$PLINEGEN
 70
     0
  9
$PSLTSCALE
 70
     0
  0
ENDSEC
  0
SECTION
  2
TABLES
  0
TABLE
  2
VPORT
 70
     1
  0
VPORT
  2
*ACTIVE
 70
     0
 10
0.0
 20
0.0
 11
1.0
 21
1.0
 12
3476.4966605183022
 22
1454.3194342732861
 13
0.0
 23
0.0
 14
25.0
 24
25.0
 15
100.0
 25
100.0
 16
0.0
 26
0.0
 36
1.0
 17
0.0
 27
0.0
 37
0.0
 40
2930.886742516403
 41
1.5308953341740219
 42
50.0
 43
0.0
 44
0.0
 50
0.0
 51
0.0
 71
     0
 72
   100
 73
     1
 74
     0
 75
     0
 76
     0
 77
     0
 78
     2
  0
ENDTAB
  0
TABLE
  2
LTYPE
 70
    17
  0
LTYPE
  2
CONTINUOUS
 70
     0
  3
Solid line
 72
    65
 73
     0
 40
0.0
  0
LTYPE
  2
HIDDEN
 70
     0
  3
__ __ __ __ __ __ __ __ __ __ __ __ __ __ __ __
 72
    65
 73
     2
 40
0.375
 49
0.25
 49
-0.125
  0
LTYPE
  2
PHANTOM
 70
     0
  3
Phantom ______  __  __  ______  __  __  ______
 72
    65
 73
     6
 40
2.5
 49
1.25
 49
-0.25
 49
0.25
 49
-0.25
 49
0.25
 49
-0.25
  0
LTYPE
  2
PHANTOM2
 70
     0
  3
Phantom (.5x) ___ _ _ ___ _ _ ___ _ _ ___ _ _
 72
    65
 73
     6
 40
1.25
 49
0.625
 49
-0.125
 49
0.125
 49
-0.125
 49
0.125
 49
-0.125
  0
LTYPE
  2
CENTER
 70
     0
  3
Center ____ _ ____ _ ____ _ ____ _ ____ _ ____
 72
    65
 73
     4
 40
2.0
 49
1.25
 49
-0.25
 49
0.25
 49
-0.25
  0
LTYPE
  2
AM_ISO02W050
 70
     0
  3
__ __ __ __ __ __ __ __ __ __ __ __ __ __ __
 72
    65
 73
     2
 40
7.5
 49
6.0
 49
-1.5
  0
LTYPE
  2
AM_ISO08W050
 70
     0
  3
____ . ____ . ____ . ____ . ____ . ____ . ____
 72
    65
 73
     4
 40
18.0
 49
12.0
 49
-1.5
 49
3.0
 49
-1.5
  0
LTYPE
  2
AM_ISO09W050
 70
     0
  3
_____ . . _____ . . _____ . . ____ .. ____
 72
    65
 73
     6
 40
22.5
 49
12.0
 49
-1.5
 49
3.0
 49
-1.5
 49
3.0
 49
-1.5
  0
LTYPE
  2
AMCONSTR
 70
     0
  3
_______________________
 72
    65
 73
     2
 40
9999.0
 49
9999.0
 49
0.0
  0
LTYPE
  2
AM_ISO08W050X2
 70
     0
  3
__ . __ . __ . __ . __ . __
 72
    65
 73
     4
 40
9.0
 49
6.0
 49
-0.75
 49
1.5
 49
-0.75
  0
LTYPE
  2
AM_ISO02W050X2
 70
     0
  3
 _ _ _ _ _ _ _ _ _ _ _ _
 72
    65
 73
     2
 40
3.75
 49
3.0
 49
-0.75
  0
LTYPE
  2
AMZIGZAG
 70
     0
  3
/\/-/\/-/\/-/\/-/\/-/\/
 72
    65
 73
     2
 40
11.0001
 49
0.0001
 49
-11.0
  0
LTYPE
  2
CENTER2
 70
     0
  3
Center (.5x) ___ _ ___ _ ___ _ ___ _ ___ _ ___
 72
    65
 73
     4
 40
1.125
 49
0.75
 49
-0.125
 49
0.125
 49
-0.125
  0
LTYPE
  2
HIDDEN2
 70
     0
  3
Hidden (.5x) _ _ _ _ _ _ _ _ _ _ _ _ _ _ _ _ _
 72
    65
 73
     2
 40
0.1875
 49
0.125
 49
-0.0625
  0
LTYPE
  2
AMZIGZAG2
 70
     0
  3
/\/-/\/-/\/-/\/-/\/-/\/
 72
    65
 73
     2
 40
0.4401
 49
0.0001
 49
-0.4400000000000003
  0
LTYPE
  2
ACANSTGB
 70
     0
  3
__ . . __ . .
 72
    65
 73
     6
 40
0.35433070866
 49
0.15748031496
 49
-0.03937007874
 49
0.03937007874
 49
-0.03937007874
 49
0.03937007874
 49
-0.03937007874
  0
LTYPE
  2
ACANSTGL
 70
     0
  3
_ _ _ _ _
 72
    65
 73
     2
 40
0.11811023622
 49
0.07874015748
 49
-0.03937007874
  0
ENDTAB
  0
TABLE
  2
LAYER
 70
     6
  0
LAYER
  2
0
 70
     0
 62
     7
  6
CONTINUOUS
  0
LAYER
  2
OUTLINE
 70
     0
 62
     7
  6
CONTINUOUS
  0
LAYER
  2
TEXT
 70
     0
 62
   100
  6
CONTINUOUS
  0
LAYER
  2
DIM
 70
     0
 62
     7
  6
CONTINUOUS
  0
LAYER
  2
OVERLAY-A3
 70
     0
 62
     7
  6
CONTINUOUS
  0
LAYER
  2
CLEAR
 70
     0
 62
     1
  6
PHANTOM
  0
ENDTAB
  0
TABLE
  2
STYLE
 70
     8
  0
STYLE
  2
STANDARD
 70
     0
 40
0.0
 41
1.0
 50
0.0
 71
     0
 42
0.2
  3
txt
  4

  0
STYLE
  2
ANNOTATIVE
 70
     0
 40
0.0
 41
1.0
 50
0.0
 71
     0
 42
0.2
  3
txt
  4

  0
STYLE
  2
TITLE3
 70
     0
 40
30.0
 41
1.0
 50
0.0
 71
     0
 42
30.0
  3
SIMPLEX
  4

  0
STYLE
  2
SIMPLEX
 70
     0
 40
40.0
 41
1.0
 50
0.0
 71
     0
 42
25.0
  3
SIMPLEX
  4

  0
STYLE
  2
TITLE5
 70
     0
 40
5.0
 41
1.0
 50
0.0
 71
     0
 42
5.0
  3
SIMPLEX.shx
  4

  0
STYLE
  2

 70
     1
 40
0.0
 41
1.0
 50
0.0
 71
     0
 42
30.0
  3
genltshp.shx
  4

  0
STYLE
  2
ACANSTS
 70
     0
 40
1.0
 41
1.0
 50
0.0
 71
     0
 42
30.0
  3
romans.shx
  4

  0
STYLE
  2
ACANSGDT
 70
     0
 40
0.0
 41
1.0
 50
0.0
 71
     0
 42
30.0
  3
amgdt.shx
  4

  0
ENDTAB
  0
TABLE
  2
VIEW
 70
     0
  0
ENDTAB
  0
TABLE
  2
UCS
 70
     0
  0
ENDTAB
  0
TABLE
  2
APPID
 70
    15
  0
APPID
  2
ACAD
 70
     0
  0
APPID
  2
ACADANNOTATIVE
 70
     0
  0
APPID
  2
ACAD_MLEADERVER
 70
     0
  0
APPID
  2
ACAD_EXEMPT_FROM_CAD_STANDARDS
 70
     0
  0
APPID
  2
ACAD_PSEXT
 70
     0
  0
APPID
  2
MCAD_NO_VIS
 70
     0
  0
APPID
  2
ACAD_TEMP_GRAPHIC
 70
     0
  0
APPID
  2
AD_DRAW
 70
     0
  0
APPID
  2
ACATTRIBSERVICES
 70
     0
  0
APPID
  2
DESIGNERASSEMBLIES
 70
     0
  0
APPID
  2
ACADM_DIM_EDIT
 70
     0
  0
APPID
  2
AMDT_DM_ADJ
 70
     0
  0
APPID
  2
GENIUS_GENSCREG_15
 70
     0
  0
APPID
  2
GENIUS_GENOBJ-N-SDF_13
 70
     0
  0
APPID
  2
GENIUS_GENODEF_13
 70
     0
  0
ENDTAB
  0
TABLE
  2
DIMSTYLE
 70
     8
  0
DIMSTYLE
  2
STANDARD
 70
     0
  3

  4

  5

  6

  7

 40
1.0
 41
0.18
 42
0.0625
 43
0.38
 44
0.18
 45
0.0
 46
0.0
 47
0.0
 48
0.0
140
0.18
141
0.09
142
0.0
143
25.399999999999999
144
1.0
145
0.0
146
1.0
147
0.09
 71
     0
 72
     0
 73
     1
 74
     1
 75
     0
 76
     0
 77
     0
 78
     0
170
     0
171
     2
172
     0
173
     0
174
     0
175
     0
176
     0
177
     0
178
     0
  0
DIMSTYLE
  2
ANNOTATIVE
 70
     0
  3

  4

  5

  6

  7

 40
1.0
 41
0.18
 42
0.0625
 43
0.38
 44
0.18
 45
0.0
 46
0.0
 47
0.0
 48
0.0
140
0.18
141
0.09
142
0.0
143
25.399999999999999
144
1.0
145
0.0
146
1.0
147
0.09
 71
     0
 72
     0
 73
     1
 74
     1
 75
     0
 76
     0
 77
     0
 78
     0
170
     0
171
     2
172
     0
173
     0
174
     0
175
     0
176
     0
177
     0
178
     0
  0
DIMSTYLE
  2
AM_ANSI
 70
     0
  3

  4
mm
  5

  6

  7

 40
1.0
 41
0.12
 42
0.05
 43
0.5
 44
0.1
 45
0.0
 46
0.0
 47
0.1
 48
0.1
140
0.12
141
0.0
142
0.0
143
25.399999999999999
144
1.0
145
0.0
146
0.71
147
0.06
 71
     0
 72
     0
 73
     1
 74
     1
 75
     0
 76
     0
 77
     0
 78
     7
170
     0
171
     2
172
     0
173
     0
174
     0
175
     0
176
   256
177
   256
178
     2
  0
DIMSTYLE
  2
AM_ANSI$3
 70
     0
  3

  4
mm
  5

  6

  7

 40
1.0
 41
0.12
 42
0.05
 43
0.5
 44
0.1
 45
0.0
 46
0.0
 47
0.1
 48
0.1
140
0.12
141
0.0
142
0.0
143
25.399999999999999
144
1.0
145
0.0
146
0.71
147
0.06
 71
     0
 72
     0
 73
     1
 74
     1
 75
     0
 76
     0
 77
     0
 78
     7
170
     0
171
     2
172
     0
173
     0
174
     0
175
     0
176
   256
177
   256
178
     2
  0
DIMSTYLE
  2
AM_ANSI$4
 70
     0
  3

  4
mm
  5

  6

  7

 40
1.0
 41
0.12
 42
0.05
 43
0.5
 44
0.1
 45
0.0
 46
0.0
 47
0.1
 48
0.1
140
0.12
141
0.0
142
0.0
143
25.399999999999999
144
1.0
145
0.0
146
0.71
147
0.06
 71
     0
 72
     0
 73
     1
 74
     1
 75
     0
 76
     0
 77
     0
 78
     7
170
     0
171
     2
172
     0
173
     0
174
     0
175
     0
176
   256
177
   256
178
     2
  0
DIMSTYLE
  2
AM_ANSI$7
 70
     0
  3

  4
mm
  5

  6

  7

 40
1.0
 41
0.12
 42
0.05
 43
0.5
 44
0.1
 45
0.0
 46
0.0
 47
0.1
 48
0.1
140
0.12
141
0.0
142
0.0
143
25.399999999999999
144
1.0
145
0.0
146
0.71
147
0.06
 71
     0
 72
     0
 73
     1
 74
     1
 75
     0
 76
     0
 77
     0
 78
     7
170
     0
171
     2
172
     0
173
     0
174
     0
175
     0
176
   256
177
   256
178
     2
  0
DIMSTYLE
  2
AM_ANSI$SF
 70
     0
  3

  4
mm
  5

  6

  7

 40
1.0
 41
0.12
 42
0.05
 43
0.5
 44
0.1
 45
0.0
 46
0.0
 47
0.1
 48
0.1
140
0.12
141
0.0
142
0.0
143
25.399999999999999
144
1.0
145
0.0
146
0.71
147
0.06
 71
     0
 72
     0
 73
     1
 74
     1
 75
     1
 76
     1
 77
     0
 78
     7
170
     0
171
     2
172
     0
173
     0
174
     0
175
     0
176
   256
177
   256
178
     2
  0
DIMSTYLE
  2
AM_ANSI$SH
 70
     0
  3

  4
mm
  5

  6
GENAXEH
  7

 40
1.0
 41
0.12
 42
0.05
 43
0.5
 44
0.1
 45
0.0
 46
0.0
 47
0.1
 48
0.1
140
0.12
141
0.0
142
0.0
143
25.399999999999999
144
1.0
145
0.0
146
0.71
147
0.06
 71
     0
 72
     0
 73
     1
 74
     1
 75
     1
 76
     1
 77
     0
 78
     7
170
     0
171
     2
172
     0
173
     1
174
     0
175
     0
176
   256
177
   256
178
     2
  0
ENDTAB
  0
ENDSEC
  0
SECTION
  2
BLOCKS
  0
BLOCK
  8
0
  2
$MODEL_SPACE
 70
     0
 10
0.0
 20
0.0
 30
0.0
  3
$MODEL_SPACE
  1

  0
ENDBLK
  5
1570
  8
0
  0
BLOCK
 67
     1
  8
0
  2
$PAPER_SPACE
 70
     0
 10
0.0
 20
0.0
 30
0.0
  3
$PAPER_SPACE
  1

  0
ENDBLK
  5
156C
 67
     1
  8
0
  0
BLOCK
  8
0
  2
NEW_BLOCK
 70
     0
 10
0.0
 20
0.0
 30
0.0
  3
NEW_BLOCK
  1

  0
TEXT
  5
BA1
  8
TEXT
 10
27.285946821803002
 20
25.27142175952417
 30
0.0
 40
40.0
  1
available on request
  7
TITLE3
  0
TEXT
  5
BA2
  8
TEXT
 10
27.285946821803002
 20
93.842850330952714
 30
0.0
 40
40.0
  1
Certified dimensions
  7
TITLE3
  0
TEXT
  5
BA3
  8
TEXT
 10
27.285946821803002
 20
162.4142789023812
 30
0.0
 40
40.0
  1
without notice or obligation.
  7
TITLE3
  0
TEXT
  5
BA4
  8
TEXT
 10
27.285946821803002
 20
230.9857074738097
 30
0.0
 40
40.0
  1
specifications at any time
  7
TITLE3
  0
TEXT
  5
BA5
  8
TEXT
 10
27.285946821803002
 20
299.55713604523839
 30
0.0
 40
40.0
  1
the right to change 
  7
TITLE3
  0
TEXT
  5
BA6
  8
TEXT
 10
27.285946821803002
 20
436.69999318809488
 30
0.0
 40
40.0
  1
NOTE
  7
TITLE3
  0
TEXT
  5
BA7
  8
TEXT
 10
27.285946821803002
 20
368.12856461666678
 30
0.0
 40
40.0
  1
The manufacturer reserves
  7
TITLE3
  0
ENDBLK
  5
BA8
  8
0
  0
BLOCK
  8
0
  2
GENAXEH
 70
     0
 10
0.0
 20
0.0
 30
0.0
  3
GENAXEH
  1

  0
LINE
  5
EBC
  8
0
 10
-1.0
 20
0.0
 30
0.0
 11
1.0
 21
0.0
 31
0.0
  0
ENDBLK
  5
EBE
  8
0
  0
BLOCK
  8
0
  2
*U4
 70
     1
 10
0.0
 20
0.0
 30
0.0
  3
*U4
  1

  0
TEXT
  5
1018
  8
DIM
 10
2077.4375141191472
 20
1268.50044636661
 30
0.0
 40
30.0
  1
630
  7
TITLE3
  0
ENDBLK
  5
101A
  8
0
  0
BLOCK
  8
0
  2
*U5
 70
     1
 10
0.0
 20
0.0
 30
0.0
  3
*U5
  1

  0
TEXT
  5
1364
  8
DIM
 10
1718.679823857497
 20
856.00464512306223
 30
0.0
 40
30.0
  1
582
 50
90.0
  7
TITLE3
  0
ENDBLK
  5
1366
  8
0
  0
BLOCK
  8
0
  2
*U6
 70
     1
 10
0.0
 20
0.0
 30
0.0
  3
*U6
  1

  0
TEXT
  5
1368
  8
DIM
 10
2562.8119031073911
 20
969.86178798020569
 30
0.0
 40
30.0
  1
310
 50
90.0
  7
TITLE3
  0
ENDBLK
  5
136A
  8
0
  0
BLOCK
  8
0
  2
*U7
 70
     1
 10
0.0
 20
0.0
 30
0.0
  3
*U7
  1

  0
TEXT
  5
136C
  8
DIM
 10
4475.2658442743013
 20
1715.775123278399
 30
0.0
 40
30.0
  1
291
  7
TITLE3
  0
ENDBLK
  5
136E
  8
0
  0
BLOCK
  8
0
  2
*U8
 70
     1
 10
0.0
 20
0.0
 30
0.0
  3
*U8
  1

  0
TEXT
  5
1370
  8
DIM
 10
2936.8752107519658
 20
1719.6607658733169
 30
0.0
 40
30.0
  1
85
  0
ENDBLK
  5
1372
  8
0
  0
BLOCK
  8
0
  2
*U9
 70
     1
 10
0.0
 20
0.0
 30
0.0
  3
*U9
  1

  0
TEXT
  5
1374
  8
DIM
 10
2632.6046719684409
 20
2570.7082691849218
 30
0.0
 40
30.0
  1
61
  7
TITLE3
  0
ENDBLK
  5
1376
  8
0
  0
BLOCK
  8
0
  2
*U10
 70
     1
 10
0.0
 20
0.0
 30
0.0
  3
*U10
  1

  0
TEXT
  5
1378
  8
DIM
 10
3620.4087014171582
 20
2621.4506412442961
 30
0.0
 40
30.0
  1
1708
  0
ENDBLK
  5
137A
  8
0
  0
BLOCK
  8
0
  2
*U11
 70
     1
 10
0.0
 20
0.0
 30
0.0
  3
*U11
  1

  0
TEXT
  5
137C
  8
DIM
 10
4693.6594282268397
 20
2621.4506412442961
 30
0.0
 40
30.0
  1
128
  0
ENDBLK
  5
137E
  8
0
  0
BLOCK
  8
0
  2
*U12
 70
     1
 10
0.0
 20
0.0
 30
0.0
  3
*U12
  1

  0
TEXT
  5
1380
  8
DIM
 10
4897.3944157028727
 20
823.72620930878463
 30
0.0
 40
30.0
  1
105
  7
TITLE3
  0
ENDBLK
  5
1382
  8
0
  0
BLOCK
  8
0
  2
*U13
 70
     1
 10
0.0
 20
0.0
 30
0.0
  3
*U13
  1

  0
TEXT
  5
1384
  8
DIM
 10
4788.2202554644846
 20
495.88489496167489
 30
0.0
 40
30.0
  1
51
  7
TITLE3
  0
ENDBLK
  5
1386
  8
0
  0
BLOCK
  8
0
  2
*U14
 70
     1
 10
0.0
 20
0.0
 30
0.0
  3
*U14
  1

  0
TEXT
  5
1388
  8
DIM
 10
3549.194415702872
 20
1646.379796224403
 30
0.0
 40
30.0
  1
1524
  7
TITLE3
  0
ENDBLK
  5
138A
  8
0
  0
ENDSEC
  0
SECTION
  2
ENTITIES
  0
LINE
  5
BA9
  8
OUTLINE
 10
4624.4107221538488
 20
1236.574552901704
 30
0.0
 11
2785.010763627236
 21
1236.574552901704
 31
0.0
  0
LINE
  5
BAA
  8
OUTLINE
 10
4624.4107221538488
 20
538.57455290170469
 30
0.0
 11
2785.010763627236
 21
538.57455290170469
 31
0.0
  0
LINE
  5
BAB
  8
OUTLINE
 10
4656.808701417157
 20
1236.576073694491
 30
0.0
 11
2752.608742890548
 21
1236.576073694491
 31
0.0
  0
LINE
  5
BAC
  8
OUTLINE
 10
4645.6087014171599
 20
538.57607369449215
 30
0.0
 11
2763.8087428905451
 21
538.57607369449204
 31
0.0
  0
LINE
  5
BAD
  8
OUTLINE
 10
4361.6087014171553
 20
1160.5760736944919
 30
0.0
 11
2837.6087014171571
 21
1160.5760736944901
 31
0.0
  0
LINE
  5
BAE
  8
OUTLINE
 10
4361.608701417159
 20
850.57607369449261
 30
0.0
 11
2837.6087014171571
 21
850.57607369449215
 31
0.0
  0
LINE
  5
BB0
  8
OUTLINE
 10
4649.9087014171573
 20
2481.3735927723801
 30
0.0
 11
2752.9087428905441
 21
2481.3735927723801
 31
0.0
  0
LINE
  5
BB2
  8
OUTLINE
 10
4361.9087014171573
 20
1794.3735927723781
 30
0.0
 11
2837.9087014171569
 21
1794.373592772379
 31
0.0
  0
LINE
  5
BB4
  8
OUTLINE
 10
1801.0089426905749
 20
1236.576073694491
 30
0.0
 11
2431.0089426905752
 21
1236.576073694491
 31
0.0
  0
LINE
  5
BB5
  8
OUTLINE
 10
2431.0089426905752
 20
538.57607369449204
 30
0.0
 11
1801.008942690574
 21
538.57607369449204
 31
0.0
  0
ARC
  5
BB6
  8
OUTLINE
  6
HIDDEN
 10
2228.5740988325429
 20
927.96925194616995
 30
0.0
 40
221.88999999999999
 50
186.51936645901071
 51
229.86778508980299
  0
LINE
  5
BB7
  8
OUTLINE
 10
2431.0089426905752
 20
1235.3760736944901
 30
0.0
 11
2431.0089426905752
 21
538.57607369449204
 31
0.0
  0
ARC
  5
BB8
  8
OUTLINE
  6
HIDDEN
 10
2218.6189426905748
 20
887.25525841431772
 30
0.0
 40
173.71630280363141
 50
321.7840949830121
 51
352.2322314357956
  0
ARC
  5
BB9
  8
OUTLINE
  6
HIDDEN
 10
2205.3910206292171
 20
898.77607369448924
 30
0.0
 40
191.23833976769521
 50
276.5238608340415
 51
321.52386083405941
  0
ARC
  5
BBA
  8
OUTLINE
  6
HIDDEN
 10
2218.5082821012911
 20
911.19136209860631
 30
0.0
 40
202.5983525488445
 50
228.98586955896249
 51
272.43586955890788
  0
CIRCLE
  5
BBB
  8
OUTLINE
  6
HIDDEN
 10
2227.1189426905748
 20
907.77607369448924
 30
0.0
 40
96.25
  0
LINE
  5
BBC
  8
OUTLINE
  6
HIDDEN
 10
2230.0089426905761
 20
1153.776073694489
 30
0.0
 11
2403.6089426905751
 21
1153.776073694489
 31
0.0
  0
LINE
  5
BBD
  8
OUTLINE
  6
HIDDEN
 10
2403.6089426905751
 20
1152.760647082602
 30
0.0
 11
2403.6089426905751
 21
863.77607369448958
 31
0.0
  0
LINE
  5
BBE
  8
OUTLINE
 10
2488.0089426905752
 20
1160.5760736944901
 30
0.0
 11
2488.0089426905752
 21
850.5760736944917
 31
0.0
  0
LINE
  5
BBF
  8
OUTLINE
 10
2431.0089426905752
 20
1236.576073694491
 30
0.0
 11
2431.0089426905752
 21
870.37455290170533
 31
0.0
  0
LINE
  5
BC0
  8
OUTLINE
  6
HIDDEN
 10
2390.7412298722629
 20
863.77607369448958
 30
0.0
 11
2403.6089426905751
 21
863.77607369448958
 31
0.0
  0
LINE
  5
BC1
  8
OUTLINE
 10
2431.0089426905761
 20
850.5760736944917
 30
0.0
 11
2488.0089426905752
 21
850.5760736944917
 31
0.0
  0
LINE
  5
BC2
  8
OUTLINE
 10
2432.208942690575
 20
870.37455290170442
 30
0.0
 11
2432.208942690575
 21
900.37455290170521
 31
0.0
  0
LINE
  5
BC3
  8
OUTLINE
 10
2431.0089426905752
 20
870.37455290170533
 30
0.0
 11
2432.208942690575
 21
870.37455290170442
 31
0.0
  0
LINE
  5
BC4
  8
OUTLINE
 10
2432.208942690575
 20
1160.5760736944901
 30
0.0
 11
2488.0089426905752
 21
1160.5760736944901
 31
0.0
  0
ARC
  5
BC6
  8
OUTLINE
  6
HIDDEN
 10
2244.545111839549
 20
917.75193899642807
 30
0.0
 40
236.90000000000001
 50
140.05364795515109
 51
183.62442552808139
  0
ARC
  5
BC7
  8
OUTLINE
  6
HIDDEN
 10
2251.0172149105751
 20
903.65679715161355
 30
0.0
 40
251.0
 50
94.801175959448656
 51
138.53537405503519
  0
LINE
  5
BC8
  8
OUTLINE
 10
4361.608701417159
 20
850.57607369449261
 30
0.0
 11
4361.6087014171553
 21
1160.5760736944919
 31
0.0
  0
LINE
  5
BC9
  8
OUTLINE
 10
1744.008942690574
 20
1185.576073694491
 30
0.0
 11
1744.0089426905761
 21
603.57607369449079
 31
0.0
  0
LINE
  5
BCA
  8
OUTLINE
 10
1801.008942690574
 20
538.57607369449204
 30
0.0
 11
1801.0089426905749
 21
1236.576073694491
 31
0.0
  0
LINE
  5
BCC
  8
OUTLINE
 10
1744.008942690574
 20
760.77887041459735
 30
0.0
 11
1744.008942690574
 21
761.97887041459774
 31
0.0
  0
LINE
  5
BCD
  8
OUTLINE
 10
1794.0089426905749
 20
1185.576073694491
 30
0.0
 11
1744.008942690574
 21
1185.576073694491
 31
0.0
  0
LINE
  5
BCF
  8
OUTLINE
 10
1744.008942690574
 20
1180.576073694491
 30
0.0
 11
1744.008942690574
 21
1179.376073694491
 31
0.0
  0
LINE
  5
BD0
  8
OUTLINE
 10
4656.808701417157
 20
1228.376073694491
 30
0.0
 11
4656.808701417157
 21
1236.576073694491
 31
0.0
  0
LINE
  5
BD2
  8
OUTLINE
 10
4647.1087014171553
 20
1851.373592772379
 30
0.0
 11
4647.108701417158
 21
2481.3735927723801
 31
0.0
  0
LINE
  5
BD5
  8
OUTLINE
 10
2837.6087014171571
 20
850.57607369449215
 30
0.0
 11
2837.6087014171571
 21
1160.5760736944901
 31
0.0
  0
LINE
  5
BD6
  8
OUTLINE
 10
2752.608742890548
 20
1228.376073694491
 30
0.0
 11
2752.608742890548
 21
1236.576073694491
 31
0.0
  0
LINE
  5
BD7
  8
OUTLINE
 10
2756.908742890545
 20
1851.373592772379
 30
0.0
 11
2756.908742890545
 21
2481.3735927723801
 31
0.0
  0
LINE
  5
BDB
  8
OUTLINE
  6
CONTINUOUS
 10
4752.1087221538519
 20
2383.3205133003239
 30
0.0
 11
4647.108701417158
 21
2383.3205133003239
 31
0.0
  0
LINE
  5
BDC
  8
OUTLINE
  6
CONTINUOUS
 10
4752.1087221538519
 20
2357.320513300323
 30
0.0
 11
4647.108701417158
 21
2357.320513300323
 31
0.0
  0
LINE
  5
BDD
  8
OUTLINE
  6
HIDDEN
 10
4752.1087221538519
 20
2357.320513300323
 30
0.0
 11
4752.1087221538519
 21
2383.3205133003239
 31
0.0
  0
LINE
  5
BDE
  8
DIM
 10
2488.0089426905752
 20
1220.374552901704
 30
0.0
 11
2488.0089426905752
 21
1371.148235393126
 31
0.0
  0
LINE
  5
BDF
  8
DIM
 10
1744.008942690574
 20
1193.89607369449
 30
0.0
 11
1744.008942690574
 21
1371.148235393126
 31
0.0
  0
LINE
  5
BE0
  8
DIM
 10
2458.0089426905752
 20
1351.148235393126
 30
0.0
 11
2241.9930176174371
 21
1351.148235393126
 31
0.0
  0
LINE
  5
BE1
  8
DIM
 10
1764.8089426905749
 20
1351.148235393126
 30
0.0
 11
2018.5276574529439
 21
1351.148235393126
 31
0.0
  0
SOLID
  5
BE2
  8
DIM
 10
2458.0089426905752
 20
1356.148235393126
 30
0.0
 11
2458.0089426905752
 21
1346.148235393126
 31
0.0
 12
2488.0089426905752
 22
1351.148235393126
 32
0.0
 13
2488.0089426905752
 23
1351.148235393126
 33
0.0
  0
SOLID
  5
BE3
  8
DIM
 10
1764.8089426905749
 20
1356.148235393126
 30
0.0
 11
1764.8089426905749
 21
1346.148235393126
 31
0.0
 12
1744.008942690574
 22
1351.148235393126
 32
0.0
 13
1744.008942690574
 23
1351.148235393126
 33
0.0
  0
TEXT
  5
BE4
  8
DIM
 10
2031.7232284048609
 20
1338.2910925359829
 30
0.0
 40
30.0
  1
744 O/A
  7
TITLE3
 72
     4
 11
2131.0089426905752
 21
1351.148235393126
 31
0.0
  0
LINE
  5
BE5
  8
DIM
 10
4750.608701417158
 20
1209.3344991234951
 30
0.0
 11
4750.608701417158
 21
1362.9611589196079
 31
0.0
  0
LINE
  5
BE6
  8
DIM
 10
2752.608742890548
 20
1256.5760736944919
 30
0.0
 11
2752.608742890548
 21
1362.9611589196079
 31
0.0
  0
LINE
  5
BE7
  8
DIM
 10
4720.608701417158
 20
1342.961158919607
 30
0.0
 11
3887.7548109487961
 21
1342.961158919607
 31
0.0
  0
LINE
  5
BE8
  8
DIM
 10
2782.608742890543
 20
1342.961158919607
 30
0.0
 11
3527.7548109487989
 21
1342.961158919607
 31
0.0
  0
SOLID
  5
BE9
  8
DIM
 10
4720.608701417158
 20
1347.9611589196061
 30
0.0
 11
4720.608701417158
 21
1337.9611589196079
 31
0.0
 12
4750.608701417158
 22
1342.961158919607
 32
0.0
 13
4750.608701417158
 23
1342.961158919607
 33
0.0
  0
SOLID
  5
BEA
  8
DIM
 10
2782.608742890543
 20
1347.9611589196061
 30
0.0
 11
2782.608742890543
 21
1337.9611589196079
 31
0.0
 12
2752.608742890548
 22
1342.961158919607
 32
0.0
 13
2752.608742890548
 23
1342.961158919607
 33
0.0
  0
TEXT
  5
BEB
  8
DIM
 10
3597.0405252345099
 20
1327.961158919607
 30
0.0
 40
30.0
  1
1998 O/A
  7
TITLE3
 72
     1
 11
3707.7548109487961
 21
1342.961158919607
 31
0.0
 73
     2
  0
LINE
  5
BEC
  8
DIM
 10
2458.5525890001231
 20
1236.576073694491
 30
0.0
 11
2630.8315302142119
 21
1236.576073694491
 31
0.0
  0
LINE
  5
BED
  8
DIM
 10
2610.8315302142119
 20
1206.5760736944919
 30
0.0
 11
2610.8315302142119
 21
1074.40274695883
 31
0.0
  0
LINE
  5
BEE
  8
DIM
 10
2610.8315302142119
 20
568.57607369449204
 30
0.0
 11
2610.8315302142119
 21
823.52812759071026
 31
0.0
  0
SOLID
  5
BEF
  8
DIM
 10
2615.8315302142109
 20
1206.5760736944919
 30
0.0
 11
2605.8315302142109
 21
1206.5760736944919
 31
0.0
 12
2610.8315302142119
 22
1236.576073694491
 32
0.0
 13
2610.8315302142119
 23
1236.576073694491
 33
0.0
  0
SOLID
  5
BF0
  8
DIM
 10
2615.8315302142109
 20
568.57607369449204
 30
0.0
 11
2605.8315302142109
 21
568.57607369449204
 31
0.0
 12
2610.8315302142119
 22
538.57607369449204
 32
0.0
 13
2610.8315302142119
 23
538.57607369449204
 33
0.0
  0
TEXT
  5
BF1
  8
DIM
 10
2625.8315302142119
 20
850.59035940877777
 30
0.0
 40
30.0
  1
698 O/A
 50
90.0
  7
TITLE3
 72
     1
 11
2610.8315302142119
 21
949.87607369449199
 31
0.0
 73
     2
  0
LINE
  5
BF2
  8
OUTLINE
 10
4696.6087221538528
 20
595.57610855061762
 30
0.0
 11
4696.6087221538528
 21
567.5761085506175
 31
0.0
  0
LINE
  5
BF3
  8
OUTLINE
 10
4696.6087221538528
 20
595.57610855061762
 30
0.0
 11
4645.6087014171599
 21
595.57610855061762
 31
0.0
  0
LINE
  5
BF4
  8
OUTLINE
 10
4696.6087221538528
 20
567.5761085506175
 30
0.0
 11
4645.6087014171599
 21
567.5761085506175
 31
0.0
  0
LINE
  5
BF6
  8
OUTLINE
 10
2762.6067221538569
 20
1115.9775944872781
 30
0.0
 11
2762.6067221538569
 21
543.07759448727847
 31
0.0
  0
LINE
  5
BF7
  8
OUTLINE
 10
4652.9087014171573
 20
1794.373592772379
 30
0.0
 11
4652.9087014171573
 21
1851.373592772379
 31
0.0
  0
LINE
  5
BF8
  8
OUTLINE
 10
4604.9087014171537
 20
1794.373592772379
 30
0.0
 11
4604.908701417151
 21
1851.373592772379
 31
0.0
  0
LINE
  5
BF9
  8
OUTLINE
 10
4604.9087014171537
 20
1794.373592772379
 30
0.0
 11
4652.9087014171573
 21
1794.373592772379
 31
0.0
  0
CIRCLE
  5
BFA
  8
OUTLINE
 10
4627.4087014171582
 20
1812.373592772379
 30
0.0
 40
9.0
  0
LINE
  5
BFB
  8
OUTLINE
 10
4652.9087014171573
 20
1851.373592772379
 30
0.0
 11
2752.9087428905441
 21
1851.373592772379
 31
0.0
  0
LINE
  5
BFC
  8
OUTLINE
 10
2797.9087428905441
 20
1794.373592772379
 30
0.0
 11
2797.9087428905441
 21
1851.373592772379
 31
0.0
  0
LINE
  5
BFD
  8
OUTLINE
 10
2752.9087428905441
 20
1794.373592772379
 30
0.0
 11
2752.9087428905441
 21
1851.373592772379
 31
0.0
  0
LINE
  5
BFE
  8
OUTLINE
 10
2797.9087428905441
 20
1794.373592772379
 30
0.0
 11
2752.9087428905441
 21
1794.373592772379
 31
0.0
  0
CIRCLE
  5
BFF
  8
OUTLINE
 10
2775.4087428905441
 20
1812.373592772379
 30
0.0
 40
9.0
  0
LINE
  5
C00
  8
OUTLINE
 10
4604.9087014171537
 20
2538.3735927723769
 30
0.0
 11
4604.9087014171537
 21
2481.3735927723801
 31
0.0
  0
LINE
  5
C01
  8
OUTLINE
 10
4649.9087014171573
 20
2538.3735927723769
 30
0.0
 11
4649.9087014171573
 21
2481.3735927723801
 31
0.0
  0
LINE
  5
C02
  8
OUTLINE
 10
4604.9087014171537
 20
2538.3735927723769
 30
0.0
 11
4649.9087014171573
 21
2538.3735927723769
 31
0.0
  0
CIRCLE
  5
C03
  8
OUTLINE
 10
4627.4087014171582
 20
2520.3735927723778
 30
0.0
 40
9.0
  0
LINE
  5
C04
  8
OUTLINE
 10
2752.9087428905441
 20
2538.3735927723801
 30
0.0
 11
2752.9087428905441
 21
2481.3735927723801
 31
0.0
  0
LINE
  5
C05
  8
OUTLINE
 10
2797.9087428905441
 20
2538.3735927723801
 30
0.0
 11
2797.9087428905441
 21
2481.3735927723801
 31
0.0
  0
LINE
  5
C06
  8
OUTLINE
 10
2797.9087428905441
 20
2538.3735927723801
 30
0.0
 11
2752.9087428905441
 21
2538.3735927723801
 31
0.0
  0
CIRCLE
  5
C07
  8
OUTLINE
 10
2775.4087428905441
 20
2520.3735927723801
 30
0.0
 40
9.0
  0
LINE
  5
C08
  8
OUTLINE
 10
1794.0089426905749
 20
1185.9760736944891
 30
0.0
 11
1801.0089426905749
 21
1185.9760736944891
 31
0.0
  0
LINE
  5
C09
  8
OUTLINE
 10
1745.208942690575
 20
1115.9760736944911
 30
0.0
 11
1801.008942690574
 21
1115.9760736944911
 31
0.0
  0
LINE
  5
C0A
  8
OUTLINE
 10
1745.208942690575
 20
1122.97607369449
 30
0.0
 11
1745.208942690575
 21
1115.9760736944911
 31
0.0
  0
LINE
  5
C0B
  8
OUTLINE
 10
1747.208942690575
 20
1107.9760736944911
 30
0.0
 11
1774.008942690574
 21
1107.9760736944911
 31
0.0
  0
LINE
  5
C0C
  8
OUTLINE
 10
1747.208942690575
 20
1115.9760736944911
 30
0.0
 11
1747.208942690575
 21
1107.9760736944911
 31
0.0
  0
LINE
  5
C0D
  8
OUTLINE
 10
1774.008942690574
 20
1115.976073694492
 30
0.0
 11
1774.008942690574
 21
1107.9760736944911
 31
0.0
  0
LINE
  5
C0E
  8
OUTLINE
 10
1794.0089426905749
 20
1185.9760736944891
 30
0.0
 11
1794.008942690574
 21
1122.97607369449
 31
0.0
  0
LINE
  5
C0F
  8
OUTLINE
 10
1745.208942690575
 20
1122.97607369449
 30
0.0
 11
1794.008942690574
 21
1122.97607369449
 31
0.0
  0
LINE
  5
C10
  8
OUTLINE
 10
2438.0089426905761
 20
1185.9760736944891
 30
0.0
 11
2438.0089426905761
 21
1122.97607369449
 31
0.0
  0
LINE
  5
C11
  8
OUTLINE
 10
2486.8089426905758
 20
1122.97607369449
 30
0.0
 11
2438.0089426905761
 21
1122.97607369449
 31
0.0
  0
LINE
  5
C12
  8
OUTLINE
 10
2486.8089426905758
 20
1115.9760736944911
 30
0.0
 11
2431.0089426905752
 21
1115.9760736944911
 31
0.0
  0
LINE
  5
C13
  8
OUTLINE
 10
2484.8089426905749
 20
1107.9760736944911
 30
0.0
 11
2458.0089426905752
 21
1107.9760736944911
 31
0.0
  0
LINE
  5
C14
  8
OUTLINE
 10
2458.0089426905752
 20
1115.976073694492
 30
0.0
 11
2458.0089426905752
 21
1107.9760736944911
 31
0.0
  0
LINE
  5
C15
  8
OUTLINE
 10
2486.8089426905758
 20
1122.97607369449
 30
0.0
 11
2486.8089426905758
 21
1115.9760736944911
 31
0.0
  0
LINE
  5
C16
  8
OUTLINE
 10
2484.8089426905749
 20
1115.9760736944911
 30
0.0
 11
2484.8089426905749
 21
1107.9760736944911
 31
0.0
  0
LINE
  5
C17
  8
OUTLINE
 10
2438.0089426905761
 20
1185.9760736944891
 30
0.0
 11
2431.0089426905752
 21
1185.9760736944891
 31
0.0
  0
LINE
  5
C18
  8
DIM
 10
4627.4087014171582
 20
1794.373592772379
 30
0.0
 11
4627.4087014171582
 21
1541.843957437377
 31
0.0
  0
LINE
  5
C19
  8
DIM
 10
2775.4087428905441
 20
1794.373592772379
 30
0.0
 11
2775.4087428905441
 21
1541.843957437377
 31
0.0
  0
LINE
  5
C1A
  8
DIM
 10
4597.4087014171573
 20
1561.843957437376
 30
0.0
 11
4057.0149202524012
 21
1561.843957437376
 31
0.0
  0
LINE
  5
C1B
  8
DIM
 10
2805.4087428905441
 20
1561.843957437376
 30
0.0
 11
3396.2920380863488
 21
1561.843957437376
 31
0.0
  0
SOLID
  5
C1C
  8
DIM
 10
4597.4087014171573
 20
1566.843957437376
 30
0.0
 11
4597.4087014171573
 21
1556.843957437377
 31
0.0
 12
4627.4087014171582
 22
1561.843957437376
 32
0.0
 13
4627.4087014171582
 23
1561.843957437376
 33
0.0
  0
SOLID
  5
C1D
  8
DIM
 10
2805.4087428905441
 20
1566.843957437376
 30
0.0
 11
2805.4087428905441
 21
1556.843957437377
 31
0.0
 12
2775.4087428905441
 22
1561.843957437376
 32
0.0
 13
2775.4087428905441
 23
1561.843957437376
 33
0.0
  0
TEXT
  5
C1E
  8
DIM
 10
3443.7997944407239
 20
1546.843957437376
 30
0.0
 40
30.0
  1
1852 MOUNTING CENTRES
  7
TITLE3
 72
     4
 11
3734.5140801550101
 21
1561.843957437376
 31
0.0
  0
LINE
  5
C1F
  8
DIM
 10
2590.363808708551
 20
1881.373592772379
 30
0.0
 11
2590.363808708551
 21
2066.887878486662
 31
0.0
  0
TEXT
  5
C20
  8
DIM
 10
2518.6124483385652
 20
1922.5218901323969
 30
0.0
 40
30.0
  1
708 HANGER CENTRES
 50
90.0
  7
TITLE3
 72
     1
 11
2503.6124483385638
 21
2178.9504615609681
 31
0.0
 73
     2
  0
LINE
  5
C21
  8
DIM
 10
2732.408742890545
 20
1851.373592772379
 30
0.0
 11
2570.363808708551
 21
1851.373592772379
 31
0.0
  0
LINE
  5
C22
  8
DIM
 10
2506.7189778384241
 20
1842.373592772379
 30
0.0
 11
2506.7189778384241
 21
1879.745021343806
 31
0.0
  0
SOLID
  5
C23
  8
DIM
 10
2511.7189778384241
 20
1842.373592772379
 30
0.0
 11
2501.718977838425
 21
1842.373592772379
 31
0.0
 12
2506.7189778384241
 22
1812.373592772379
 32
0.0
 13
2506.7189778384241
 23
1812.373592772379
 33
0.0
  0
SOLID
  5
C24
  8
DIM
 10
2595.3638087085519
 20
1881.373592772379
 30
0.0
 11
2585.363808708551
 21
1881.373592772379
 31
0.0
 12
2590.363808708551
 22
1851.373592772379
 32
0.0
 13
2590.363808708551
 23
1851.373592772379
 33
0.0
  0
TEXT
  5
C25
  8
DIM
 10
2605.363808708551
 20
2143.0021642009501
 30
0.0
 40
30.0
  1
630
 50
90.0
  7
TITLE3
 72
     4
 11
2590.363808708551
 21
2181.5735927723781
 31
0.0
  0
LINE
  5
C26
  8
DIM
 10
2732.408742890545
 20
2481.3735927723801
 30
0.0
 11
2570.363808708551
 21
2481.3735927723801
 31
0.0
  0
LINE
  5
C27
  8
DIM
 10
2590.363808708551
 20
2451.3735927723792
 30
0.0
 11
2590.363808708551
 21
2276.2593070580929
 31
0.0
  0
SOLID
  5
C28
  8
DIM
 10
2595.3638087085519
 20
2451.3735927723792
 30
0.0
 11
2585.363808708551
 21
2451.3735927723792
 31
0.0
 12
2590.363808708551
 22
2481.3735927723801
 32
0.0
 13
2590.363808708551
 23
2481.3735927723801
 33
0.0
  0
LINE
  5
C29
  8
DIM
 10
2504.9969219085792
 20
2490.3735927723801
 30
0.0
 11
2504.9969219085792
 21
2453.002164200951
 31
0.0
  0
SOLID
  5
C2A
  8
DIM
 10
2509.9969219085792
 20
2490.3735927723801
 30
0.0
 11
2499.9969219085801
 21
2490.3735927723801
 31
0.0
 12
2504.9969219085792
 22
2520.3735927723801
 32
0.0
 13
2504.9969219085792
 23
2520.3735927723801
 33
0.0
  0
LINE
  5
C2D
  8
DIM
 10
2775.4087428905441
 20
1812.373592772379
 30
0.0
 11
2486.718977838425
 21
1812.373592772379
 31
0.0
  0
LINE
  5
C2E
  8
DIM
 10
2775.4087428905441
 20
2520.3735927723801
 30
0.0
 11
2484.996921908581
 21
2520.3735927723801
 31
0.0
  0
LINE
  5
C31
  8
DIM
 10
4645.608701417158
 20
1236.576073694491
 30
0.0
 11
4645.6087014171599
 21
538.57607369449215
 31
0.0
  0
LINE
  5
C32
  8
OUTLINE
 10
2762.6067221538569
 20
1236.576130111481
 30
0.0
 11
2762.6067221538528
 21
538.57759448727927
 31
0.0
  0
TEXT
  5
C33
  8
TEXT
 10
4168.8773549041662
 20
331.83937465895161
 30
0.0
 40
56.25
  1
temperzone ISD 460
  7
TITLE5
 72
     1
 11
4605.4844977613093
 21
331.83937465895161
 31
0.0
  0
TEXT
  5
C34
  8
TEXT
 10
4717.8999999999987
 20
87.5
 30
0.0
 40
37.5
  1
ISD460
 41
1.9708737864077721
  7
TITLE3
 72
     5
 11
5080.3999999999996
 21
87.5
 31
0.0
  0
TEXT
  5
C35
  8
TEXT
 10
4118.0594397060941
 20
137.5
 30
0.0
 40
37.5
  1
07.04.08
 41
0.8358208955223879
  7
TITLE3
 72
     5
 11
4318.0594397060941
 21
137.5
 31
0.0
  0
TEXT
  5
C36
  8
OVERLAY-A3
 10
3988.7907440588529
 20
138.53901732512591
 30
0.0
 40
30.0
  1
Date
  7
SIMPLEX
  0
TEXT
  5
C37
  8
OVERLAY-A3
 10
5113.0389904670019
 20
161.879127529264
 30
0.0
 40
30.0
  1
Revision
 41
0.7812095035934897
  7
SIMPLEX
 72
     5
 11
5244.728592501333
 21
161.879127529264
 31
0.0
  0
LINE
  5
C38
  8
OVERLAY-A3
 10
5098.5141874877008
 20
26.053116060396409
 30
0.0
 11
5098.5141874877008
 21
210.33581963568329
 31
0.0
  0
LINE
  5
C39
  8
OVERLAY-A3
 10
3954.5894118214351
 20
417.0489795327772
 30
0.0
 11
3954.5894118214351
 21
26.053116060396409
 31
0.0
  0
LINE
  5
C3A
  8
OVERLAY-A3
 10
4701.542097516367
 20
26.053116060396409
 30
0.0
 11
4701.542097516367
 21
210.33581963568329
 31
0.0
  0
LINE
  5
C3B
  8
OVERLAY-A3
 10
4701.542097516367
 20
116.6407490868297
 30
0.0
 11
3954.5894118214351
 21
116.6407490868297
 31
0.0
  0
LINE
  5
C3C
  8
OVERLAY-A3
 10
5257.3693315473029
 20
210.33581963568329
 30
0.0
 11
3954.5894118214351
 21
210.33581963568329
 31
0.0
  0
LINE
  5
C3D
  8
OVERLAY-A3
 10
3954.5894118214351
 20
26.053116060396409
 30
0.0
 11
5256.9974475743638
 21
26.053116060396409
 31
0.0
  0
LINE
  5
C3E
  8
OVERLAY-A3
 10
5256.9974475743638
 20
26.053116060396409
 30
0.0
 11
5256.9974475743638
 21
417.0489795327772
 31
0.0
  0
LINE
  5
C3F
  8
OVERLAY-A3
 10
5256.9974475743638
 20
417.0489795327772
 30
0.0
 11
3954.5894118214351
 21
417.0489795327772
 31
0.0
  0
TEXT
  5
C40
  8
OVERLAY-A3
 10
3986.004023878887
 20
59.903110081697122
 30
0.0
 40
25.0
  1
Scale
 41
1.3701747965659741
  7
SIMPLEX
 72
     5
 11
4111.6033802307666
 21
59.903110081697122
 31
0.0
  0
TEXT
  5
C41
  8
OVERLAY-A3
 10
4773.9739045009937
 20
161.1167893833869
 30
0.0
 40
25.0
  1
Drawing No.
  7
SIMPLEX
 72
     2
 11
4991.8310473581378
 21
161.1167893833869
 31
0.0
  0
LINE
  5
C42
  8
OVERLAY-A3
 10
1660.1889435864341
 20
0.0
 30
0.0
 11
5292.8999999999987
 21
0.0
 31
0.0
  0
LINE
  5
C43
  8
OVERLAY-A3
 10
5292.8999999999987
 20
0.0
 30
0.0
 11
5292.8999999999987
 21
2908.638814366057
 31
0.0
  0
LINE
  5
C44
  8
OVERLAY-A3
 10
5292.8999999999987
 20
2908.638814366057
 30
0.0
 11
1660.1889435864341
 21
2908.638814366057
 31
0.0
  0
LINE
  5
C45
  8
OVERLAY-A3
 10
1660.1889435864341
 20
2908.638814366057
 30
0.0
 11
1660.1889435864341
 21
0.0
 31
0.0
  0
TEXT
  5
C46
  8
TEXT
 10
4178.9565704042452
 20
58.012369697124093
 30
0.0
 40
30.0
  1
1:10
  7
TITLE3
  0
LINE
  5
C47
  8
DIM
 10
2480.3229418793708
 20
538.57607369449204
 30
0.0
 11
2630.8315302142119
 21
538.57607369449204
 31
0.0
  0
LINE
  5
C49
  8
CLEAR
 10
5252.0087014171586
 20
2481.3735927723801
 30
0.0
 11
4692.7731813829678
 21
2481.3735927723801
 31
0.0
  0
LINE
  5
C4A
  8
CLEAR
 10
5252.0087014171586
 20
1851.3735927723781
 30
0.0
 11
4679.6819778008467
 21
1851.373592772379
 31
0.0
  0
TEXT
  5
C4B
  8
TEXT
 10
3803.9788449371599
 20
2157.3391655567711
 30
0.0
 40
84.375
  1
ISD460
  7
TITLE5
 72
     1
 11
4010.8984877943021
 21
2157.3391655567711
 31
0.0
  0
LINE
  5
C4C
  8
DIM
 10
3904.7352852588501
 20
1732.340328856108
 30
0.0
 11
3904.7352852588501
 21
1787.326231563653
 31
0.0
  0
LINE
  5
C4D
  8
DIM
 10
3883.081257662785
 20
1732.340328856108
 30
0.0
 11
3883.081257662785
 21
1787.326231563653
 31
0.0
  0
LINE
  5
C4E
  8
DIM
 10
3883.081257662785
 20
1787.326231563653
 30
0.0
 11
3904.7352852588501
 21
1787.326231563653
 31
0.0
  0
LINE
  5
C4F
  8
DIM
 10
3922.484267812481
 20
1732.340328856108
 30
0.0
 11
3904.7352852588501
 21
1732.340328856108
 31
0.0
  0
LINE
  5
C50
  8
DIM
 10
3893.9082714608162
 20
1685.336247363789
 30
0.0
 11
3922.484267812481
 21
1732.340328856108
 31
0.0
  0
LINE
  5
C51
  8
DIM
 10
3893.9082714608162
 20
1685.336247363789
 30
0.0
 11
3865.3322751091532
 21
1732.340328856108
 31
0.0
  0
LINE
  5
C52
  8
DIM
 10
3865.3322751091532
 20
1732.340328856108
 30
0.0
 11
3883.081257662785
 21
1732.340328856108
 31
0.0
  0
LINE
  5
C53
  8
DIM
 10
3884.7696820216279
 20
2665.763400909912
 30
0.0
 11
3913.3456783732931
 21
2712.7674824022288
 31
0.0
  0
LINE
  5
C54
  8
DIM
 10
3913.3456783732931
 20
2712.7674824022288
 30
0.0
 11
3895.5966958196609
 21
2712.7674824022288
 31
0.0
  0
LINE
  5
C55
  8
DIM
 10
3895.5966958196609
 20
2712.7674824022288
 30
0.0
 11
3895.5966958196609
 21
2767.7533851097778
 31
0.0
  0
LINE
  5
C56
  8
DIM
 10
3873.9426682235971
 20
2712.7674824022288
 30
0.0
 11
3873.9426682235971
 21
2767.7533851097778
 31
0.0
  0
LINE
  5
C57
  8
DIM
 10
3873.9426682235971
 20
2767.7533851097778
 30
0.0
 11
3895.5966958196609
 21
2767.7533851097778
 31
0.0
  0
LINE
  5
C58
  8
DIM
 10
3856.193685669964
 20
2712.7674824022288
 30
0.0
 11
3873.9426682235971
 21
2712.7674824022288
 31
0.0
  0
LINE
  5
C59
  8
DIM
 10
3884.7696820216279
 20
2665.763400909912
 30
0.0
 11
3856.193685669964
 21
2712.7674824022288
 31
0.0
  0
LINE
  5
C5A
  8
DIM
 10
2685.9853377017662
 20
1094.109109970492
 30
0.0
 11
2630.999434994219
 21
1094.109109970492
 31
0.0
  0
LINE
  5
C5B
  8
DIM
 10
2685.9853377017662
 20
1115.763137566556
 30
0.0
 11
2630.999434994219
 21
1115.763137566556
 31
0.0
  0
LINE
  5
C5C
  8
DIM
 10
2630.999434994219
 20
1094.109109970492
 30
0.0
 11
2630.999434994219
 21
1115.763137566556
 31
0.0
  0
LINE
  5
C5D
  8
DIM
 10
2685.9853377017662
 20
1133.512120120188
 30
0.0
 11
2685.9853377017662
 21
1115.763137566556
 31
0.0
  0
LINE
  5
C5E
  8
DIM
 10
2732.989419194083
 20
1104.936123768525
 30
0.0
 11
2685.9853377017662
 21
1133.512120120188
 31
0.0
  0
LINE
  5
C5F
  8
DIM
 10
2732.989419194083
 20
1104.936123768525
 30
0.0
 11
2685.9853377017662
 21
1076.36012741686
 31
0.0
  0
LINE
  5
C60
  8
DIM
 10
2685.9853377017662
 20
1076.36012741686
 30
0.0
 11
2685.9853377017662
 21
1094.109109970492
 31
0.0
  0
TEXT
  5
C61
  8
TEXT
 10
5232.4646723687238
 20
1930.998198750525
 30
0.0
 40
30.0
  1
500 min CLEARANCE
 50
90.0
  7
TITLE3
  0
INSERT
  5
C62
  8
TEXT
  2
NEW_BLOCK
 10
1720.4148687632839
 20
33.644011142307818
 30
0.0
 41
0.75
 42
0.75
 43
0.75
  0
LINE
  5
CCF
  8
OUTLINE
 10
4521.9087014171573
 20
2481.3735927723801
 30
0.0
 11
4521.9087014171573
 21
2538.3735927723792
 31
0.0
  0
LINE
  5
CD0
  8
OUTLINE
 10
4521.9087014171573
 20
2538.3735927723792
 30
0.0
 11
2813.9087014171569
 21
2538.3735927723792
 31
0.0
  0
LINE
  5
CD1
  8
OUTLINE
 10
2813.9087014171569
 20
2538.3735927723792
 30
0.0
 11
2813.9087014171569
 21
2481.3735927723801
 31
0.0
  0
LINE
  5
CD5
  8
OUTLINE
 10
4361.9087014171573
 20
1794.3735927723781
 30
0.0
 11
4361.9087014171573
 21
1851.373592772379
 31
0.0
  0
LINE
  5
CD6
  8
OUTLINE
 10
2837.9087014171569
 20
1794.3735927723781
 30
0.0
 11
2837.9087014171569
 21
1851.373592772379
 31
0.0
  0
POLYLINE
  5
CDE
  8
DIM
 66
     1
 10
0.0
 20
0.0
 30
0.0
 70
     1
  0
VERTEX
  5
D8C
  8
DIM
 10
4645.608701417158
 20
623.89797754792357
 30
0.0
  0
VERTEX
  5
D8D
  8
DIM
 10
4750.608701417158
 20
623.89797754792357
 30
0.0
  0
VERTEX
  5
D8E
  8
DIM
 10
4750.608701417158
 20
1194.897977547924
 30
0.0
  0
VERTEX
  5
D8F
  8
DIM
 10
4645.608701417158
 20
1194.897977547924
 30
0.0
  0
SEQEND
  5
D90
  8
DIM
  0
LINE
  5
CE0
  8
OUTLINE
 10
4647.108701417158
 20
2026.043304280435
 30
0.0
 11
4752.108701417159
 21
2026.043304280435
 31
0.0
  0
LINE
  5
CE1
  8
OUTLINE
 10
4752.108701417159
 20
2026.043304280435
 30
0.0
 11
4752.108701417159
 21
2325.4433042804349
 31
0.0
  0
LINE
  5
CE2
  8
OUTLINE
 10
4752.108701417159
 20
2325.4433042804349
 30
0.0
 11
4647.108701417158
 21
2325.4433042804349
 31
0.0
  0
LINE
  5
D55
  8
OUTLINE
 10
1801.008942690574
 20
603.57607369449079
 30
0.0
 11
1744.0089426905761
 21
603.57607369449079
 31
0.0
  0
LINE
  5
F33
  8
DIM
 10
1801.0089426905749
 20
1256.576073694491
 30
0.0
 11
1801.0089426905749
 21
1303.50044636661
 31
0.0
  0
LINE
  5
F34
  8
DIM
 10
2431.0089426905752
 20
1256.576073694491
 30
0.0
 11
2431.0089426905752
 21
1303.50044636661
 31
0.0
  0
LINE
  5
F35
  8
DIM
 10
1838.5089426905749
 20
1283.50044636661
 30
0.0
 11
2003.5089426905749
 21
1283.50044636661
 31
0.0
  0
LINE
  5
F36
  8
DIM
 10
2393.5089426905752
 20
1283.50044636661
 30
0.0
 11
2228.5089426905752
 21
1283.50044636661
 31
0.0
  0
SOLID
  5
F37
  8
DIM
 10
1838.5089426905749
 20
1289.75044636661
 30
0.0
 11
1838.5089426905749
 21
1277.25044636661
 31
0.0
 12
1801.0089426905749
 22
1283.50044636661
 32
0.0
 13
1801.0089426905749
 23
1283.50044636661
 33
0.0
  0
SOLID
  5
F38
  8
DIM
 10
2393.5089426905752
 20
1289.75044636661
 30
0.0
 11
2393.5089426905752
 21
1277.25044636661
 31
0.0
 12
2431.0089426905752
 22
1283.50044636661
 32
0.0
 13
2431.0089426905752
 23
1283.50044636661
 33
0.0
  0
INSERT
  5
F39
  8
OUTLINE
  2
*U4
 10
0.0
 20
0.0
 30
0.0
  0
LINE
  5
1156
  8
CLEAR
 10
5252.0087014171586
 20
2481.3735927723801
 30
0.0
 11
5252.0087014171586
 21
1851.3735927723781
 31
0.0
  0
LINE
  5
118B
  8
DIM
 10
1724.0089426905749
 20
603.57607369449079
 30
0.0
 11
1683.679823857497
 21
603.57607369449079
 31
0.0
  0
LINE
  5
118C
  8
DIM
 10
1724.0089426905749
 20
1185.576073694491
 30
0.0
 11
1683.679823857497
 21
1185.576073694491
 31
0.0
  0
LINE
  5
118D
  8
DIM
 10
1703.679823857497
 20
641.07607369449079
 30
0.0
 11
1703.679823857497
 21
829.57607369449101
 31
0.0
  0
LINE
  5
118E
  8
DIM
 10
1703.679823857497
 20
1148.076073694491
 30
0.0
 11
1703.679823857497
 21
959.57607369449101
 31
0.0
  0
SOLID
  5
118F
  8
DIM
 10
1697.429823857497
 20
641.07607369449079
 30
0.0
 11
1709.929823857497
 21
641.07607369449079
 31
0.0
 12
1703.679823857497
 22
603.57607369449079
 32
0.0
 13
1703.679823857497
 23
603.57607369449079
 33
0.0
  0
SOLID
  5
1190
  8
DIM
 10
1697.429823857497
 20
1148.076073694491
 30
0.0
 11
1709.929823857497
 21
1148.076073694491
 31
0.0
 12
1703.679823857497
 22
1185.576073694491
 32
0.0
 13
1703.679823857497
 23
1185.576073694491
 33
0.0
  0
INSERT
  5
1191
  8
OUTLINE
  2
*U5
 10
0.0
 20
0.0
 30
0.0
  0
LINE
  5
1192
  8
DIM
 10
2508.0089426905752
 20
1160.5760736944901
 30
0.0
 11
2567.811903107392
 21
1160.5760736944901
 31
0.0
  0
LINE
  5
1193
  8
DIM
 10
2508.0089426905752
 20
850.5760736944917
 30
0.0
 11
2567.8119031073911
 21
850.5760736944917
 31
0.0
  0
INSERT
  5
1198
  8
OUTLINE
  2
*U6
 10
0.0
 20
0.0
 30
0.0
  0
LINE
  5
1199
  8
DIM
 10
2547.8119031073911
 20
888.07607369449192
 30
0.0
 11
2547.8119031073911
 21
925.57607369449192
 31
0.0
  0
SOLID
  5
119A
  8
DIM
 10
2541.5619031073911
 20
888.07607369449192
 30
0.0
 11
2554.0619031073911
 21
888.07607369449192
 31
0.0
 12
2547.8119031073911
 22
850.57607369449192
 32
0.0
 13
2547.8119031073911
 23
850.57607369449192
 33
0.0
  0
LINE
  5
119B
  8
DIM
 10
2547.811903107392
 20
1123.0760736944901
 30
0.0
 11
2547.811903107392
 21
1085.5760736944901
 31
0.0
  0
SOLID
  5
119C
  8
DIM
 10
2541.561903107392
 20
1123.0760736944901
 30
0.0
 11
2554.061903107392
 21
1123.0760736944901
 31
0.0
 12
2547.811903107392
 22
1160.5760736944901
 32
0.0
 13
2547.811903107392
 23
1160.5760736944901
 33
0.0
  0
LINE
  5
11CF
  8
DIM
 10
4361.9087014171573
 20
1774.3735927723781
 30
0.0
 11
4361.9087014171573
 21
1710.775123278398
 31
0.0
  0
LINE
  5
11D0
  8
DIM
 10
4652.9087014171573
 20
1774.373592772379
 30
0.0
 11
4652.9087014171573
 21
1710.775123278398
 31
0.0
  0
LINE
  5
11D2
  8
DIM
 10
4399.4087014171573
 20
1730.775123278398
 30
0.0
 11
4436.9087014171573
 21
1730.775123278398
 31
0.0
  0
SOLID
  5
11D4
  8
DIM
 10
4399.4087014171573
 20
1737.025123278398
 30
0.0
 11
4399.4087014171573
 21
1724.525123278398
 31
0.0
 12
4361.9087014171573
 22
1730.775123278398
 32
0.0
 13
4361.9087014171573
 23
1730.775123278398
 33
0.0
  0
INSERT
  5
11D5
  8
OUTLINE
  2
*U7
 10
0.0
 20
0.0
 30
0.0
  0
LINE
  5
11D6
  8
DIM
 10
4615.4087014171573
 20
1730.775123278398
 30
0.0
 11
4577.9087014171573
 21
1730.775123278398
 31
0.0
  0
SOLID
  5
11D7
  8
DIM
 10
4615.4087014171573
 20
1737.025123278398
 30
0.0
 11
4615.4087014171573
 21
1724.525123278398
 31
0.0
 12
4652.9087014171573
 22
1730.775123278398
 32
0.0
 13
4652.9087014171573
 23
1730.775123278398
 33
0.0
  0
LINE
  5
11D8
  8
DIM
 10
2752.9087428905441
 20
1774.373592772379
 30
0.0
 11
2752.9087428905441
 21
1714.6607658733169
 31
0.0
  0
LINE
  5
11D9
  8
DIM
 10
2837.9087014171569
 20
1774.3735927723781
 30
0.0
 11
2837.9087014171569
 21
1714.6607658733169
 31
0.0
  0
LINE
  5
11DA
  8
DIM
 10
2715.4087428905441
 20
1734.660765873316
 30
0.0
 11
2677.9087428905441
 21
1734.660765873316
 31
0.0
  0
LINE
  5
11DB
  8
DIM
 10
2875.4087014171569
 20
1734.660765873316
 30
0.0
 11
2912.9087014171569
 21
1734.660765873316
 31
0.0
  0
SOLID
  5
11DC
  8
DIM
 10
2715.4087428905441
 20
1740.910765873316
 30
0.0
 11
2715.4087428905441
 21
1728.410765873316
 31
0.0
 12
2752.9087428905441
 22
1734.660765873316
 32
0.0
 13
2752.9087428905441
 23
1734.660765873316
 33
0.0
  0
SOLID
  5
11DD
  8
DIM
 10
2875.4087014171569
 20
1740.910765873316
 30
0.0
 11
2875.4087014171569
 21
1728.410765873316
 31
0.0
 12
2837.9087014171569
 22
1734.660765873316
 32
0.0
 13
2837.9087014171569
 23
1734.660765873316
 33
0.0
  0
INSERT
  5
11DE
  8
OUTLINE
  2
*U8
 10
0.0
 20
0.0
 30
0.0
  0
LINE
  5
11DF
  8
DIM
 10
2752.9087428905441
 20
2558.3735927723801
 30
0.0
 11
2752.9087428905441
 21
2605.7082691849209
 31
0.0
  0
LINE
  5
11E0
  8
DIM
 10
2813.9087014171569
 20
2558.3735927723801
 30
0.0
 11
2813.9087014171569
 21
2605.7082691849209
 31
0.0
  0
LINE
  5
11E1
  8
DIM
 10
2715.4087428905441
 20
2585.7082691849218
 30
0.0
 11
2677.9087428905441
 21
2585.7082691849218
 31
0.0
  0
LINE
  5
11E2
  8
DIM
 10
2851.4087014171569
 20
2585.7082691849218
 30
0.0
 11
2888.9087014171569
 21
2585.7082691849218
 31
0.0
  0
SOLID
  5
11E3
  8
DIM
 10
2715.4087428905441
 20
2591.9582691849209
 30
0.0
 11
2715.4087428905441
 21
2579.4582691849218
 31
0.0
 12
2752.9087428905441
 22
2585.7082691849218
 32
0.0
 13
2752.9087428905441
 23
2585.7082691849218
 33
0.0
  0
SOLID
  5
11E4
  8
DIM
 10
2851.4087014171569
 20
2591.9582691849209
 30
0.0
 11
2851.4087014171569
 21
2579.4582691849218
 31
0.0
 12
2813.9087014171569
 22
2585.7082691849218
 32
0.0
 13
2813.9087014171569
 23
2585.7082691849218
 33
0.0
  0
INSERT
  5
11E5
  8
OUTLINE
  2
*U9
 10
0.0
 20
0.0
 30
0.0
  0
LINE
  5
11E6
  8
DIM
 10
2813.9087014171569
 20
2558.3735927723801
 30
0.0
 11
2813.9087014171569
 21
2656.4506412442961
 31
0.0
  0
LINE
  5
11E7
  8
DIM
 10
4521.9087014171573
 20
2558.3735927723801
 30
0.0
 11
4521.9087014171573
 21
2656.4506412442961
 31
0.0
  0
LINE
  5
11E8
  8
DIM
 10
2851.4087014171569
 20
2636.4506412442961
 30
0.0
 11
3545.4087014171591
 21
2636.4506412442961
 31
0.0
  0
LINE
  5
11E9
  8
DIM
 10
4484.4087014171573
 20
2636.4506412442961
 30
0.0
 11
3790.4087014171569
 21
2636.4506412442961
 31
0.0
  0
SOLID
  5
11EA
  8
DIM
 10
2851.4087014171569
 20
2642.7006412442961
 30
0.0
 11
2851.4087014171569
 21
2630.2006412442961
 31
0.0
 12
2813.9087014171569
 22
2636.4506412442961
 32
0.0
 13
2813.9087014171569
 23
2636.4506412442961
 33
0.0
  0
SOLID
  5
11EB
  8
DIM
 10
4484.4087014171573
 20
2642.7006412442961
 30
0.0
 11
4484.4087014171573
 21
2630.2006412442961
 31
0.0
 12
4521.9087014171573
 22
2636.4506412442961
 32
0.0
 13
4521.9087014171573
 23
2636.4506412442961
 33
0.0
  0
INSERT
  5
11EC
  8
OUTLINE
  2
*U10
 10
0.0
 20
0.0
 30
0.0
  0
LINE
  5
11ED
  8
DIM
 10
4521.9087014171573
 20
2558.3735927723801
 30
0.0
 11
4521.9087014171573
 21
2656.4506412442961
 31
0.0
  0
LINE
  5
11EE
  8
DIM
 10
4649.9087014171573
 20
2558.3735927723778
 30
0.0
 11
4649.9087014171573
 21
2656.4506412442961
 31
0.0
  0
LINE
  5
11EF
  8
DIM
 10
4559.4087014171573
 20
2636.4506412442961
 30
0.0
 11
4612.4087014171573
 21
2636.4506412442961
 31
0.0
  0
LINE
  5
11F0
  8
DIM
 10
4649.9087014171573
 20
2636.4506412442961
 30
0.0
 11
4687.4087014171573
 21
2636.4506412442961
 31
0.0
  0
SOLID
  5
11F1
  8
DIM
 10
4559.4087014171573
 20
2642.7006412442961
 30
0.0
 11
4559.4087014171573
 21
2630.2006412442961
 31
0.0
 12
4521.9087014171573
 22
2636.4506412442961
 32
0.0
 13
4521.9087014171573
 23
2636.4506412442961
 33
0.0
  0
SOLID
  5
11F2
  8
DIM
 10
4612.4087014171573
 20
2642.7006412442961
 30
0.0
 11
4612.4087014171573
 21
2630.2006412442961
 31
0.0
 12
4649.9087014171573
 22
2636.4506412442961
 32
0.0
 13
4649.9087014171573
 23
2636.4506412442961
 33
0.0
  0
INSERT
  5
11F3
  8
OUTLINE
  2
*U11
 10
0.0
 20
0.0
 30
0.0
  0
LINE
  5
11F4
  8
DIM
 10
4645.608701417159
 20
626.63133803127459
 30
0.0
 11
4645.608701417159
 21
858.72620930878452
 31
0.0
  0
LINE
  5
11F5
  8
DIM
 10
4750.608701417158
 20
643.89797754792369
 30
0.0
 11
4750.608701417158
 21
858.72620930878452
 31
0.0
  0
LINE
  5
11F6
  8
DIM
 10
4608.108701417159
 20
838.72620930878463
 30
0.0
 11
4570.608701417159
 21
838.72620930878463
 31
0.0
  0
LINE
  5
11F7
  8
DIM
 10
4788.108701417158
 20
838.72620930878463
 30
0.0
 11
4825.608701417158
 21
838.72620930878463
 31
0.0
  0
SOLID
  5
11F8
  8
DIM
 10
4608.108701417159
 20
844.97620930878463
 30
0.0
 11
4608.108701417159
 21
832.47620930878463
 31
0.0
 12
4645.608701417159
 22
838.72620930878463
 32
0.0
 13
4645.608701417159
 23
838.72620930878463
 33
0.0
  0
SOLID
  5
11F9
  8
DIM
 10
4788.108701417158
 20
844.97620930878463
 30
0.0
 11
4788.108701417158
 21
832.47620930878463
 31
0.0
 12
4750.608701417158
 22
838.72620930878463
 32
0.0
 13
4750.608701417158
 23
838.72620930878463
 33
0.0
  0
INSERT
  5
11FA
  8
OUTLINE
  2
*U12
 10
0.0
 20
0.0
 30
0.0
  0
LINE
  5
12D9
  8
DIM
 10
4645.6087014171599
 20
535.98389718989779
 30
0.0
 11
4645.6087014171599
 21
490.88489496167477
 31
0.0
  0
LINE
  5
12DA
  8
DIM
 10
4696.6087221538528
 20
547.57610855061762
 30
0.0
 11
4696.6087221538528
 21
490.88489496167477
 31
0.0
  0
LINE
  5
12DB
  8
DIM
 10
4608.1087014171599
 20
510.88489496167477
 30
0.0
 11
4570.608701417159
 21
510.88489496167477
 31
0.0
  0
LINE
  5
12DC
  8
DIM
 10
4734.1087221538537
 20
510.88489496167477
 30
0.0
 11
4771.6087221538519
 21
510.88489496167477
 31
0.0
  0
SOLID
  5
12DD
  8
DIM
 10
4608.1087014171599
 20
517.13489496167495
 30
0.0
 11
4608.1087014171599
 21
504.63489496167477
 31
0.0
 12
4645.6087014171599
 22
510.88489496167477
 32
0.0
 13
4645.6087014171599
 23
510.88489496167477
 33
0.0
  0
SOLID
  5
12DE
  8
DIM
 10
4734.1087221538537
 20
517.13489496167495
 30
0.0
 11
4734.1087221538537
 21
504.63489496167477
 31
0.0
 12
4696.6087221538528
 22
510.88489496167477
 32
0.0
 13
4696.6087221538528
 23
510.88489496167477
 33
0.0
  0
INSERT
  5
12DF
  8
OUTLINE
  2
*U13
 10
0.0
 20
0.0
 30
0.0
  0
LINE
  5
12E0
  8
DIM
 10
2837.9087014171569
 20
1774.373592772379
 30
0.0
 11
2837.9087014171569
 21
1641.379796224403
 31
0.0
  0
LINE
  5
12E1
  8
DIM
 10
4361.9087014171573
 20
1774.3735927723781
 30
0.0
 11
4361.9087014171573
 21
1641.379796224403
 31
0.0
  0
LINE
  5
12E2
  8
DIM
 10
2875.4087014171569
 20
1661.379796224403
 30
0.0
 11
3474.9087014171569
 21
1661.379796224403
 31
0.0
  0
LINE
  5
12E3
  8
DIM
 10
4324.4087014171582
 20
1661.379796224403
 30
0.0
 11
3724.9087014171569
 21
1661.379796224403
 31
0.0
  0
SOLID
  5
12E4
  8
DIM
 10
2875.4087014171569
 20
1667.629796224403
 30
0.0
 11
2875.4087014171569
 21
1655.129796224403
 31
0.0
 12
2837.9087014171569
 22
1661.379796224403
 32
0.0
 13
2837.9087014171569
 23
1661.379796224403
 33
0.0
  0
SOLID
  5
12E5
  8
DIM
 10
4324.4087014171582
 20
1667.629796224403
 30
0.0
 11
4324.4087014171582
 21
1655.129796224403
 31
0.0
 12
4361.9087014171573
 22
1661.379796224403
 32
0.0
 13
4361.9087014171573
 23
1661.379796224403
 33
0.0
  0
INSERT
  5
12E6
  8
OUTLINE
  2
*U14
 10
0.0
 20
0.0
 30
0.0
  0
VIEWPORT
  5
D70
 67
     1
  8
0
 10
5.2499996395561652
 20
3.9999998836066761
 30
0.0
 40
15.91535696818293
 41
8.9929997457669462
 68
     1
 69
     1
1001
ACAD
1000
MVIEW
1002
{
1070
    16
1010
0.0
1020
0.0
1030
0.0
1010
0.0
1020
0.0
1030
1.0
1040
0.0
1040
8.9929997457669462
1040
5.2499996395561652
1040
3.9999998836066761
1040
50.0
1040
0.0
1040
0.0
1070
     0
1070
   100
1070
     1
1070
     1
1070
     0
1070
     0
1070
     0
1070
     0
1040
0.0
1040
0.0
1040
0.0
1040
10.0
1040
10.0
1040
10.0
1040
10.0
1070
     0
1002
{
1002
}
1002
}
1001
GENIUS_GENOBJ-N-SDF_13
1002
{
1000
OWNER
1000
GEN
1002
}
1001
GENIUS_GENODEF_13
1002
{
1000
HIER
1070
     0
1002
}
1002
{
1000
MANEDIT
1070
     0
1002
}
1002
{
1000
NOSEL
1070
     0
1002
}
1002
{
1000
BEHIND
1070
     0
1002
}
1002
{
1000
OTHER
1070
     0
1002
}
1002
{
1000
REACTOR
1002
}
1001
GENIUS_GENSCREG_15
1000
PF
1040
1.0
1000
DF
1040
1.0
1000
MIN
1011
-2.7076788445352991
1021
0.0
1031
0.0
1021
-0.4964999892767974
1031
0.0
1000
MAX
1011
13.20767812364763
1021
0.0
1031
0.0
1021
8.4964997564901488
1031
0.0
1000
FLAGS
1070
     4
  0
VIEWPORT
  5
D73
 67
     1
  8
OUTLINE
 10
5.24999976158142
 20
3.9999997615814191
 30
0.0
 40
8.3999996185302752
 41
6.3999996185302734
 68
     2
 69
     2
1001
ACAD
1000
MVIEW
1002
{
1070
    16
1010
0.0
1020
0.0
1030
0.0
1010
0.0
1020
0.0
1030
1.0
1040
0.0
1040
2932.4973450311322
1040
3261.3162163587608
1040
1454.3194139552311
1040
50.0
1040
0.0
1040
0.0
1070
     0
1070
   100
1070
     1
1070
     1
1070
     0
1070
     0
1070
     0
1070
     0
1040
0.0
1040
0.0
1040
0.0
1040
10.0
1040
10.0
1040
10.0
1040
10.0
1070
     0
1002
{
1002
}
1002
}
1001
GENIUS_GENOBJ-N-SDF_13
1002
{
1000
OWNER
1000
GEN
1002
}
1001
GENIUS_GENODEF_13
1002
{
1000
HIER
1070
     0
1002
}
1002
{
1000
MANEDIT
1070
     0
1002
}
1002
{
1000
NOSEL
1070
     0
1002
}
1002
{
1000
BEHIND
1070
     0
1002
}
1002
{
1000
OTHER
1070
     0
1002
}
1002
{
1000
REACTOR
1002
}
1001
GENIUS_GENSCREG_15
1000
PF
1040
0.0
1000
DF
1040
0.0
1000
MIN
1011
1.049999952316282
1021
0.0
1031
0.0
1021
0.7999999523162824
1031
0.0
1000
MAX
1011
9.4499995708465576
1021
0.0
1031
0.0
1021
7.199999570846555
1031
0.0
1000
FLAGS
1070
     4
  0
ENDSEC
  0
EOF
