  0
SECTION
  2
HEADER
  9
$ACADVER
  1
AC1009
  9
$INSBASE
 10
0.0
 20
0.0
 30
0.0
  9
$EXTMIN
 10
134.02741399829659
 20
81.095587342390004
 30
-0.0000000000000058
  9
$EXTMAX
 10
3690.9770290890901
 20
2538.3160460906988
 30
0.0000000000000104
  9
$LIMMIN
 10
0.0
 20
0.0
  9
$LIMMAX
 10
3890.0
 20
2660.0
  9
$ORTHOMODE
 70
     1
  9
$REGENMODE
 70
     1
  9
$FILLMODE
 70
     1
  9
$QTEXTMODE
 70
     0
  9
$MIRRTEXT
 70
     0
  9
$DRAGMODE
 70
     2
  9
$LTSCALE
 40
60.0
  9
$OSMODE
 70
    37
  9
$ATTMODE
 70
     1
  9
$TEXTSIZE
 40
30.0
  9
$TRACEWID
 40
0.05
  9
$TEXTSTYLE
  7
TITLE3
  9
$CLAYER
  8
DIM
  9
$CELTYPE
  6
CONTINUOUS
  9
$CECOLOR
 62
   256
  9
$DIMSCALE
 40
1.0
  9
$DIMASZ
 40
0.12
  9
$DIMEXO
 40
0.05
  9
$DIMDLI
 40
0.5
  9
$DIMRND
 40
0.0
  9
$DIMDLE
 40
0.0
  9
$DIMEXE
 40
0.1
  9
$DIMTP
 40
0.1
  9
$DIMTM
 40
0.1
  9
$DIMTXT
 40
0.12
  9
$DIMCEN
 40
0.0
  9
$DIMTSZ
 40
0.0
  9
$DIMTOL
 70
     0
  9
$DIMLIM
 70
     0
  9
$DIMTIH
 70
     1
  9
$DIMTOH
 70
     1
  9
$DIMSE1
 70
     0
  9
$DIMSE2
 70
     0
  9
$DIMTAD
 70
     0
  9
$DIMZIN
 70
     7
  9
$DIMBLK
  1

  9
$DIMASO
 70
     0
  9
$DIMSHO
 70
     0
  9
$DIMPOST
  1

  9
$DIMAPOST
  1
mm
  9
$DIMALT
 70
     0
  9
$DIMALTD
 70
     2
  9
$DIMALTF
 40
25.399999999999999
  9
$DIMLFAC
 40
1.0
  9
$DIMTOFL
 70
     0
  9
$DIMTVP
 40
0.0
  9
$DIMTIX
 70
     0
  9
$DIMSOXD
 70
     0
  9
$DIMSAH
 70
     0
  9
$DIMBLK1
  1

  9
$DIMBLK2
  1

  9
$DIMSTYLE
  2
AM_ANSI
  9
$DIMCLRD
 70
   256
  9
$DIMCLRE
 70
   256
  9
$DIMCLRT
 70
     2
  9
$DIMTFAC
 40
0.71
  9
$DIMGAP
 40
0.06
  9
$LUNITS
 70
     2
  9
$LUPREC
 70
     2
  9
$SKETCHINC
 40
0.1
  9
$FILLETRAD
 40
0.0
  9
$AUNITS
 70
     0
  9
$AUPREC
 70
     2
  9
$MENU
  1
CNC
  9
$ELEVATION
 40
0.0
  9
$PELEVATION
 40
0.0
  9
$THICKNESS
 40
0.0
  9
$LIMCHECK
 70
     0
  9
$BLIPMODE
 70
     0
  9
$CHAMFERA
 40
0.0
  9
$CHAMFERB
 40
0.0
  9
$SKPOLY
 70
     0
  9
$TDCREATE
 40
2450694.550174769
  9
$TDUPDATE
 40
2456213.4366865852
  9
$TDINDWG
 40
2.4428432176000001
  9
$TDUSRTIMER
 40
2.4428411920999999
  9
$USRTIMER
 70
     1
  9
$ANGBASE
 50
0.0
  9
$ANGDIR
 70
     0
  9
$PDMODE
 70
     2
  9
$PDSIZE
 40
10.0
  9
$PLINEWID
 40
0.0
  9
$COORDS
 70
     1
  9
$SPLFRAME
 70
     0
  9
$SPLINETYPE
 70
     6
  9
$SPLINESEGS
 70
     8
  9
$ATTDIA
 70
     1
  9
$ATTREQ
 70
     1
  9
$HANDLING
 70
     1
  9
$HANDSEED
  5
A632
  9
$SURFTAB1
 70
     6
  9
$SURFTAB2
 70
     6
  9
$SURFTYPE
 70
     6
  9
$SURFU
 70
     6
  9
$SURFV
 70
     6
  9
$UCSNAME
  2

  9
$UCSORG
 10
0.0
 20
0.0
 30
0.0
  9
$UCSXDIR
 10
1.0
 20
0.0
 30
0.0
  9
$UCSYDIR
 10
0.0
 20
1.0
 30
0.0
  9
$PUCSNAME
  2

  9
$PUCSORG
 10
0.0
 20
0.0
 30
0.0
  9
$PUCSXDIR
 10
1.0
 20
0.0
 30
0.0
  9
$PUCSYDIR
 10
0.0
 20
1.0
 30
0.0
  9
$USERI1
 70
     0
  9
$USERI2
 70
     0
  9
$USERI3
 70
     0
  9
$USERI4
 70
     0
  9
$USERI5
 70
     0
  9
$USERR1
 40
0.0
  9
$USERR2
 40
0.0
  9
$USERR3
 40
0.0
  9
$USERR4
 40
0.0
  9
$USERR5
 40
0.0
  9
$WORLDVIEW
 70
     1
  9
$SHADEDGE
 70
     3
  9
$SHADEDIF
 70
    70
  9
$TILEMODE
 70
     1
  9
$MAXACTVP
 70
    16
  9
$PLIMCHECK
 70
     0
  9
$PEXTMIN
 10
1.0000000000000000E+020
 20
1.0000000000000000E+020
 30
1.0000000000000000E+020
  9
$PEXTMAX
 10
-1.0000000000000000E+020
 20
-1.0000000000000000E+020
 30
-1.0000000000000000E+020
  9
$PLIMMIN
 10
0.0
 20
0.0
  9
$PLIMMAX
 10
12.0
 20
9.0
  9
$UNITMODE
 70
     0
  9
$VISRETAIN
 70
     0
  9
$PLINEGEN
 70
     0
  9
$PSLTSCALE
 70
     0
  0
ENDSEC
  0
SECTION
  2
TABLES
  0
TABLE
  2
VPORT
 70
     1
  0
VPORT
  2
*ACTIVE
 70
     0
 10
0.0
 20
0.0
 11
1.0
 21
1.0
 12
1912.5022215436929
 22
1309.7058167165439
 13
0.0
 23
0.0
 14
25.0
 24
25.0
 15
100.0
 25
100.0
 16
0.0
 26
0.0
 36
1.0
 17
0.0
 27
0.0
 37
0.0
 40
2472.7071423118482
 41
1.544689800210304
 42
50.0
 43
0.0
 44
0.0
 50
0.0
 51
0.0
 71
     0
 72
   100
 73
     1
 74
     0
 75
     0
 76
     0
 77
     0
 78
     0
  0
ENDTAB
  0
TABLE
  2
LTYPE
 70
    17
  0
LTYPE
  2
CONTINUOUS
 70
     0
  3
Solid line
 72
    65
 73
     0
 40
0.0
  0
LTYPE
  2
PHANTOM2
 70
     0
  3
Phantom (.5x) ___ _ _ ___ _ _ ___ _ _ ___ _ _
 72
    65
 73
     6
 40
1.25
 49
0.625
 49
-0.125
 49
0.125
 49
-0.125
 49
0.125
 49
-0.125
  0
LTYPE
  2
HIDDEN
 70
     0
  3
__ __ __ __ __ __ __ __ __ __ __ __ __ __ __ __
 72
    65
 73
     2
 40
0.375
 49
0.25
 49
-0.125
  0
LTYPE
  2
CENTER
 70
     0
  3
Center ____ _ ____ _ ____ _ ____ _ ____ _ ____
 72
    65
 73
     4
 40
2.0
 49
1.25
 49
-0.25
 49
0.25
 49
-0.25
  0
LTYPE
  2
AM_ISO02W050
 70
     0
  3
__ __ __ __ __ __ __ __ __ __ __ __ __ __ __
 72
    65
 73
     2
 40
7.5
 49
6.0
 49
-1.5
  0
LTYPE
  2
AM_ISO08W050
 70
     0
  3
____ . ____ . ____ . ____ . ____ . ____ . ____
 72
    65
 73
     4
 40
18.0
 49
12.0
 49
-1.5
 49
3.0
 49
-1.5
  0
LTYPE
  2
AM_ISO09W050
 70
     0
  3
_____ . . _____ . . _____ . . ____ .. ____
 72
    65
 73
     6
 40
22.5
 49
12.0
 49
-1.5
 49
3.0
 49
-1.5
 49
3.0
 49
-1.5
  0
LTYPE
  2
AMCONSTR
 70
     0
  3
_______________________
 72
    65
 73
     2
 40
9999.0
 49
9999.0
 49
0.0
  0
LTYPE
  2
AM_ISO08W050X2
 70
     0
  3
__ . __ . __ . __ . __ . __
 72
    65
 73
     4
 40
9.0
 49
6.0
 49
-0.75
 49
1.5
 49
-0.75
  0
LTYPE
  2
AM_ISO02W050X2
 70
     0
  3
 _ _ _ _ _ _ _ _ _ _ _ _
 72
    65
 73
     2
 40
3.75
 49
3.0
 49
-0.75
  0
LTYPE
  2
AMZIGZAG
 70
     0
  3
/\/-/\/-/\/-/\/-/\/-/\/
 72
    65
 73
     2
 40
11.0001
 49
0.0001
 49
-11.0
  0
LTYPE
  2
CENTER2
 70
     0
  3
Center (.5x) ___ _ ___ _ ___ _ ___ _ ___ _ ___
 72
    65
 73
     4
 40
1.125
 49
0.75
 49
-0.125
 49
0.125
 49
-0.125
  0
LTYPE
  2
HIDDEN2
 70
     0
  3
Hidden (.5x) _ _ _ _ _ _ _ _ _ _ _ _ _ _ _ _ _
 72
    65
 73
     2
 40
0.1875
 49
0.125
 49
-0.0625
  0
LTYPE
  2
AMZIGZAG2
 70
     0
  3
/\/-/\/-/\/-/\/-/\/-/\/
 72
    65
 73
     2
 40
0.4401
 49
0.0001
 49
-0.4400000000000002
  0
LTYPE
  2
ACANSTGB
 70
     0
  3
__ . . __ . .
 72
    65
 73
     6
 40
0.35433070866
 49
0.15748031496
 49
-0.03937007874
 49
0.03937007874
 49
-0.03937007874
 49
0.03937007874
 49
-0.03937007874
  0
LTYPE
  2
ACANSTGL
 70
     0
  3
_ _ _ _ _
 72
    65
 73
     2
 40
0.11811023622
 49
0.07874015748
 49
-0.03937007874
  0
ENDTAB
  0
TABLE
  2
LAYER
 70
     6
  0
LAYER
  2
0
 70
     0
 62
     7
  6
CONTINUOUS
  0
LAYER
  2
DIM
 70
     0
 62
     2
  6
CONTINUOUS
  0
LAYER
  2
OUTLINE
 70
     0
 62
     7
  6
CONTINUOUS
  0
LAYER
  2
OVERLAY-A3
 70
     0
 62
     7
  6
CONTINUOUS
  0
LAYER
  2
TEXT
 70
     0
 62
     3
  6
CONTINUOUS
  0
LAYER
  2
SPRING
 70
     0
 62
     7
  6
HIDDEN
  0
ENDTAB
  0
TABLE
  2
STYLE
 70
     8
  0
STYLE
  2
STANDARD
 70
     0
 40
0.0
 41
1.0
 50
0.0
 71
     0
 42
0.2
  3
txt
  4

  0
STYLE
  2
ANNOTATIVE
 70
     0
 40
0.0
 41
1.0
 50
0.0
 71
     0
 42
0.2
  3
txt
  4

  0
STYLE
  2
TITLE3
 70
     0
 40
30.0
 41
1.0
 50
0.0
 71
     0
 42
30.0
  3
SIMPLEX
  4

  0
STYLE
  2
SIMPLEX
 70
     0
 40
40.0
 41
1.0
 50
0.0
 71
     0
 42
25.0
  3
SIMPLEX
  4

  0
STYLE
  2
TITLE5
 70
     0
 40
50.0
 41
1.0
 50
0.0
 71
     0
 42
50.0
  3
SIMPLEX.shx
  4

  0
STYLE
  2

 70
     1
 40
0.0
 41
1.0
 50
0.0
 71
     0
 42
30.0
  3
genltshp.shx
  4

  0
STYLE
  2
ACANSTS
 70
     0
 40
1.0
 41
1.0
 50
0.0
 71
     0
 42
30.0
  3
romans.shx
  4

  0
STYLE
  2
ACANSGDT
 70
     0
 40
0.0
 41
1.0
 50
0.0
 71
     0
 42
30.0
  3
amgdt.shx
  4

  0
ENDTAB
  0
TABLE
  2
VIEW
 70
     0
  0
ENDTAB
  0
TABLE
  2
UCS
 70
     0
  0
ENDTAB
  0
TABLE
  2
APPID
 70
    20
  0
APPID
  2
ACAD
 70
     0
  0
APPID
  2
ACADANNOTATIVE
 70
     0
  0
APPID
  2
ACAD_MLEADERVER
 70
     0
  0
APPID
  2
ACAD_PSEXT
 70
     0
  0
APPID
  2
ACAD_DSTYLE_DIMJAG
 70
     0
  0
APPID
  2
ACAD_DSTYLE_DIMBREAK
 70
     0
  0
APPID
  2
ACAD_DSTYLE_DIMTALN
 70
     0
  0
APPID
  2
ACADANNOPO
 70
     0
  0
APPID
  2
ACAD_EXEMPT_FROM_CAD_STANDARDS
 70
     0
  0
APPID
  2
ACAD_DSTYLE_DIMRADIAL_EXTENSION
 70
     0
  0
APPID
  2
ACAECLAYERSTANDARD
 70
     0
  0
APPID
  2
MCAD_NO_VIS
 70
     0
  0
APPID
  2
ACAD_TEMP_GRAPHIC
 70
     0
  0
APPID
  2
AD_DRAW
 70
     0
  0
APPID
  2
ACATTRIBSERVICES
 70
     0
  0
APPID
  2
DESIGNERASSEMBLIES
 70
     0
  0
APPID
  2
ACADM_DIM_EDIT
 70
     0
  0
APPID
  2
AMDT_DM_ADJ
 70
     0
  0
APPID
  2
CONTENTBLOCKICON
 70
     0
  0
APPID
  2
ACAD_NAV_VCDISPLAY
 70
     0
  0
ENDTAB
  0
TABLE
  2
DIMSTYLE
 70
     9
  0
DIMSTYLE
  2
STANDARD
 70
     0
  3

  4

  5

  6

  7

 40
1.0
 41
30.0
 42
10.0
 43
0.38
 44
0.18
 45
0.0
 46
0.0
 47
0.0
 48
0.0
140
30.0
141
0.09
142
0.0
143
25.399999999999999
144
1.0
145
0.0
146
1.0
147
5.0
 71
     0
 72
     0
 73
     0
 74
     0
 75
     0
 76
     0
 77
     0
 78
     0
170
     0
171
     2
172
     0
173
     0
174
     0
175
     0
176
     0
177
     0
178
     0
  0
DIMSTYLE
  2
ANNOTATIVE
 70
     0
  3

  4

  5

  6

  7

 40
1.0
 41
0.18
 42
0.0625
 43
0.38
 44
0.18
 45
0.0
 46
0.0
 47
0.0
 48
0.0
140
0.18
141
0.09
142
0.0
143
25.399999999999999
144
1.0
145
0.0
146
1.0
147
0.09
 71
     0
 72
     0
 73
     1
 74
     1
 75
     0
 76
     0
 77
     0
 78
     0
170
     0
171
     2
172
     0
173
     0
174
     0
175
     0
176
     0
177
     0
178
     0
  0
DIMSTYLE
  2
COPY_OF_COPY_OF_STANDARD
 70
     0
  3

  4

  5

  6

  7

 40
1.0
 41
30.0
 42
10.0
 43
0.38
 44
0.18
 45
0.0
 46
0.0
 47
0.0
 48
0.0
140
30.0
141
0.09
142
0.0
143
25.399999999999999
144
1.0
145
0.0
146
1.0
147
5.0
 71
     0
 72
     0
 73
     0
 74
     0
 75
     0
 76
     0
 77
     0
 78
     0
170
     0
171
     2
172
     0
173
     0
174
     0
175
     0
176
     0
177
     0
178
     0
  0
DIMSTYLE
  2
AM_ANSI
 70
     0
  3

  4
mm
  5

  6

  7

 40
1.0
 41
0.12
 42
0.05
 43
0.5
 44
0.1
 45
0.0
 46
0.0
 47
0.1
 48
0.1
140
0.12
141
0.0
142
0.0
143
25.399999999999999
144
1.0
145
0.0
146
0.71
147
0.06
 71
     0
 72
     0
 73
     1
 74
     1
 75
     0
 76
     0
 77
     0
 78
     7
170
     0
171
     2
172
     0
173
     0
174
     0
175
     0
176
   256
177
   256
178
     2
  0
DIMSTYLE
  2
AM_ANSI$3
 70
     0
  3

  4
mm
  5

  6

  7

 40
1.0
 41
0.12
 42
0.05
 43
0.5
 44
0.1
 45
0.0
 46
0.0
 47
0.1
 48
0.1
140
0.12
141
0.0
142
0.0
143
25.399999999999999
144
1.0
145
0.0
146
0.71
147
0.06
 71
     0
 72
     0
 73
     1
 74
     1
 75
     0
 76
     0
 77
     0
 78
     7
170
     0
171
     2
172
     0
173
     0
174
     0
175
     0
176
   256
177
   256
178
     2
  0
DIMSTYLE
  2
AM_ANSI$4
 70
     0
  3

  4
mm
  5

  6

  7

 40
1.0
 41
0.12
 42
0.05
 43
0.5
 44
0.1
 45
0.0
 46
0.0
 47
0.1
 48
0.1
140
0.12
141
0.0
142
0.0
143
25.399999999999999
144
1.0
145
0.0
146
0.71
147
0.06
 71
     0
 72
     0
 73
     1
 74
     1
 75
     0
 76
     0
 77
     0
 78
     7
170
     0
171
     2
172
     0
173
     0
174
     0
175
     0
176
   256
177
   256
178
     2
  0
DIMSTYLE
  2
AM_ANSI$7
 70
     0
  3

  4
mm
  5

  6

  7

 40
1.0
 41
0.12
 42
0.05
 43
0.5
 44
0.1
 45
0.0
 46
0.0
 47
0.1
 48
0.1
140
0.12
141
0.0
142
0.0
143
25.399999999999999
144
1.0
145
0.0
146
0.71
147
0.06
 71
     0
 72
     0
 73
     1
 74
     1
 75
     0
 76
     0
 77
     0
 78
     7
170
     0
171
     2
172
     0
173
     0
174
     0
175
     0
176
   256
177
   256
178
     2
  0
DIMSTYLE
  2
AM_ANSI$SF
 70
     0
  3

  4
mm
  5

  6

  7

 40
1.0
 41
0.12
 42
0.05
 43
0.5
 44
0.1
 45
0.0
 46
0.0
 47
0.1
 48
0.1
140
0.12
141
0.0
142
0.0
143
25.399999999999999
144
1.0
145
0.0
146
0.71
147
0.06
 71
     0
 72
     0
 73
     1
 74
     1
 75
     1
 76
     1
 77
     0
 78
     7
170
     0
171
     2
172
     0
173
     0
174
     0
175
     0
176
   256
177
   256
178
     2
  0
DIMSTYLE
  2
AM_ANSI$SH
 70
     0
  3

  4
mm
  5

  6

  7

 40
1.0
 41
0.12
 42
0.05
 43
0.5
 44
0.1
 45
0.0
 46
0.0
 47
0.1
 48
0.1
140
0.12
141
0.0
142
0.0
143
25.399999999999999
144
1.0
145
0.0
146
0.71
147
0.06
 71
     0
 72
     0
 73
     1
 74
     1
 75
     1
 76
     1
 77
     0
 78
     7
170
     0
171
     2
172
     0
173
     1
174
     0
175
     0
176
   256
177
   256
178
     2
  0
ENDTAB
  0
ENDSEC
  0
SECTION
  2
BLOCKS
  0
BLOCK
  8
0
  2
$MODEL_SPACE
 70
     0
 10
0.0
 20
0.0
 30
0.0
  3
$MODEL_SPACE
  1

  0
ENDBLK
  5
A52E
  8
0
  0
BLOCK
 67
     1
  8
0
  2
$PAPER_SPACE
 70
     0
 10
0.0
 20
0.0
 30
0.0
  3
$PAPER_SPACE
  1

  0
ENDBLK
  5
A52A
 67
     1
  8
0
  0
BLOCK
  8
0
  2
*U2
 70
     1
 10
0.0
 20
0.0
 30
0.0
  3
*U2
  1

  0
TEXT
  5
66CF
  8
DIM
  6
CONTINUOUS
 10
3770.0078620352001
 20
909.78111772631485
 30
0.0
 40
30.0
  1
365
 50
90.0
  7
TITLE3
  0
ENDBLK
  5
66D1
  8
0
  0
BLOCK
  8
0
  2
*U3
 70
     1
 10
0.0
 20
0.0
 30
0.0
  3
*U3
  1

  0
TEXT
  5
66DB
  8
DIM
  6
CONTINUOUS
 10
3079.889004996091
 20
1316.3282976824121
 30
0.0
 40
30.0
  1
107
  7
TITLE3
  0
ENDBLK
  5
66DD
  8
0
  0
BLOCK
  8
0
  2
*U4
 70
     1
 10
0.0
 20
0.0
 30
0.0
  3
*U4
  1

  0
TEXT
  5
66DF
  8
DIM
  6
CONTINUOUS
 10
3187.2709630743479
 20
1314.3841670587519
 30
0.0
 40
30.0
  1
75
  7
TITLE3
  0
ENDBLK
  5
66E1
  8
0
  0
BLOCK
  8
0
  2
*U5
 70
     1
 10
0.0
 20
0.0
 30
0.0
  3
*U5
  1

  0
TEXT
  5
6A58
  8
DIM
  6
CONTINUOUS
 62
    50
 10
1072.779065527377
 20
1083.318387013466
 30
0.0
 40
30.0
  1
185
 50
90.0
  7
TITLE3
  0
ENDBLK
  5
6A5A
  8
0
  0
BLOCK
  8
0
  2
NEW_BLOCK
 70
     0
 10
0.0
 20
0.0
 30
0.0
  3
NEW_BLOCK
  1

  0
TEXT
  5
7FFE
  8
TEXT
 10
27.285946821803002
 20
25.27142175952417
 30
0.0
 40
40.0
  1
available on request
  7
TITLE3
  0
TEXT
  5
7FFF
  8
TEXT
 10
27.285946821803002
 20
93.842850330952714
 30
0.0
 40
40.0
  1
Certified dimensions
  7
TITLE3
  0
TEXT
  5
8000
  8
TEXT
 10
27.285946821803002
 20
162.4142789023812
 30
0.0
 40
40.0
  1
without notice or obligation.
  7
TITLE3
  0
TEXT
  5
8001
  8
TEXT
 10
27.285946821803002
 20
230.9857074738097
 30
0.0
 40
40.0
  1
specifications at any time
  7
TITLE3
  0
TEXT
  5
8002
  8
TEXT
 10
27.285946821803002
 20
299.55713604523839
 30
0.0
 40
40.0
  1
the right to change 
  7
TITLE3
  0
TEXT
  5
8003
  8
TEXT
 10
27.285946821803002
 20
436.69999318809488
 30
0.0
 40
40.0
  1
NOTE
  7
TITLE3
  0
TEXT
  5
8004
  8
TEXT
 10
27.285946821803002
 20
368.12856461666678
 30
0.0
 40
40.0
  1
The manufacturer reserves
  7
TITLE3
  0
ENDBLK
  5
8005
  8
0
  0
BLOCK
  8
0
  2
*U7
 70
     1
 10
0.0
 20
0.0
 30
0.0
  3
*U7
  1

  0
TEXT
  5
80F4
  8
DIM
  6
CONTINUOUS
 10
666.72168929733471
 20
1803.438256288021
 30
0.0
 40
30.0
  1
700 O/A
 50
90.0
  0
ENDBLK
  5
80F6
  8
0
  0
BLOCK
  8
0
  2
*U8
 70
     1
 10
0.0
 20
0.0
 30
0.0
  3
*U8
  1

  0
TEXT
  5
86E7
  8
DIM
  6
CONTINUOUS
 10
2442.5569462165331
 20
1895.866827716593
 30
0.0
 40
30.0
  1
485
 50
90.0
  7
TITLE3
  0
ENDBLK
  5
86E9
  8
0
  0
BLOCK
  8
0
  2
*U9
 70
     1
 10
0.0
 20
0.0
 30
0.0
  3
*U9
  1

  0
TEXT
  5
86EB
  8
DIM
  6
CONTINUOUS
 10
2525.0091238054129
 20
1896.5811134308781
 30
0.0
 40
30.0
  1
586
 50
90.0
  7
TITLE3
  0
ENDBLK
  5
86ED
  8
0
  0
BLOCK
  8
0
  2
*U10
 70
     1
 10
0.0
 20
0.0
 30
0.0
  3
*U10
  1

  0
TEXT
  5
894B
  8
DIM
  6
CONTINUOUS
 10
736.229176306775
 20
2365.9551132244051
 30
0.0
 40
30.0
  1
38
  0
ENDBLK
  5
894D
  8
0
  0
BLOCK
  8
0
  2
A$C70722A8B
 70
     0
 10
0.0
 20
0.0
 30
0.0
  3
A$C70722A8B
  1

  0
TEXT
  5
8C35
  8
OVERLAY-A3
 10
-1013.9894139153701
 20
-226.51141959426729
 30
0.0
 40
24.0
  1
Date
  7
SIMPLEX
  0
TEXT
  5
8C36
  8
OVERLAY-A3
 10
-115.16676568589079
 20
-207.839331430957
 30
0.0
 40
24.0
  1
Revision
 41
0.7812095035934737
  7
SIMPLEX
 72
     5
 11
-9.8150840584280559
 21
-207.839331430957
 31
0.0
  0
LINE
  5
8C37
  8
OVERLAY-A3
 10
-126.7866080693306
 20
-316.50014060605122
 30
0.0
 11
-126.7866080693306
 21
-169.07397774582171
 31
0.0
  0
LINE
  5
8C38
  8
OVERLAY-A3
 10
-1041.926428602344
 20
0.0
 30
0.0
 11
-1041.926428602344
 21
-316.50014060605122
 31
0.0
  0
LINE
  5
8C39
  8
OVERLAY-A3
 10
-444.36428004639828
 20
-316.50014060605122
 30
0.0
 11
-444.36428004639828
 21
-169.07397774582171
 31
0.0
  0
LINE
  5
8C3A
  8
OVERLAY-A3
 10
-444.36428004639828
 20
-244.03003418490439
 30
0.0
 11
-1041.926428602344
 21
-244.03003418490439
 31
0.0
  0
LINE
  5
8C3B
  8
OVERLAY-A3
 10
0.2975071783494059
 20
-169.07397774582171
 30
0.0
 11
-1041.926428602344
 21
-169.07397774582171
 31
0.0
  0
LINE
  5
8C3C
  8
OVERLAY-A3
 10
-1041.926428602344
 20
-316.50014060605122
 30
0.0
 11
0.0
 21
-316.50014060605122
 31
0.0
  0
LINE
  5
8C3D
  8
OVERLAY-A3
 10
0.0
 20
0.0
 30
0.0
 11
-1041.926428602344
 21
0.0
 31
0.0
  0
TEXT
  5
8C3E
  8
OVERLAY-A3
 10
-1016.794738956382
 20
-289.42014538901049
 30
0.0
 40
20.0
  1
Scale
 41
1.370174796565961
  7
SIMPLEX
 72
     5
 11
-916.31525387487795
 21
-289.42014538901049
 31
0.0
  0
TEXT
  5
8C3F
  8
OVERLAY-A3
 10
-386.41883445869428
 20
-208.44920194765839
 30
0.0
 40
20.0
  1
Drawing No.
  7
SIMPLEX
 72
     2
 11
-212.13312017298
 21
-208.44920194765839
 31
0.0
  0
LINE
  5
8C40
  8
OVERLAY-A3
  6
CONTINUOUS
 10
0.0
 20
0.0
 30
0.0
 11
0.0
 21
-316.50014060605122
 31
0.0
  0
ENDBLK
  5
8C42
  8
0
  0
BLOCK
  8
0
  2
*U12
 70
     1
 10
0.0
 20
0.0
 30
0.0
  3
*U12
  1

  0
TEXT
  5
A066
  8
DIM
  6
CONTINUOUS
 10
1152.5225782649329
 20
2450.7786342481249
 30
0.0
 40
30.0
  1
1242
  7
TITLE3
  0
ENDBLK
  5
A068
  8
0
  0
BLOCK
  8
0
  2
*U13
 70
     1
 10
0.0
 20
0.0
 30
0.0
  3
*U13
  1

  0
TEXT
  5
A06A
  8
DIM
  6
CONTINUOUS
 10
1120.200225336009
 20
1660.847572621519
 30
0.0
 40
30.0
  1
860
  7
TITLE3
  0
ENDBLK
  5
A06C
  8
0
  0
BLOCK
  8
0
  2
*U14
 70
     1
 10
0.0
 20
0.0
 30
0.0
  3
*U14
  1

  0
TEXT
  5
A06E
  8
DIM
  6
CONTINUOUS
 10
1300.7716539074379
 20
1554.9246803860699
 30
0.0
 40
30.0
  1
1668
  7
TITLE3
  0
ENDBLK
  5
A070
  8
0
  0
BLOCK
  8
0
  2
*U15
 70
     1
 10
0.0
 20
0.0
 30
0.0
  3
*U15
  1

  0
TEXT
  5
A0A1
  8
DIM
  6
CONTINUOUS
 10
2683.617597708509
 20
1078.9609660994649
 30
0.0
 40
30.0
  1
117
 50
90.0
  7
TITLE3
  0
ENDBLK
  5
A0A3
  8
0
  0
BLOCK
  8
0
  2
GENAXEH
 70
     0
 10
0.0
 20
0.0
 30
0.0
  3
GENAXEH
  1

  0
LINE
  5
A483
  8
0
 10
-1.0
 20
0.0
 30
0.0
 11
1.0
 21
0.0
 31
0.0
  0
ENDBLK
  5
A485
  8
0
  0
ENDSEC
  0
SECTION
  2
ENTITIES
  0
LINE
  5
B97
  8
DIM
 10
1492.857663593742
 20
2291.3921706162741
 30
0.0
 11
1492.857663593742
 21
2311.2363494090769
 31
0.0
  0
LINE
  5
B98
  8
DIM
 10
1509.1942147769239
 20
2291.3921706162741
 30
0.0
 11
1492.857663593742
 21
2291.3921706162741
 31
0.0
  0
LINE
  5
B99
  8
DIM
 10
1485.2592676945901
 20
2254.5353788908492
 30
0.0
 11
1509.1942147769239
 21
2291.3921706162741
 31
0.0
  0
LINE
  5
B9A
  8
DIM
 10
1477.660871795435
 20
2311.2363494090769
 30
0.0
 11
1492.857663593742
 21
2311.2363494090769
 31
0.0
  0
LINE
  5
B9B
  8
DIM
 10
1477.660871795435
 20
2291.3921706162741
 30
0.0
 11
1477.660871795435
 21
2311.2363494090769
 31
0.0
  0
LINE
  5
B9C
  8
DIM
 10
1461.324320612255
 20
2291.3921706162741
 30
0.0
 11
1477.660871795435
 21
2291.3921706162741
 31
0.0
  0
LINE
  5
B9D
  8
DIM
 10
1485.2592676945901
 20
2254.5353788908492
 30
0.0
 11
1461.324320612255
 21
2291.3921706162741
 31
0.0
  0
LINE
  5
18EF
  8
DIM
 10
927.28510600407355
 20
2291.3921706162741
 30
0.0
 11
927.28510600407355
 21
2311.2363494090769
 31
0.0
  0
LINE
  5
18F0
  8
DIM
 10
943.6216571872543
 20
2291.3921706162741
 30
0.0
 11
927.28510600407355
 21
2291.3921706162741
 31
0.0
  0
LINE
  5
18F1
  8
DIM
 10
919.68671010492028
 20
2254.5353788908492
 30
0.0
 11
943.6216571872543
 21
2291.3921706162741
 31
0.0
  0
LINE
  5
18F2
  8
DIM
 10
912.08831420576576
 20
2311.2363494090769
 30
0.0
 11
927.28510600407355
 21
2311.2363494090769
 31
0.0
  0
LINE
  5
18F3
  8
DIM
 10
912.08831420576576
 20
2291.3921706162741
 30
0.0
 11
912.08831420576576
 21
2311.2363494090769
 31
0.0
  0
LINE
  5
18F4
  8
DIM
 10
895.75176302258558
 20
2291.3921706162741
 30
0.0
 11
912.08831420576576
 21
2291.3921706162741
 31
0.0
  0
LINE
  5
18F5
  8
DIM
 10
919.68671010492028
 20
2254.5353788908492
 30
0.0
 11
895.75176302258558
 21
2291.3921706162741
 31
0.0
  0
LINE
  5
1F8D
  8
DIM
 10
3606.0061362466672
 20
897.72818422685145
 30
0.0
 11
3625.8503150394722
 21
897.72818422685145
 31
0.0
  0
LINE
  5
1F8E
  8
DIM
 10
3606.0061362466672
 20
881.39163304366923
 30
0.0
 11
3606.0061362466672
 21
897.72818422685145
 31
0.0
  0
LINE
  5
1F8F
  8
DIM
 10
3569.1493445212418
 20
905.32658012600405
 30
0.0
 11
3606.0061362466672
 21
881.39163304366923
 31
0.0
  0
LINE
  5
1F90
  8
DIM
 10
3625.8503150394722
 20
912.92497602515868
 30
0.0
 11
3625.8503150394722
 21
897.72818422685145
 31
0.0
  0
LINE
  5
1F91
  8
DIM
 10
3606.0061362466672
 20
912.92497602515868
 30
0.0
 11
3625.8503150394722
 21
912.92497602515868
 31
0.0
  0
LINE
  5
1F92
  8
DIM
 10
3606.0061362466672
 20
929.26152720833829
 30
0.0
 11
3606.0061362466672
 21
912.92497602515868
 31
0.0
  0
LINE
  5
1F93
  8
DIM
 10
3569.1493445212418
 20
905.32658012600405
 30
0.0
 11
3606.0061362466672
 21
929.26152720833829
 31
0.0
  0
LINE
  5
1FBA
  8
DIM
 10
3447.4843302132781
 20
1062.418108956608
 30
0.0
 11
3520.5689015380999
 21
1062.418108956608
 31
0.0
  0
LINE
  5
1FBB
  8
DIM
 10
3447.4843302132758
 20
697.61810895660722
 30
0.0
 11
3520.5689015380981
 21
697.61810895660722
 31
0.0
  0
LINE
  5
1FBC
  8
DIM
 10
3520.3889015381001
 20
1032.4181089566071
 30
0.0
 11
3520.3889015381001
 21
923.5895375280362
 31
0.0
  0
LINE
  5
1FBD
  8
DIM
 10
3520.3889015381001
 20
727.61810895660733
 30
0.0
 11
3520.3889015381001
 21
836.44668038517796
 31
0.0
  0
SOLID
  5
1FBE
  8
DIM
 10
3515.388901538101
 20
1032.4181089566071
 30
0.0
 11
3525.3889015380992
 21
1032.4181089566071
 31
0.0
 12
3520.3889015381001
 22
1062.418108956608
 32
0.0
 13
3520.3889015381001
 23
1062.418108956608
 33
0.0
  0
SOLID
  5
1FBF
  8
DIM
 10
3515.388901538101
 20
727.61810895660733
 30
0.0
 11
3525.3889015380992
 21
727.61810895660733
 31
0.0
 12
3520.3889015381001
 22
697.61810895660722
 32
0.0
 13
3520.3889015381001
 23
697.61810895660722
 33
0.0
  0
INSERT
  5
1FC0
  8
DIM
  6
CONTINUOUS
  2
*U2
 10
-234.61896049710049
 20
-68.334437341135285
 30
0.0
  0
LINE
  5
1FC1
  8
DIM
 10
3423.4843302132772
 20
1170.3181089566069
 30
0.0
 11
3520.8915078185528
 21
1170.3181089566069
 31
0.0
  0
LINE
  5
1FC2
  8
DIM
 10
3447.4843302132781
 20
1062.418108956608
 30
0.0
 11
3520.8915078185528
 21
1062.418108956608
 31
0.0
  0
LINE
  5
1FC3
  8
DIM
 10
3520.7115078185529
 20
1200.3181089566069
 30
0.0
 11
3520.7115078185529
 21
1230.318108956606
 31
0.0
  0
LINE
  5
1FC4
  8
DIM
 10
3520.7115078185529
 20
1032.4181089566071
 30
0.0
 11
3520.7115078185529
 21
1002.418108956608
 31
0.0
  0
SOLID
  5
1FC5
  8
DIM
 10
3515.7115078185529
 20
1200.3181089566069
 30
0.0
 11
3525.711507818552
 21
1200.3181089566069
 31
0.0
 12
3520.7115078185529
 22
1170.3181089566069
 32
0.0
 13
3520.7115078185529
 23
1170.3181089566069
 33
0.0
  0
SOLID
  5
1FC6
  8
DIM
 10
3515.7115078185529
 20
1032.4181089566071
 30
0.0
 11
3525.711507818552
 21
1032.4181089566071
 31
0.0
 12
3520.7115078185529
 22
1062.418108956608
 32
0.0
 13
3520.7115078185529
 23
1062.418108956608
 33
0.0
  0
LINE
  5
1FD6
  8
DIM
 10
2725.4843302132772
 20
828.73156029160646
 30
0.0
 11
2666.8652569320561
 21
828.73156029160646
 31
0.0
  0
LINE
  5
1FD8
  8
DIM
 10
2667.0452569320551
 20
858.73156029160668
 30
0.0
 11
2667.0452569320551
 21
1053.318108956606
 31
0.0
  0
SOLID
  5
1FDA
  8
DIM
 10
2662.0452569320551
 20
858.73156029160668
 30
0.0
 11
2672.0452569320551
 21
858.73156029160668
 31
0.0
 12
2667.0452569320551
 22
828.73156029160646
 32
0.0
 13
2667.0452569320551
 23
828.73156029160646
 33
0.0
  0
SOLID
  5
1FDB
  8
DIM
 10
2662.0452569320551
 20
1023.318108956606
 30
0.0
 11
2672.0452569320551
 21
1023.318108956606
 31
0.0
 12
2667.0452569320551
 22
1053.318108956606
 32
0.0
 13
2667.0452569320551
 23
1053.318108956606
 33
0.0
  0
LINE
  5
2040
  8
DIM
 10
2795.0006297435611
 20
920.97937678765311
 30
0.0
 11
2814.8448085363661
 21
920.97937678765311
 31
0.0
  0
LINE
  5
2041
  8
DIM
 10
2795.0006297435611
 20
904.64282560447225
 30
0.0
 11
2795.0006297435611
 21
920.97937678765311
 31
0.0
  0
LINE
  5
2042
  8
DIM
 10
2758.1438380181371
 20
928.57777268680616
 30
0.0
 11
2795.0006297435611
 21
904.64282560447225
 31
0.0
  0
LINE
  5
2043
  8
DIM
 10
2814.8448085363661
 20
936.17616858596034
 30
0.0
 11
2814.8448085363661
 21
920.97937678765311
 31
0.0
  0
LINE
  5
2044
  8
DIM
 10
2795.0006297435611
 20
936.17616858596034
 30
0.0
 11
2814.8448085363661
 21
936.17616858596034
 31
0.0
  0
LINE
  5
2045
  8
DIM
 10
2795.0006297435611
 20
952.51271976914074
 30
0.0
 11
2795.0006297435611
 21
936.17616858596034
 31
0.0
  0
LINE
  5
2046
  8
DIM
 10
2758.1438380181371
 20
928.57777268680616
 30
0.0
 11
2795.0006297435611
 21
952.51271976914074
 31
0.0
  0
LINE
  5
211B
  8
DIM
 10
2827.4843302132772
 20
1180.318108956606
 30
0.0
 11
2827.4843302132772
 21
1231.229729717616
 31
0.0
  0
LINE
  5
211C
  8
DIM
 10
2934.4843302132758
 20
1102.318108956606
 30
0.0
 11
2934.4843302132758
 21
1231.229729717616
 31
0.0
  0
LINE
  5
211D
  8
DIM
 10
2857.4843302132758
 20
1231.0497297176159
 30
0.0
 11
2934.4843302132758
 21
1231.0497297176159
 31
0.0
  0
LINE
  5
211E
  8
DIM
 10
3039.4843302132772
 20
1231.0497297176159
 30
0.0
 11
3069.4843302132758
 21
1231.0497297176159
 31
0.0
  0
SOLID
  5
211F
  8
DIM
 10
2857.4843302132758
 20
1236.0497297176159
 30
0.0
 11
2857.4843302132758
 21
1226.049729717615
 31
0.0
 12
2827.4843302132772
 22
1231.0497297176159
 32
0.0
 13
2827.4843302132772
 23
1231.0497297176159
 33
0.0
  0
SOLID
  5
2120
  8
DIM
 10
3039.4843302132772
 20
1236.0497297176159
 30
0.0
 11
3039.4843302132772
 21
1226.049729717615
 31
0.0
 12
3009.4843302132758
 22
1231.0497297176159
 32
0.0
 13
3009.4843302132758
 23
1231.0497297176159
 33
0.0
  0
INSERT
  5
2121
  8
DIM
  6
CONTINUOUS
  2
*U3
 10
-234.61896049710049
 20
-68.334437341135285
 30
0.0
  0
LINE
  5
2122
  8
DIM
 10
2934.4843302132758
 20
1102.318108956606
 30
0.0
 11
2934.4843302132758
 21
1231.229729717616
 31
0.0
  0
LINE
  5
2123
  8
DIM
 10
3009.4843302132758
 20
1102.318108956606
 30
0.0
 11
3009.4843302132758
 21
1231.229729717616
 31
0.0
  0
LINE
  5
2124
  8
DIM
 10
3039.4843302132772
 20
1231.0497297176159
 30
0.0
 11
3054.4843302132758
 21
1231.0497297176159
 31
0.0
  0
INSERT
  5
2125
  8
DIM
  6
CONTINUOUS
  2
*U4
 10
-234.61896049710049
 20
-68.334437341135285
 30
0.0
  0
SOLID
  5
2126
  8
DIM
 10
3039.4843302132772
 20
1236.0497297176159
 30
0.0
 11
3039.4843302132772
 21
1226.049729717615
 31
0.0
 12
3009.4843302132758
 22
1231.0497297176159
 32
0.0
 13
3009.4843302132758
 23
1231.0497297176159
 33
0.0
  0
SOLID
  5
2128
  8
DIM
 10
2904.4843302132772
 20
1236.0497297176159
 30
0.0
 11
2904.4843302132772
 21
1226.049729717615
 31
0.0
 12
2934.4843302132758
 22
1231.0497297176159
 32
0.0
 13
2934.4843302132758
 23
1231.0497297176159
 33
0.0
  0
SOLID
  5
2129
  8
DIM
 10
2904.4843302132772
 20
1236.0497297176159
 30
0.0
 11
2904.4843302132772
 21
1226.049729717615
 31
0.0
 12
2934.4843302132758
 22
1231.0497297176159
 32
0.0
 13
2934.4843302132758
 23
1231.0497297176159
 33
0.0
  0
POINT
  5
46FE
  8
SPRING
  6
CONTINUOUS
 10
543.77165390743562
 20
1006.818108956607
 30
0.0
 50
180.0
  0
LINE
  5
46FF
  8
SPRING
  6
CONTINUOUS
 10
535.77165390743528
 20
1046.8181089566069
 30
0.0
 11
535.77165390743528
 21
986.81810895660783
 31
0.0
  0
LINE
  5
4700
  8
SPRING
  6
CONTINUOUS
 10
543.77165390743562
 20
1046.8181089566069
 30
0.0
 11
535.77165390743528
 21
1046.8181089566069
 31
0.0
  0
POINT
  5
4701
  8
SPRING
  6
CONTINUOUS
 10
543.77165390743562
 20
1036.818108956606
 30
0.0
 50
180.0
  0
ARC
  5
4702
  8
SPRING
  6
CONTINUOUS
 10
514.27165390743539
 20
973.81810895660794
 30
0.0
 40
3.0
 50
0.0
 51
90.0
  0
LINE
  5
4703
  8
SPRING
  6
CONTINUOUS
 10
498.77165390743392
 20
976.81810895660794
 30
0.0
 11
498.77165390743392
 21
969.81810895660635
 31
0.0
  0
ARC
  5
4704
  8
SPRING
  6
CONTINUOUS
 10
483.271653907435
 20
973.81810895660794
 30
0.0
 40
3.0
 50
90.0
 51
180.0
  0
ARC
  5
4705
  8
SPRING
  6
CONTINUOUS
 10
533.77165390743562
 20
986.81810895660783
 30
0.0
 40
10.0
 50
270.0
 51
0.0
  0
LINE
  5
4706
  8
SPRING
  6
CONTINUOUS
 10
478.77165390743511
 20
984.81810895660794
 30
0.0
 11
478.77165390743511
 21
976.81810895660794
 31
0.0
  0
LINE
  5
4707
  8
SPRING
  6
CONTINUOUS
 10
533.77165390743562
 20
984.81810895660794
 30
0.0
 11
478.77165390743511
 21
984.81810895660794
 31
0.0
  0
LINE
  5
4708
  8
SPRING
  6
CONTINUOUS
 10
533.77165390743562
 20
976.81810895660794
 30
0.0
 11
478.77165390743511
 21
976.81810895660794
 31
0.0
  0
LINE
  5
4709
  8
SPRING
  6
CONTINUOUS
 10
483.271653907435
 20
976.81810895660794
 30
0.0
 11
514.27165390743539
 21
976.81810895660794
 31
0.0
  0
ARC
  5
470A
  8
SPRING
  6
CONTINUOUS
 10
533.77165390743562
 20
986.81810895660783
 30
0.0
 40
2.0
 50
270.0
 51
0.0
  0
LINE
  5
470B
  8
SPRING
  6
CONTINUOUS
 10
517.27165390743505
 20
973.81810895660794
 30
0.0
 11
517.27165390743505
 21
969.81810895660635
 31
0.0
  0
LINE
  5
470C
  8
SPRING
  6
CONTINUOUS
 10
480.27165390743482
 20
973.81810895660794
 30
0.0
 11
480.27165390743482
 21
969.81810895660635
 31
0.0
  0
LINE
  5
470D
  8
SPRING
  6
CONTINUOUS
 10
517.27165390743505
 20
969.81810895660635
 30
0.0
 11
480.27165390743482
 21
969.81810895660635
 31
0.0
  0
LINE
  5
470E
  8
SPRING
  6
CONTINUOUS
 10
543.77165390743562
 20
986.81810895660783
 30
0.0
 11
543.77165390743562
 21
994.55785609658494
 31
0.0
  0
POINT
  5
471A
  8
SPRING
  6
CONTINUOUS
 10
2157.7716539074349
 20
1006.818108956607
 30
0.0
  0
LINE
  5
471B
  8
SPRING
  6
CONTINUOUS
 10
2165.7716539074349
 20
1046.8181089566069
 30
0.0
 11
2165.7716539074349
 21
986.81810895660783
 31
0.0
  0
LINE
  5
471C
  8
SPRING
  6
CONTINUOUS
 10
2157.7716539074349
 20
1046.8181089566069
 30
0.0
 11
2157.7716539074349
 21
986.81810895660783
 31
0.0
  0
LINE
  5
471D
  8
SPRING
  6
CONTINUOUS
 10
2157.7716539074349
 20
1046.8181089566069
 30
0.0
 11
2165.7716539074349
 21
1046.8181089566069
 31
0.0
  0
POINT
  5
471E
  8
SPRING
  6
CONTINUOUS
 10
2157.7716539074349
 20
1036.818108956606
 30
0.0
  0
ARC
  5
471F
  8
SPRING
  6
CONTINUOUS
 10
2187.2716539074349
 20
973.81810895660794
 30
0.0
 40
3.0
 50
90.0
 51
180.0
  0
LINE
  5
4720
  8
SPRING
  6
CONTINUOUS
 10
2202.7716539074349
 20
976.81810895660794
 30
0.0
 11
2202.7716539074349
 21
969.81810895660635
 31
0.0
  0
ARC
  5
4721
  8
SPRING
  6
CONTINUOUS
 10
2218.271653907434
 20
973.81810895660794
 30
0.0
 40
3.0
 50
0.0
 51
90.0
  0
ARC
  5
4722
  8
SPRING
  6
CONTINUOUS
 10
2167.7716539074358
 20
986.81810895660783
 30
0.0
 40
10.0
 50
180.0
 51
270.0
  0
LINE
  5
4723
  8
SPRING
  6
CONTINUOUS
 10
2222.7716539074349
 20
984.81810895660794
 30
0.0
 11
2222.7716539074349
 21
976.81810895660794
 31
0.0
  0
LINE
  5
4724
  8
SPRING
  6
CONTINUOUS
 10
2167.7716539074358
 20
984.81810895660794
 30
0.0
 11
2222.7716539074349
 21
984.81810895660794
 31
0.0
  0
LINE
  5
4725
  8
SPRING
  6
CONTINUOUS
 10
2167.7716539074358
 20
976.81810895660794
 30
0.0
 11
2222.7716539074349
 21
976.81810895660794
 31
0.0
  0
LINE
  5
4726
  8
SPRING
  6
CONTINUOUS
 10
2218.271653907434
 20
976.81810895660794
 30
0.0
 11
2187.2716539074349
 21
976.81810895660794
 31
0.0
  0
ARC
  5
4727
  8
SPRING
  6
CONTINUOUS
 10
2167.7716539074358
 20
986.81810895660783
 30
0.0
 40
2.0
 50
180.0
 51
270.0
  0
LINE
  5
4728
  8
SPRING
  6
CONTINUOUS
 10
2184.2716539074349
 20
973.81810895660794
 30
0.0
 11
2184.2716539074349
 21
969.81810895660635
 31
0.0
  0
LINE
  5
4729
  8
SPRING
  6
CONTINUOUS
 10
2221.2716539074358
 20
973.81810895660794
 30
0.0
 11
2221.2716539074358
 21
969.81810895660635
 31
0.0
  0
LINE
  5
472A
  8
SPRING
  6
CONTINUOUS
 10
2184.2716539074349
 20
969.81810895660635
 30
0.0
 11
2221.2716539074358
 21
969.81810895660635
 31
0.0
  0
ARC
  5
473E
  8
OUTLINE
 10
530.27165390743744
 20
2305.8977594309849
 30
0.0
 40
4.75
 50
180.0
 51
0.0
  0
ARC
  5
473F
  8
OUTLINE
 10
530.27165390743744
 20
2316.3977594309849
 30
0.0
 40
4.75
 50
0.0
 51
180.0
  0
LINE
  5
4740
  8
OUTLINE
 10
525.52165390743824
 20
2316.3977594309849
 30
0.0
 11
525.52165390743824
 21
2305.8977594309849
 31
0.0
  0
LINE
  5
4741
  8
OUTLINE
 10
535.02165390743835
 20
2316.3977594309849
 30
0.0
 11
535.02165390743835
 21
2305.8977594309849
 31
0.0
  0
ARC
  5
4743
  8
OUTLINE
 10
530.27165390743744
 20
1831.397759430984
 30
0.0
 40
4.75
 50
0.0
 51
180.0
  0
ARC
  5
4744
  8
OUTLINE
 10
530.27165390743744
 20
1820.8977594309849
 30
0.0
 40
4.75
 50
180.0
 51
0.0
  0
LINE
  5
4745
  8
OUTLINE
 10
525.52165390743824
 20
1820.8977594309849
 30
0.0
 11
525.52165390743824
 21
1831.397759430984
 31
0.0
  0
LINE
  5
4746
  8
OUTLINE
 10
535.02165390743835
 20
1820.8977594309849
 30
0.0
 11
535.02165390743835
 21
1831.397759430984
 31
0.0
  0
ARC
  5
4760
  8
OUTLINE
 10
2171.2716539074372
 20
1831.397759430984
 30
0.0
 40
4.75
 50
0.0
 51
180.0
  0
ARC
  5
4761
  8
OUTLINE
 10
2171.2716539074372
 20
1820.8977594309849
 30
0.0
 40
4.75
 50
180.0
 51
0.0
  0
LINE
  5
4762
  8
OUTLINE
 10
2176.0216539074372
 20
1820.8977594309849
 30
0.0
 11
2176.0216539074372
 21
1831.397759430984
 31
0.0
  0
LINE
  5
4763
  8
OUTLINE
 10
2166.5216539074372
 20
1820.8977594309849
 30
0.0
 11
2166.5216539074372
 21
1831.397759430984
 31
0.0
  0
ARC
  5
4765
  8
OUTLINE
 10
2171.2716539074372
 20
2305.8977594309849
 30
0.0
 40
4.75
 50
180.0
 51
0.0
  0
ARC
  5
4766
  8
OUTLINE
 10
2171.2716539074372
 20
2316.3977594309849
 30
0.0
 40
4.75
 50
0.0
 51
180.0
  0
LINE
  5
4767
  8
OUTLINE
 10
2176.0216539074372
 20
2316.3977594309849
 30
0.0
 11
2176.0216539074372
 21
2305.8977594309849
 31
0.0
  0
LINE
  5
4768
  8
OUTLINE
 10
2166.5216539074372
 20
2316.3977594309849
 30
0.0
 11
2166.5216539074372
 21
2305.8977594309849
 31
0.0
  0
LINE
  5
4799
  8
SPRING
  6
CONTINUOUS
 10
477.77165390743522
 20
1802.1477594309861
 30
0.0
 11
477.77165390743522
 21
1852.1477594309861
 31
0.0
  0
LINE
  5
479A
  8
SPRING
  6
CONTINUOUS
 10
477.77165390743522
 20
1804.6477594309861
 30
0.0
 11
542.77165390743573
 21
1804.6477594309861
 31
0.0
  0
LINE
  5
479B
  8
SPRING
  6
CONTINUOUS
 10
477.77165390743522
 20
1802.1477594309861
 30
0.0
 11
542.77165390743573
 21
1802.1477594309861
 31
0.0
  0
LINE
  5
479C
  8
SPRING
  6
CONTINUOUS
 10
477.77165390743522
 20
1852.1477594309861
 30
0.0
 11
516.77165390743573
 21
1852.1477594309861
 31
0.0
  0
LINE
  5
479D
  8
SPRING
  6
CONTINUOUS
 10
477.77165390743522
 20
1849.6477594309861
 30
0.0
 11
516.77165390743573
 21
1849.6477594309861
 31
0.0
  0
CIRCLE
  5
479E
  8
SPRING
  6
CONTINUOUS
 10
497.77165390743562
 20
1827.1477594309861
 30
0.0
 40
9.5
  0
LINE
  5
47A8
  8
SPRING
  6
CONTINUOUS
 10
477.77165390743522
 20
2287.1477594309872
 30
0.0
 11
477.77165390743522
 21
2337.1477594309881
 31
0.0
  0
CIRCLE
  5
47A9
  8
SPRING
  6
CONTINUOUS
 10
497.77165390743562
 20
2312.1477594309881
 30
0.0
 40
9.5
  0
LINE
  5
47AA
  8
SPRING
  6
CONTINUOUS
 10
477.77165390743522
 20
2289.6477594309872
 30
0.0
 11
516.77165390743573
 21
2289.6477594309872
 31
0.0
  0
LINE
  5
47AB
  8
SPRING
  6
CONTINUOUS
 10
477.77165390743522
 20
2287.1477594309872
 30
0.0
 11
516.77165390743573
 21
2287.1477594309872
 31
0.0
  0
LINE
  5
47AC
  8
SPRING
  6
CONTINUOUS
 10
477.77165390743522
 20
2337.1477594309881
 30
0.0
 11
542.77165390743573
 21
2337.1477594309881
 31
0.0
  0
LINE
  5
47AD
  8
SPRING
  6
CONTINUOUS
 10
477.77165390743522
 20
2334.6477594309881
 30
0.0
 11
542.77165390743573
 21
2334.6477594309881
 31
0.0
  0
LINE
  5
47B6
  8
SPRING
  6
CONTINUOUS
 10
2223.7716539074372
 20
1802.1477594309861
 30
0.0
 11
2223.7716539074372
 21
1852.1477594309861
 31
0.0
  0
LINE
  5
47B7
  8
SPRING
  6
CONTINUOUS
 10
2223.7716539074372
 20
1804.6477594309861
 30
0.0
 11
2184.7716539074372
 21
1804.6477594309861
 31
0.0
  0
LINE
  5
47B8
  8
SPRING
  6
CONTINUOUS
 10
2223.7716539074372
 20
1802.1477594309861
 30
0.0
 11
2155.7716539074381
 21
1802.1477594309861
 31
0.0
  0
LINE
  5
47B9
  8
SPRING
  6
CONTINUOUS
 10
2223.7716539074372
 20
1852.1477594309861
 30
0.0
 11
2184.7716539074372
 21
1852.1477594309861
 31
0.0
  0
LINE
  5
47BA
  8
SPRING
  6
CONTINUOUS
 10
2223.7716539074372
 20
1849.6477594309861
 30
0.0
 11
2184.7716539074372
 21
1849.6477594309861
 31
0.0
  0
CIRCLE
  5
47BB
  8
SPRING
  6
CONTINUOUS
 10
2203.7716539074358
 20
1827.1477594309861
 30
0.0
 40
9.5
  0
LINE
  5
47C4
  8
SPRING
  6
CONTINUOUS
 10
2223.7716539074372
 20
2287.1477594309872
 30
0.0
 11
2223.7716539074372
 21
2337.1477594309881
 31
0.0
  0
CIRCLE
  5
47C5
  8
SPRING
  6
CONTINUOUS
 10
2203.7716539074358
 20
2312.1477594309881
 30
0.0
 40
9.5
  0
LINE
  5
47C6
  8
SPRING
  6
CONTINUOUS
 10
2223.7716539074372
 20
2289.6477594309872
 30
0.0
 11
2184.7716539074372
 21
2289.6477594309872
 31
0.0
  0
LINE
  5
47C7
  8
SPRING
  6
CONTINUOUS
 10
2223.7716539074372
 20
2287.1477594309872
 30
0.0
 11
2184.7716539074372
 21
2287.1477594309872
 31
0.0
  0
LINE
  5
47C8
  8
SPRING
  6
CONTINUOUS
 10
2223.7716539074372
 20
2337.1477594309881
 30
0.0
 11
2155.7716539074381
 21
2337.1477594309881
 31
0.0
  0
LINE
  5
47C9
  8
SPRING
  6
CONTINUOUS
 10
2223.7716539074372
 20
2334.6477594309881
 30
0.0
 11
2184.7716539074372
 21
2334.6477594309881
 31
0.0
  0
LINE
  5
4826
  8
DIM
 62
    52
 10
532.27165390743733
 20
1170.3181089566069
 30
0.0
 11
532.27165390743733
 21
1254.3097692768461
 31
0.0
  0
LINE
  5
4827
  8
DIM
 62
    52
 10
2173.271653907439
 20
1170.3181089566069
 30
0.0
 11
2173.271653907439
 21
1254.3097692768461
 31
0.0
  0
LINE
  5
4828
  8
DIM
 62
    52
 10
562.27165390743801
 20
1234.3097692768461
 30
0.0
 11
1146.3430824788679
 21
1234.3097692768461
 31
0.0
  0
LINE
  5
4829
  8
DIM
 62
    52
 10
2143.2716539074381
 20
1234.3097692768461
 30
0.0
 11
1559.2002253360081
 21
1234.3097692768461
 31
0.0
  0
SOLID
  5
482A
  8
DIM
 62
    52
 10
562.27165390743801
 20
1239.3097692768461
 30
0.0
 11
562.27165390743801
 21
1229.3097692768461
 31
0.0
 12
532.27165390743733
 22
1234.3097692768461
 32
0.0
 13
532.27165390743733
 23
1234.3097692768461
 33
0.0
  0
SOLID
  5
482B
  8
DIM
 62
    52
 10
2143.2716539074381
 20
1239.3097692768461
 30
0.0
 11
2143.2716539074381
 21
1229.3097692768461
 31
0.0
 12
2173.271653907439
 22
1234.3097692768461
 32
0.0
 13
2173.271653907439
 23
1234.3097692768461
 33
0.0
  0
LINE
  5
482D
  8
DIM
 62
    52
 10
499.77165390743562
 20
980.25066125787487
 30
0.0
 11
499.77165390743562
 21
1343.13798664304
 31
0.0
  0
LINE
  5
482E
  8
DIM
 62
    52
 10
2205.7716539074381
 20
980.25066125787487
 30
0.0
 11
2205.7716539074381
 21
1343.13798664304
 31
0.0
  0
LINE
  5
482F
  8
DIM
 62
    52
 10
529.77165390743505
 20
1323.1379866430379
 30
0.0
 11
940.95209482576502
 21
1323.1379866430379
 31
0.0
  0
LINE
  5
4830
  8
DIM
 62
    52
 10
2175.771653907439
 20
1323.1379866430379
 30
0.0
 11
1786.1457482339219
 21
1323.1379866430379
 31
0.0
  0
SOLID
  5
4831
  8
DIM
 62
    52
 10
529.77165390743505
 20
1328.1379866430379
 30
0.0
 11
529.77165390743505
 21
1318.1379866430379
 31
0.0
 12
499.77165390743562
 22
1323.1379866430379
 32
0.0
 13
499.77165390743562
 23
1323.1379866430379
 33
0.0
  0
SOLID
  5
4832
  8
DIM
 62
    52
 10
2175.771653907439
 20
1328.1379866430379
 30
0.0
 11
2175.771653907439
 21
1318.1379866430379
 31
0.0
 12
2205.7716539074381
 22
1323.1379866430379
 32
0.0
 13
2205.7716539074381
 23
1323.1379866430379
 33
0.0
  0
LINE
  5
483C
  8
DIM
 62
    52
 10
728.77165390743744
 20
1659.4751770566629
 30
0.0
 11
728.77165390743744
 21
1619.962075860597
 31
0.0
  0
LINE
  5
483D
  8
DIM
 62
    52
 10
488.77165390743772
 20
1639.962075860597
 30
0.0
 11
458.77165390743812
 21
1639.962075860597
 31
0.0
  0
SOLID
  5
483F
  8
DIM
 62
    52
 10
488.77165390743772
 20
1644.9620758605961
 30
0.0
 11
488.77165390743772
 21
1634.962075860597
 31
0.0
 12
518.77165390743778
 22
1639.962075860597
 32
0.0
 13
518.77165390743778
 23
1639.962075860597
 33
0.0
  0
LINE
  5
4842
  8
DIM
 62
    52
 10
728.77165390743744
 20
1659.475177056665
 30
0.0
 11
728.77165390743744
 21
1619.962075860597
 31
0.0
  0
LINE
  5
4854
  8
DIM
 62
    52
 10
498.77165390743761
 20
1170.3181089566069
 30
0.0
 11
416.98523481151148
 21
1170.3181089566069
 31
0.0
  0
LINE
  5
4855
  8
DIM
 62
    52
 10
458.77165390743482
 20
984.81810895660794
 30
0.0
 11
416.98523481151148
 21
984.81810895660794
 31
0.0
  0
LINE
  5
4856
  8
DIM
 62
    52
 10
436.9852348115117
 20
1200.3181089566069
 30
0.0
 11
436.9852348115117
 21
1230.318108956606
 31
0.0
  0
LINE
  5
4857
  8
DIM
 62
    52
 10
436.9852348115117
 20
954.81810895660749
 30
0.0
 11
436.9852348115117
 21
924.81810895660738
 31
0.0
  0
SOLID
  5
4858
  8
DIM
 62
    52
 10
431.98523481151182
 20
1200.3181089566069
 30
0.0
 11
441.98523481151148
 21
1200.3181089566069
 31
0.0
 12
436.9852348115117
 22
1170.3181089566069
 32
0.0
 13
436.9852348115117
 23
1170.3181089566069
 33
0.0
  0
SOLID
  5
4859
  8
DIM
 62
    52
 10
431.98523481151182
 20
954.81810895660749
 30
0.0
 11
441.98523481151148
 21
954.81810895660749
 31
0.0
 12
436.9852348115117
 22
984.81810895660794
 32
0.0
 13
436.9852348115117
 23
984.81810895660794
 33
0.0
  0
INSERT
  5
485A
  8
DIM
  6
CONTINUOUS
  2
*U5
 10
-620.7938307158679
 20
-40.951407700275468
 30
0.0
  0
LINE
  5
4B62
  8
DIM
  6
CONTINUOUS
 62
    52
 10
2225.771653907439
 20
1827.1477594309861
 30
0.0
 11
2311.246970065823
 21
1827.1477594309861
 31
0.0
  0
LINE
  5
4B63
  8
DIM
  6
CONTINUOUS
 62
    52
 10
2225.771653907439
 20
2312.1477594309881
 30
0.0
 11
2311.246970065823
 21
2312.1477594309881
 31
0.0
  0
LINE
  5
5215
  8
DIM
  6
CONTINUOUS
 10
2715.4843302132772
 20
828.73156029160646
 30
0.0
 11
2667.2035681378361
 21
828.73156029160646
 31
0.0
  0
LINE
  5
52A8
  8
OUTLINE
  6
CONTINUOUS
 10
545.77165390743835
 20
2336.6477594309872
 30
0.0
 11
545.77165390743835
 21
2362.6477594309881
 31
0.0
  0
LINE
  5
52A9
  8
OUTLINE
  6
CONTINUOUS
 10
547.77165390743778
 20
2362.6477594309881
 30
0.0
 11
2155.7716539074381
 21
2362.6477594309881
 31
0.0
  0
LINE
  5
52B8
  8
OUTLINE
  6
CONTINUOUS
 10
2155.7716539074381
 20
2362.6477594309881
 30
0.0
 11
2155.7716539074381
 21
2336.6477594309872
 31
0.0
  0
LINE
  5
52B9
  8
OUTLINE
  6
CONTINUOUS
 10
2155.7716539074381
 20
2336.6477594309872
 30
0.0
 11
2184.7716539074372
 21
2336.6477594309872
 31
0.0
  0
LINE
  5
52BA
  8
OUTLINE
  6
CONTINUOUS
 10
2184.7716539074372
 20
2336.6477594309872
 30
0.0
 11
2184.7716539074372
 21
1802.647759430987
 31
0.0
  0
LINE
  5
52BB
  8
OUTLINE
  6
CONTINUOUS
 10
2184.7716539074372
 20
1802.647759430987
 30
0.0
 11
2155.7716539074381
 21
1802.647759430987
 31
0.0
  0
LINE
  5
52BC
  8
OUTLINE
  6
CONTINUOUS
 10
2156.7716539074372
 20
1802.647759430987
 30
0.0
 11
2156.7716539074372
 21
2336.6477594309872
 31
0.0
  0
LINE
  5
52BD
  8
OUTLINE
  6
CONTINUOUS
 10
2155.7716539074381
 20
2336.6477594309872
 30
0.0
 11
545.77165390743835
 21
2336.6477594309872
 31
0.0
  0
LINE
  5
52BE
  8
OUTLINE
  6
CONTINUOUS
 10
581.52257826493201
 20
2362.6477594309881
 30
0.0
 11
581.52257826493201
 21
2382.6477594309881
 31
0.0
  0
LINE
  5
52BF
  8
OUTLINE
  6
CONTINUOUS
 10
581.52257826493201
 20
2382.6477594309881
 30
0.0
 11
1823.522578264937
 21
2382.6477594309772
 31
0.0
  0
LINE
  5
52C0
  8
OUTLINE
  6
CONTINUOUS
 10
1823.522578264937
 20
2382.6477594309772
 30
0.0
 11
1823.522578264937
 21
2362.6477594309881
 31
0.0
  0
LINE
  5
52C2
  8
OUTLINE
  6
CONTINUOUS
 10
545.77165390743835
 20
1802.647759430987
 30
0.0
 11
545.77165390743835
 21
1776.6477594309861
 31
0.0
  0
LINE
  5
52C3
  8
OUTLINE
  6
CONTINUOUS
 10
545.77165390743824
 20
1776.647759430987
 30
0.0
 11
2155.7716539074381
 21
1776.6477594309861
 31
0.0
  0
LINE
  5
52C4
  8
OUTLINE
  6
CONTINUOUS
 10
2155.7716539074381
 20
1776.6477594309861
 30
0.0
 11
2155.7716539074381
 21
1802.647759430987
 31
0.0
  0
LINE
  5
52C5
  8
OUTLINE
  6
CONTINUOUS
 10
544.77165390743835
 20
2336.6477594309872
 30
0.0
 11
516.77165390743801
 21
2336.6477594309872
 31
0.0
  0
LINE
  5
52C6
  8
OUTLINE
  6
CONTINUOUS
 10
516.77165390743801
 20
2336.6477594309872
 30
0.0
 11
516.77165390743801
 21
1802.647759430987
 31
0.0
  0
LINE
  5
52C7
  8
OUTLINE
  6
CONTINUOUS
 10
516.77165390743801
 20
1802.647759430987
 30
0.0
 11
543.77165390743755
 21
1802.647759430987
 31
0.0
  0
LINE
  5
52C9
  8
OUTLINE
  6
CONTINUOUS
 10
542.77165390738105
 20
1802.647759430987
 30
0.0
 11
2155.7716539074381
 21
1802.647759430987
 31
0.0
  0
LINE
  5
52CA
  8
OUTLINE
  6
CONTINUOUS
 10
728.77165390743585
 20
1776.6477594309861
 30
0.0
 11
728.77165390743744
 21
1684.6477594309861
 31
0.0
  0
LINE
  5
52CB
  8
OUTLINE
  6
CONTINUOUS
 10
728.77165390743744
 20
1684.6477594309861
 30
0.0
 11
1588.7716539074379
 21
1684.6477594309861
 31
0.0
  0
LINE
  5
52CD
  8
OUTLINE
  6
CONTINUOUS
 10
1795.6559333774351
 20
1684.6477594309861
 30
0.0
 11
2111.2543973662141
 21
1684.6477594309861
 31
0.0
  0
LINE
  5
52D0
  8
OUTLINE
  6
CONTINUOUS
 10
518.77165390743778
 20
1161.318108956606
 30
0.0
 11
518.77165390743778
 21
1170.3181089566069
 31
0.0
  0
LINE
  5
52D1
  8
OUTLINE
  6
CONTINUOUS
 10
518.77165390743778
 20
1170.3181089566069
 30
0.0
 11
544.77165390743744
 21
1170.3181089566069
 31
0.0
  0
LINE
  5
52D2
  8
OUTLINE
  6
CONTINUOUS
 10
544.77165390743744
 20
1170.3181089566069
 30
0.0
 11
2156.7716539074349
 21
1170.3181089566069
 31
0.0
  0
LINE
  5
52D3
  8
OUTLINE
  6
CONTINUOUS
 10
2156.7716539074349
 20
1170.3181089566069
 30
0.0
 11
2182.7716539074349
 21
1170.3181089566069
 31
0.0
  0
LINE
  5
52D4
  8
OUTLINE
  6
CONTINUOUS
 10
2182.7716539074349
 20
1170.3181089566069
 30
0.0
 11
2182.7716539074349
 21
1161.318108956606
 31
0.0
  0
LINE
  5
52D5
  8
OUTLINE
  6
CONTINUOUS
 10
2156.7716539074349
 20
1170.3181089566069
 30
0.0
 11
2156.7716539074349
 21
681.31810895660681
 31
0.0
  0
LINE
  5
52D6
  8
OUTLINE
  6
CONTINUOUS
 10
2156.7716539074349
 20
681.31810895660681
 30
0.0
 11
2181.7716539074431
 21
681.31810895660681
 31
0.0
  0
LINE
  5
52D7
  8
OUTLINE
  6
CONTINUOUS
 10
2181.7716539074431
 20
681.31810895660681
 30
0.0
 11
2181.7716539074431
 21
673.31810895660681
 31
0.0
  0
LINE
  5
52D8
  8
OUTLINE
  6
CONTINUOUS
 10
2156.7716539074349
 20
681.31810895660681
 30
0.0
 11
2157.091901841321
 21
650.31810895660715
 31
0.0
  0
LINE
  5
52DA
  8
OUTLINE
  6
CONTINUOUS
 10
545.78198393478715
 20
649.31816230912591
 30
0.0
 11
545.78198393478715
 21
650.31810895660499
 31
0.0
  0
LINE
  5
52DB
  8
OUTLINE
  6
CONTINUOUS
 10
545.78198393478715
 20
643.31810895660681
 30
0.0
 11
525.77165390743562
 21
643.31810895660681
 31
0.0
  0
LINE
  5
52DC
  8
OUTLINE
  6
CONTINUOUS
 10
525.77165390743562
 20
643.31810895660681
 30
0.0
 11
525.77165390743562
 21
662.31810895660681
 31
0.0
  0
LINE
  5
52DD
  8
OUTLINE
  6
CONTINUOUS
 10
525.77165390743562
 20
662.31810895660681
 30
0.0
 11
545.7716539074371
 21
662.31810895660442
 31
0.0
  0
LINE
  5
52DE
  8
OUTLINE
  6
CONTINUOUS
 10
545.7716539074371
 20
669.31810895660226
 30
0.0
 11
545.77165390743744
 21
681.31810895660681
 31
0.0
  0
LINE
  5
52DF
  8
OUTLINE
  6
CONTINUOUS
 10
545.77165390743744
 20
681.31810895660681
 30
0.0
 11
519.77165390743733
 21
681.31810895660681
 31
0.0
  0
LINE
  5
52E0
  8
OUTLINE
  6
CONTINUOUS
 10
519.77165390743733
 20
681.31810895660681
 30
0.0
 11
519.77165390743733
 21
673.31810895660681
 31
0.0
  0
LINE
  5
52E1
  8
OUTLINE
  6
CONTINUOUS
 10
545.77165390743744
 20
673.31810895660681
 30
0.0
 11
2155.7716539074431
 21
673.31810895660851
 31
0.0
  0
LINE
  5
52E2
  8
OUTLINE
  6
CONTINUOUS
 10
2156.7716539074349
 20
681.31810895660681
 30
0.0
 11
545.77165390743744
 21
681.31810895677722
 31
0.0
  0
LINE
  5
52E3
  8
OUTLINE
  6
CONTINUOUS
 10
545.7716539074371
 20
669.31810895660226
 30
0.0
 11
545.77165390743426
 21
642.31810895660715
 31
0.0
  0
LINE
  5
52E9
  8
OUTLINE
  6
CONTINUOUS
 10
2827.4843302132772
 20
1161.318108956606
 30
0.0
 11
2827.4843302132772
 21
1170.3181089566069
 31
0.0
  0
LINE
  5
52EA
  8
OUTLINE
  6
CONTINUOUS
 10
2827.4843302132772
 20
1170.3181089566069
 30
0.0
 11
2853.4843302132772
 21
1170.3181089566069
 31
0.0
  0
LINE
  5
52EB
  8
OUTLINE
  6
CONTINUOUS
 10
2853.4843302132772
 20
1170.3181089566069
 30
0.0
 11
2853.4843302132772
 21
681.3181089566076
 31
0.0
  0
LINE
  5
52EC
  8
OUTLINE
  6
CONTINUOUS
 10
2853.4843302132772
 20
681.3181089566076
 30
0.0
 11
2827.5343302132769
 21
681.3181089566076
 31
0.0
  0
LINE
  5
52ED
  8
OUTLINE
  6
CONTINUOUS
 10
2827.5343302132769
 20
681.3181089566076
 30
0.0
 11
2827.5343302132769
 21
673.31810895660794
 31
0.0
  0
LINE
  5
52EE
  8
OUTLINE
  6
CONTINUOUS
 10
2853.4843302132772
 20
681.3181089566076
 30
0.0
 11
2835.9130370499211
 21
681.3181089566076
 31
0.0
  0
LINE
  5
52EF
  8
OUTLINE
  6
CONTINUOUS
 10
2853.4843302132772
 20
681.3181089566076
 30
0.0
 11
2853.4843302132772
 21
642.31810895660715
 31
0.0
  0
LINE
  5
52F0
  8
OUTLINE
  6
CONTINUOUS
 10
2853.4843302132772
 20
650.31810895660749
 30
0.0
 11
3387.5343302132769
 21
650.31810895660715
 31
0.0
  0
LINE
  5
52F1
  8
OUTLINE
  6
CONTINUOUS
 10
3387.5343302132769
 20
642.31810895660715
 30
0.0
 11
3387.5343302132769
 21
681.3181089566076
 31
0.0
  0
LINE
  5
52F2
  8
OUTLINE
  6
CONTINUOUS
 10
3387.5343302132769
 20
681.3181089566076
 30
0.0
 11
3413.534330213276
 21
681.3181089566076
 31
0.0
  0
LINE
  5
52F3
  8
OUTLINE
  6
CONTINUOUS
 10
3413.534330213276
 20
681.3181089566076
 30
0.0
 11
3413.534330213276
 21
673.31810895660794
 31
0.0
  0
LINE
  5
52F5
  8
OUTLINE
  6
CONTINUOUS
 10
3413.534330213276
 20
681.3181089566076
 30
0.0
 11
3387.4843302132758
 21
681.3181089566076
 31
0.0
  0
LINE
  5
52F6
  8
OUTLINE
  6
CONTINUOUS
 10
3387.4843302132758
 20
681.3181089566076
 30
0.0
 11
3387.484330213274
 21
1170.3181089566069
 31
0.0
  0
LINE
  5
52F7
  8
OUTLINE
  6
CONTINUOUS
 10
3387.484330213274
 20
1170.3181089566069
 30
0.0
 11
3413.4843302132781
 21
1170.3181089566069
 31
0.0
  0
LINE
  5
52F8
  8
OUTLINE
  6
CONTINUOUS
 10
3413.4843302132781
 20
1170.3181089566069
 30
0.0
 11
3413.484330213274
 21
1161.318108956606
 31
0.0
  0
LINE
  5
52F9
  8
OUTLINE
  6
CONTINUOUS
 10
2854.4843302132758
 20
1170.3181089566069
 30
0.0
 11
3387.4843302132758
 21
1170.3181089566069
 31
0.0
  0
LINE
  5
52FA
  8
OUTLINE
  6
CONTINUOUS
 10
3387.4843302132758
 20
1062.418108956608
 30
0.0
 11
3437.4843302132781
 21
1062.418108956608
 31
0.0
  0
LINE
  5
52FB
  8
OUTLINE
  6
CONTINUOUS
 10
3437.4843302132781
 20
1062.418108956608
 30
0.0
 11
3437.4843302132781
 21
697.61810895660722
 31
0.0
  0
LINE
  5
52FC
  8
OUTLINE
  6
CONTINUOUS
 10
3437.4843302132781
 20
697.61810895660722
 30
0.0
 11
3387.4843302132758
 21
697.61810895660722
 31
0.0
  0
LINE
  5
52FF
  8
OUTLINE
  6
CONTINUOUS
 10
2735.4843302132772
 20
1039.202023371452
 30
0.0
 11
2853.4843302132772
 21
1039.202023371452
 31
0.0
  0
LINE
  5
5314
  8
OUTLINE
  6
CONTINUOUS
 10
544.77165390743744
 20
1170.3181089566069
 30
0.0
 11
544.77165390738276
 21
681.31810895677722
 31
0.0
  0
CIRCLE
  5
5331
  8
OUTLINE
 10
2878.9843302132781
 20
966.55785609658722
 30
0.0
 40
3.5
  0
LINE
  5
5332
  8
OUTLINE
  6
CONTINUOUS
 10
2853.9843302132781
 20
976.81810895660794
 30
0.0
 11
2903.9843302132758
 21
976.81810895660794
 31
0.0
  0
LINE
  5
5333
  8
OUTLINE
 10
2903.9843302132758
 20
976.81810895660794
 30
0.0
 11
2853.9843302132781
 21
976.81810895660794
 31
0.0
  0
LINE
  5
5334
  8
OUTLINE
 10
2901.4843302132772
 20
976.81810895660794
 30
0.0
 11
2901.4843302132772
 21
1046.8181089566069
 31
0.0
  0
LINE
  5
5335
  8
OUTLINE
 10
2903.9843302132758
 20
976.81810895660794
 30
0.0
 11
2903.9843302132758
 21
1046.8181089566069
 31
0.0
  0
LINE
  5
5336
  8
OUTLINE
 10
2853.9843302132781
 20
976.81810895660794
 30
0.0
 11
2853.9843302132781
 21
1046.8181089566069
 31
0.0
  0
LINE
  5
5337
  8
OUTLINE
 10
2856.4843302132772
 20
976.81810895660794
 30
0.0
 11
2856.4843302132772
 21
1046.8181089566069
 31
0.0
  0
LINE
  5
5338
  8
OUTLINE
  6
CONTINUOUS
 10
2853.9843302132781
 20
1046.8181089566069
 30
0.0
 11
2903.9843302132758
 21
1046.8181089566069
 31
0.0
  0
LINE
  5
5339
  8
OUTLINE
 10
2878.9843302132781
 20
976.81810895660794
 30
0.0
 11
2878.9843302132781
 21
969.81810895660783
 31
0.0
  0
LINE
  5
533A
  8
OUTLINE
 10
2860.4843302132772
 20
973.81810895660863
 30
0.0
 11
2860.4843302132772
 21
969.81810895660783
 31
0.0
  0
LINE
  5
533B
  8
OUTLINE
 10
2897.4843302132772
 20
973.81810895660863
 30
0.0
 11
2897.4843302132772
 21
969.81810895660783
 31
0.0
  0
LINE
  5
533C
  8
OUTLINE
 10
2860.4843302132772
 20
969.81810895660783
 30
0.0
 11
2897.4843302132772
 21
969.81810895660783
 31
0.0
  0
CIRCLE
  5
533D
  8
OUTLINE
 10
3363.9843302132758
 20
966.55785609658722
 30
0.0
 40
3.5
  0
LINE
  5
533E
  8
OUTLINE
  6
CONTINUOUS
 10
3388.9843302132758
 20
976.81810895660794
 30
0.0
 11
3338.9843302132758
 21
976.81810895660794
 31
0.0
  0
LINE
  5
533F
  8
OUTLINE
 10
3338.9843302132758
 20
976.81810895660794
 30
0.0
 11
3388.9843302132758
 21
976.81810895660794
 31
0.0
  0
LINE
  5
5340
  8
OUTLINE
 10
3341.4843302132772
 20
976.81810895660794
 30
0.0
 11
3341.4843302132772
 21
1046.8181089566069
 31
0.0
  0
LINE
  5
5341
  8
OUTLINE
 10
3338.9843302132758
 20
976.81810895660794
 30
0.0
 11
3338.9843302132758
 21
1046.8181089566069
 31
0.0
  0
LINE
  5
5342
  8
OUTLINE
 10
3388.9843302132758
 20
976.81810895660794
 30
0.0
 11
3388.9843302132758
 21
1046.8181089566069
 31
0.0
  0
LINE
  5
5343
  8
OUTLINE
 10
3386.4843302132758
 20
976.81810895660794
 30
0.0
 11
3386.4843302132758
 21
1046.8181089566069
 31
0.0
  0
LINE
  5
5344
  8
OUTLINE
  6
CONTINUOUS
 10
3388.9843302132758
 20
1046.8181089566069
 30
0.0
 11
3338.9843302132758
 21
1046.8181089566069
 31
0.0
  0
LINE
  5
5345
  8
OUTLINE
 10
3363.9843302132758
 20
976.81810895660794
 30
0.0
 11
3363.9843302132758
 21
969.81810895660783
 31
0.0
  0
LINE
  5
5346
  8
OUTLINE
 10
3382.4843302132758
 20
973.81810895660863
 30
0.0
 11
3382.4843302132758
 21
969.81810895660783
 31
0.0
  0
LINE
  5
5347
  8
OUTLINE
 10
3345.4843302132772
 20
973.81810895660863
 30
0.0
 11
3345.4843302132772
 21
969.81810895660783
 31
0.0
  0
LINE
  5
5348
  8
OUTLINE
 10
3382.4843302132758
 20
969.81810895660783
 30
0.0
 11
3345.4843302132772
 21
969.81810895660783
 31
0.0
  0
CIRCLE
  5
7FAC
  8
OUTLINE
 10
3009.4843302132758
 20
1102.318108956606
 30
0.0
 40
21.5
  0
CIRCLE
  5
7FAD
  8
OUTLINE
 10
2934.4843302132781
 20
1102.318108956606
 30
0.0
 40
21.5
  0
LINE
  5
7FB7
  8
DIM
  6
CONTINUOUS
 10
718.77165390743824
 20
1684.6477594309861
 30
0.0
 11
334.59889337550652
 21
1684.6477594309861
 31
0.0
  0
LINE
  5
7FB8
  8
DIM
  6
CONTINUOUS
 10
571.52257826493167
 20
2382.6477594309881
 30
0.0
 11
334.5988933755068
 21
2382.647759430989
 31
0.0
  0
LINE
  5
7FB9
  8
DIM
  6
CONTINUOUS
 10
334.77889337550693
 20
1714.6477594309861
 30
0.0
 11
334.77889337550693
 21
1933.6477594309861
 31
0.0
  0
LINE
  5
7FBA
  8
DIM
  6
CONTINUOUS
 10
334.77889337550693
 20
2352.6477594309872
 30
0.0
 11
334.77889337550693
 21
2133.6477594309881
 31
0.0
  0
SOLID
  5
7FBB
  8
DIM
  6
CONTINUOUS
 10
329.77889337550681
 20
1714.6477594309861
 30
0.0
 11
339.77889337550693
 21
1714.6477594309861
 31
0.0
 12
334.77889337550693
 22
1684.6477594309861
 32
0.0
 13
334.77889337550693
 23
1684.6477594309861
 33
0.0
  0
SOLID
  5
7FBC
  8
DIM
  6
CONTINUOUS
 10
329.77889337550681
 20
2352.6477594309872
 30
0.0
 11
339.77889337550693
 21
2352.6477594309872
 31
0.0
 12
334.77889337550693
 22
2382.647759430989
 32
0.0
 13
334.77889337550693
 23
2382.647759430989
 33
0.0
  0
INSERT
  5
7FBD
  8
DIM
  6
CONTINUOUS
  2
*U7
 10
-316.94279592182818
 20
135.20950314296621
 30
0.0
  0
LINE
  5
7FC8
  8
DIM
 10
3130.5847074818221
 20
897.72818422685145
 30
0.0
 11
3150.4288862746248
 21
897.72818422685145
 31
0.0
  0
LINE
  5
7FC9
  8
DIM
 10
3130.5847074818221
 20
881.39163304366923
 30
0.0
 11
3130.5847074818221
 21
897.72818422685145
 31
0.0
  0
LINE
  5
7FCA
  8
DIM
 10
3093.7279157563971
 20
905.32658012600405
 30
0.0
 11
3130.5847074818221
 21
881.39163304366923
 31
0.0
  0
LINE
  5
7FCB
  8
DIM
 10
3150.4288862746248
 20
912.92497602515868
 30
0.0
 11
3150.4288862746248
 21
897.72818422685145
 31
0.0
  0
LINE
  5
7FCC
  8
DIM
 10
3130.5847074818221
 20
912.92497602515868
 30
0.0
 11
3150.4288862746248
 21
912.92497602515868
 31
0.0
  0
LINE
  5
7FCD
  8
DIM
 10
3130.5847074818221
 20
929.26152720833829
 30
0.0
 11
3130.5847074818221
 21
912.92497602515868
 31
0.0
  0
LINE
  5
7FCE
  8
DIM
 10
3093.7279157563971
 20
905.32658012600405
 30
0.0
 11
3130.5847074818221
 21
929.26152720833829
 31
0.0
  0
TEXT
  5
7FE1
  8
DIM
  6
CONTINUOUS
 10
3535.7115078185529
 20
1083.6730511933861
 30
0.0
 40
30.0
  1
107
 50
90.0
  7
TITLE3
  0
LINE
  5
7FE4
  8
DIM
  6
CONTINUOUS
 10
3019.4843302132772
 20
1102.318108956606
 30
0.0
 11
3110.0833382401061
 21
1102.318108956606
 31
0.0
  0
LINE
  5
7FE5
  8
DIM
  6
CONTINUOUS
 10
3019.4843302132772
 20
1170.3181089566069
 30
0.0
 11
3110.0833382401061
 21
1170.3181089566069
 31
0.0
  0
LINE
  5
7FE6
  8
DIM
  6
CONTINUOUS
 10
3109.9033382401021
 20
1072.318108956606
 30
0.0
 11
3109.9033382401021
 21
1042.318108956606
 31
0.0
  0
LINE
  5
7FE7
  8
DIM
  6
CONTINUOUS
 10
3109.9033382401021
 20
1200.3181089566069
 30
0.0
 11
3109.9033382401021
 21
1230.318108956606
 31
0.0
  0
SOLID
  5
7FE8
  8
DIM
  6
CONTINUOUS
 10
3104.903338240103
 20
1072.318108956606
 30
0.0
 11
3114.903338240103
 21
1072.318108956606
 31
0.0
 12
3109.9033382401021
 22
1102.318108956606
 32
0.0
 13
3109.9033382401021
 23
1102.318108956606
 33
0.0
  0
SOLID
  5
7FE9
  8
DIM
  6
CONTINUOUS
 10
3104.903338240103
 20
1200.3181089566069
 30
0.0
 11
3114.903338240103
 21
1200.3181089566069
 31
0.0
 12
3109.9033382401021
 22
1170.3181089566069
 32
0.0
 13
3109.9033382401021
 23
1170.3181089566069
 33
0.0
  0
TEXT
  5
7FEC
  8
DIM
  6
CONTINUOUS
 62
    50
 10
967.43960049467955
 20
1313.13798664304
 30
0.0
 40
30.0
  1
1706 OPTIONAL SPRING MTG. CTRS
  7
TITLE3
  0
LINE
  5
7FEE
  8
DIM
 10
1492.857663593742
 20
1881.482949791319
 30
0.0
 11
1492.857663593742
 21
1901.327128584122
 31
0.0
  0
LINE
  5
7FEF
  8
DIM
 10
1509.1942147769239
 20
1881.482949791319
 30
0.0
 11
1492.857663593742
 21
1881.482949791319
 31
0.0
  0
LINE
  5
7FF0
  8
DIM
 10
1485.2592676945901
 20
1844.626158065892
 30
0.0
 11
1509.1942147769239
 21
1881.482949791319
 31
0.0
  0
LINE
  5
7FF1
  8
DIM
 10
1477.660871795435
 20
1901.327128584122
 30
0.0
 11
1492.857663593742
 21
1901.327128584122
 31
0.0
  0
LINE
  5
7FF2
  8
DIM
 10
1477.660871795435
 20
1881.482949791319
 30
0.0
 11
1477.660871795435
 21
1901.327128584122
 31
0.0
  0
LINE
  5
7FF3
  8
DIM
 10
1461.324320612255
 20
1881.482949791319
 30
0.0
 11
1477.660871795435
 21
1881.482949791319
 31
0.0
  0
LINE
  5
7FF4
  8
DIM
 10
1485.2592676945901
 20
1844.626158065892
 30
0.0
 11
1461.324320612255
 21
1881.482949791319
 31
0.0
  0
LINE
  5
7FF5
  8
DIM
 10
927.28510600407355
 20
1881.482949791319
 30
0.0
 11
927.28510600407355
 21
1901.327128584122
 31
0.0
  0
LINE
  5
7FF6
  8
DIM
 10
943.6216571872543
 20
1881.482949791319
 30
0.0
 11
927.28510600407355
 21
1881.482949791319
 31
0.0
  0
LINE
  5
7FF7
  8
DIM
 10
919.68671010492028
 20
1844.626158065892
 30
0.0
 11
943.6216571872543
 21
1881.482949791319
 31
0.0
  0
LINE
  5
7FF8
  8
DIM
 10
912.08831420576576
 20
1901.327128584122
 30
0.0
 11
927.28510600407355
 21
1901.327128584122
 31
0.0
  0
LINE
  5
7FF9
  8
DIM
 10
912.08831420576576
 20
1881.482949791319
 30
0.0
 11
912.08831420576576
 21
1901.327128584122
 31
0.0
  0
LINE
  5
7FFA
  8
DIM
 10
895.75176302258558
 20
1881.482949791319
 30
0.0
 11
912.08831420576576
 21
1881.482949791319
 31
0.0
  0
LINE
  5
7FFB
  8
DIM
 10
919.68671010492028
 20
1844.626158065892
 30
0.0
 11
895.75176302258558
 21
1881.482949791319
 31
0.0
  0
INSERT
  5
8022
  8
TEXT
  2
NEW_BLOCK
 10
305.87059862929749
 20
80.456903576654113
 30
0.0
 41
0.8399999999996906
 42
0.8399999999996906
 43
0.8399999999996906
  0
TEXT
  5
8023
  8
TEXT
 10
2714.174329481581
 20
348.4363829409304
 30
0.0
 40
50.0
  1
temperzone HWP 191
  7
TITLE5
 72
     1
 11
3108.2219485291989
 21
348.4363829409304
 31
0.0
  0
TEXT
  5
8024
  8
TEXT
 10
3207.461112741003
 20
157.46336081180019
 30
0.0
 40
30.0
  1
HWP 191
 41
1.4603530271104459
  7
TITLE3
 72
     5
 11
3472.4108762310411
 21
157.46336081180019
 31
0.0
  0
TEXT
  5
8030
  8
TEXT
 10
2714.5390906198531
 20
204.82773366023031
 30
0.0
 40
25.0
  1
12.10.12
 41
1.1016393442622949
  7
TITLE3
 72
     5
 11
2874.5390906198531
 21
204.82773366023031
 31
0.0
  0
TEXT
  5
8031
  8
TEXT
 10
2764.8790347331278
 20
142.32634639303981
 30
0.0
 40
25.0
  1
1:10
  7
TITLE3
  0
LINE
  5
8032
  8
OUTLINE
  6
CONTINUOUS
 10
2853.4843302132772
 20
681.3181089566076
 30
0.0
 11
3387.5343302132769
 21
681.3181089566076
 31
0.0
  0
LINE
  5
8033
  8
OUTLINE
  6
CONTINUOUS
 10
2853.4843302132772
 20
673.31810895660794
 30
0.0
 11
3387.5343302132769
 21
673.31810895660794
 31
0.0
  0
LINE
  5
8352
  8
DIM
  6
CONTINUOUS
 10
2167.7716539074399
 20
1776.6477594309861
 30
0.0
 11
2368.476793452211
 21
1776.6477594309861
 31
0.0
  0
LINE
  5
8353
  8
DIM
  6
CONTINUOUS
 10
2167.7716539074399
 20
2362.6477594309881
 30
0.0
 11
2368.476793452211
 21
2362.6477594309881
 31
0.0
  0
LINE
  5
863E
  8
OUTLINE
  6
CONTINUOUS
 10
2735.4843302132772
 20
721.20202337145236
 30
0.0
 11
2853.4843302132772
 21
721.20202337145236
 31
0.0
  0
LINE
  5
8642
  8
OUTLINE
  6
CONTINUOUS
 10
1795.6559333774351
 20
722.70165218055422
 30
0.0
 11
2111.2543973662132
 21
722.70165218055422
 31
0.0
  0
LINE
  5
8643
  8
OUTLINE
  6
CONTINUOUS
 10
2111.2543973662132
 20
722.70165218055422
 30
0.0
 11
2111.2543973662132
 21
1040.701652180554
 31
0.0
  0
LINE
  5
8644
  8
OUTLINE
  6
CONTINUOUS
 10
2111.2543973662132
 20
1040.701652180554
 30
0.0
 11
1795.6559333774351
 21
1040.701652180554
 31
0.0
  0
LINE
  5
8645
  8
OUTLINE
  6
CONTINUOUS
 10
1795.6559333774351
 20
1040.701652180554
 30
0.0
 11
1795.6559333774351
 21
722.70165218055422
 31
0.0
  0
LINE
  5
8648
  8
OUTLINE
  6
HIDDEN
 10
2853.4843302132772
 20
829.31810895660738
 30
0.0
 11
2735.4843302132772
 21
829.31810895660738
 31
0.0
  0
LINE
  5
8649
  8
OUTLINE
  6
CONTINUOUS
 10
2735.4843302132772
 20
1053.3181089566069
 30
0.0
 11
2735.4843302132772
 21
721.20202337145236
 31
0.0
  0
TEXT
  5
8651
  8
DIM
  6
CONTINUOUS
 10
2646.6505545446671
 20
901.73912033839213
 30
0.0
 40
30.0
  1
224
 50
90.0
  7
TITLE3
  0
LINE
  5
865C
  8
DIM
  6
CONTINUOUS
 10
2725.4843302132772
 20
1053.3181089566069
 30
0.0
 11
2666.2509838459118
 21
1053.3181089566069
 31
0.0
  0
LINE
  5
865D
  8
DIM
  6
CONTINUOUS
 10
2817.4843302132772
 20
1170.3181089566069
 30
0.0
 11
2666.2509838459118
 21
1170.3181089566069
 31
0.0
  0
LINE
  5
8663
  8
DIM
  6
CONTINUOUS
 10
2817.5343302132769
 20
681.3181089566076
 30
0.0
 11
2565.4201464716521
 21
681.3181089566076
 31
0.0
  0
LINE
  5
8664
  8
DIM
  6
CONTINUOUS
 10
2817.5343302132769
 20
1170.3181089566069
 30
0.0
 11
2565.4201464716521
 21
1170.3181089566069
 31
0.0
  0
LINE
  5
8665
  8
DIM
  6
CONTINUOUS
 10
2565.6001464716519
 20
711.31810895660772
 30
0.0
 11
2565.6001464716519
 21
871.24668038517871
 31
0.0
  0
LINE
  5
8666
  8
DIM
  6
CONTINUOUS
 10
2565.6001464716519
 20
1140.3181089566069
 30
0.0
 11
2565.6001464716519
 21
958.38953752803604
 31
0.0
  0
SOLID
  5
8667
  8
DIM
  6
CONTINUOUS
 10
2560.6001464716519
 20
711.31810895660772
 30
0.0
 11
2570.600146471651
 21
711.31810895660772
 31
0.0
 12
2565.6001464716519
 22
681.3181089566076
 32
0.0
 13
2565.6001464716519
 23
681.3181089566076
 33
0.0
  0
SOLID
  5
8668
  8
DIM
  6
CONTINUOUS
 10
2560.6001464716519
 20
1140.3181089566069
 30
0.0
 11
2570.6001464716519
 21
1140.3181089566069
 31
0.0
 12
2565.6001464716519
 22
1170.3181089566069
 32
0.0
 13
2565.6001464716519
 23
1170.3181089566069
 33
0.0
  0
LINE
  5
8670
  8
OUTLINE
  6
CONTINUOUS
 10
728.77165390743744
 20
829.69483462261144
 30
0.0
 11
1588.585791047434
 21
829.69483462261144
 31
0.0
  0
LINE
  5
8671
  8
OUTLINE
  6
CONTINUOUS
 10
1588.585791047434
 20
829.69483462261144
 30
0.0
 11
1588.585791047434
 21
1053.3181089566069
 31
0.0
  0
LINE
  5
8672
  8
OUTLINE
  6
CONTINUOUS
 10
1588.585791047434
 20
1053.3181089566069
 30
0.0
 11
728.77165390743744
 21
1053.3181089566069
 31
0.0
  0
LINE
  5
8673
  8
OUTLINE
  6
CONTINUOUS
 10
728.77165390743744
 20
1053.3181089566069
 30
0.0
 11
728.77165390743744
 21
829.69483462261144
 31
0.0
  0
LINE
  5
8676
  8
DIM
  6
CONTINUOUS
 10
2215.7716539074381
 20
1827.1477594309861
 30
0.0
 11
2268.7941502947051
 21
1827.1477594309861
 31
0.0
  0
LINE
  5
8677
  8
DIM
  6
CONTINUOUS
 10
2215.7716539074381
 20
2312.1477594309881
 30
0.0
 11
2268.7941502947051
 21
2312.1477594309881
 31
0.0
  0
LINE
  5
8678
  8
DIM
  6
CONTINUOUS
 10
2268.6141502947071
 20
1857.1477594309861
 30
0.0
 11
2268.6141502947071
 21
2026.0763308595581
 31
0.0
  0
LINE
  5
8679
  8
DIM
  6
CONTINUOUS
 10
2268.6141502947071
 20
2282.1477594309872
 30
0.0
 11
2268.6141502947071
 21
2113.2191880024138
 31
0.0
  0
SOLID
  5
867A
  8
DIM
  6
CONTINUOUS
 10
2263.6141502947048
 20
1857.1477594309861
 30
0.0
 11
2273.6141502947048
 21
1857.1477594309861
 31
0.0
 12
2268.6141502947071
 22
1827.1477594309861
 32
0.0
 13
2268.6141502947071
 23
1827.1477594309861
 33
0.0
  0
SOLID
  5
867B
  8
DIM
  6
CONTINUOUS
 10
2263.6141502947048
 20
2282.1477594309872
 30
0.0
 11
2273.6141502947048
 21
2282.1477594309872
 31
0.0
 12
2268.6141502947071
 22
2312.1477594309881
 32
0.0
 13
2268.6141502947071
 23
2312.1477594309881
 33
0.0
  0
INSERT
  5
867C
  8
DIM
  6
CONTINUOUS
  2
*U8
 10
-158.94279592182829
 20
135.20950314296621
 30
0.0
  0
LINE
  5
867D
  8
DIM
  6
CONTINUOUS
 10
2354.0788558961722
 20
1776.6477594309861
 30
0.0
 11
2351.2463278835862
 21
1776.6477594309861
 31
0.0
  0
LINE
  5
867E
  8
DIM
  6
CONTINUOUS
 10
2354.0788558961722
 20
2362.6477594309881
 30
0.0
 11
2351.2463278835862
 21
2362.6477594309881
 31
0.0
  0
LINE
  5
867F
  8
DIM
  6
CONTINUOUS
 10
2351.0663278835859
 20
1806.6477594309861
 30
0.0
 11
2351.0663278835859
 21
2026.7906165738441
 31
0.0
  0
LINE
  5
8680
  8
DIM
  6
CONTINUOUS
 10
2351.0663278835859
 20
2332.6477594309872
 30
0.0
 11
2351.0663278835859
 21
2112.504902288129
 31
0.0
  0
SOLID
  5
8681
  8
DIM
  6
CONTINUOUS
 10
2346.0663278835868
 20
1806.6477594309861
 30
0.0
 11
2356.066327883585
 21
1806.6477594309861
 31
0.0
 12
2351.0663278835859
 22
1776.6477594309861
 32
0.0
 13
2351.0663278835859
 23
1776.6477594309861
 33
0.0
  0
SOLID
  5
8682
  8
DIM
  6
CONTINUOUS
 10
2346.0663278835868
 20
2332.6477594309872
 30
0.0
 11
2356.066327883585
 21
2332.6477594309872
 31
0.0
 12
2351.0663278835859
 22
2362.6477594309881
 32
0.0
 13
2351.0663278835859
 23
2362.6477594309881
 33
0.0
  0
INSERT
  5
8683
  8
DIM
  6
CONTINUOUS
  2
*U9
 10
-158.94279592182829
 20
135.20950314296621
 30
0.0
  0
LINE
  5
86A5
  8
OUTLINE
  6
CONTINUOUS
 10
545.77165390743426
 20
642.31810895660715
 30
0.0
 11
2157.091901841321
 21
650.31810895660715
 31
0.0
  0
LINE
  5
86A6
  8
DIM
  6
CONTINUOUS
 10
488.77165390743772
 20
1170.3181089566069
 30
0.0
 11
362.58197581000047
 21
1170.3181089566069
 31
0.0
  0
LINE
  5
86A7
  8
DIM
  6
CONTINUOUS
 10
515.77165390743562
 20
643.31810895660681
 30
0.0
 11
362.58197581000047
 21
643.31810895660692
 31
0.0
  0
LINE
  5
86A8
  8
DIM
  6
CONTINUOUS
 10
362.76197581000059
 20
1140.3181089566069
 30
0.0
 11
362.76197581000059
 21
938.67525181375049
 31
0.0
  0
LINE
  5
86A9
  8
DIM
  6
CONTINUOUS
 10
362.76197581000059
 20
673.31810895660681
 30
0.0
 11
362.76197581000059
 21
852.96096609946369
 31
0.0
  0
SOLID
  5
86AA
  8
DIM
  6
CONTINUOUS
 10
357.76197581000082
 20
1140.3181089566069
 30
0.0
 11
367.76197581000082
 21
1140.3181089566069
 31
0.0
 12
362.76197581000059
 22
1170.3181089566069
 32
0.0
 13
362.76197581000059
 23
1170.3181089566069
 33
0.0
  0
SOLID
  5
86AB
  8
DIM
  6
CONTINUOUS
 10
357.76197581000071
 20
673.31810895660681
 30
0.0
 11
367.76197581000082
 21
673.31810895660681
 31
0.0
 12
362.76197581000059
 22
643.31810895660692
 32
0.0
 13
362.76197581000059
 23
643.31810895660692
 33
0.0
  0
LINE
  5
86AD
  8
DIM
  6
CONTINUOUS
 10
2192.7716539074349
 20
1170.3181089566069
 30
0.0
 11
2269.8027299489631
 21
1170.3181089566069
 31
0.0
  0
LINE
  5
86AE
  8
DIM
  6
CONTINUOUS
 10
2167.091901841321
 20
650.31810895660715
 30
0.0
 11
2269.8027299489622
 21
650.31810895660715
 31
0.0
  0
LINE
  5
86AF
  8
DIM
  6
CONTINUOUS
 10
2269.6227299489628
 20
1140.3181089566069
 30
0.0
 11
2269.622729948961
 21
942.88953752803525
 31
0.0
  0
LINE
  5
86B0
  8
DIM
  6
CONTINUOUS
 10
2269.622729948961
 20
680.31810895660726
 30
0.0
 11
2269.622729948961
 21
855.74668038517905
 31
0.0
  0
SOLID
  5
86B1
  8
DIM
  6
CONTINUOUS
 10
2264.6227299489628
 20
1140.3181089566069
 30
0.0
 11
2274.6227299489642
 21
1140.3181089566069
 31
0.0
 12
2269.6227299489628
 22
1170.3181089566069
 32
0.0
 13
2269.6227299489628
 23
1170.3181089566069
 33
0.0
  0
SOLID
  5
86B2
  8
DIM
  6
CONTINUOUS
 10
2264.6227299489619
 20
680.31810895660726
 30
0.0
 11
2274.6227299489619
 21
680.31810895660726
 31
0.0
 12
2269.622729948961
 22
650.31810895660715
 32
0.0
 13
2269.622729948961
 23
650.31810895660715
 33
0.0
  0
LINE
  5
86B4
  8
OUTLINE
  6
CONTINUOUS
 10
2853.4843302132772
 20
642.31810895660715
 30
0.0
 11
3387.5343302132769
 21
642.31810895660715
 31
0.0
  0
LINE
  5
88D0
  8
OUTLINE
  6
CONTINUOUS
 10
542.77165390744346
 20
2337.1477594309881
 30
0.0
 11
542.77165390738105
 21
1802.647759430987
 31
0.0
  0
LINE
  5
88F2
  8
DIM
  6
CONTINUOUS
 10
542.77165390744346
 20
2347.1477594309881
 30
0.0
 11
542.77165390744346
 21
2440.8513600956012
 31
0.0
  0
LINE
  5
88F3
  8
DIM
  6
CONTINUOUS
 10
581.52257826493201
 20
2392.6477594309881
 30
0.0
 11
581.52257826493201
 21
2440.8513600956012
 31
0.0
  0
LINE
  5
88F4
  8
DIM
  6
CONTINUOUS
 10
512.77165390744335
 20
2430.285443567177
 30
0.0
 11
482.77165390744312
 21
2430.285443567177
 31
0.0
  0
SOLID
  5
88F6
  8
DIM
  6
CONTINUOUS
 10
512.77165390744335
 20
2435.285443567177
 30
0.0
 11
512.77165390744335
 21
2425.2854435671779
 31
0.0
 12
542.77165390744346
 22
2430.285443567177
 32
0.0
 13
542.77165390744346
 23
2430.285443567177
 33
0.0
  0
INSERT
  5
88F8
  8
DIM
  6
CONTINUOUS
  2
*U10
 10
-316.94279592182818
 20
49.330330342771937
 30
0.0
  0
LINE
  5
88F9
  8
DIM
  6
CONTINUOUS
 10
581.52257826493201
 20
2392.6477594309881
 30
0.0
 11
581.52257826493201
 21
2440.8513600956012
 31
0.0
  0
LINE
  5
88FA
  8
DIM
  6
CONTINUOUS
 10
1823.522578264937
 20
2392.6477594309758
 30
0.0
 11
1823.522578264937
 21
2440.8513600956012
 31
0.0
  0
LINE
  5
8915
  8
DIM
  6
CONTINUOUS
 10
1823.522578264937
 20
2392.6477594309758
 30
0.0
 11
1823.522578264937
 21
2440.8513600956012
 31
0.0
  0
POINT
  5
891D
  8
DIM
  6
CONTINUOUS
 10
2173.271653907439
 20
1170.3181089566069
 30
0.0
  0
POINT
  5
891E
  8
DIM
  6
CONTINUOUS
 10
532.27165390743733
 20
1170.3181089566069
 30
0.0
  0
LINE
  5
8BF4
  8
OVERLAY-A3
 10
134.09117925244391
 20
81.219636710357932
 30
0.0
 11
3690.894915655464
 21
81.219636710357932
 31
0.0
  0
LINE
  5
8BF5
  8
OVERLAY-A3
 10
3690.894915655464
 20
81.219636710357932
 30
0.0
 11
3690.894915655464
 21
2538.1705418093279
 31
0.0
  0
LINE
  5
8BF6
  8
OVERLAY-A3
 10
3690.894915655464
 20
2538.1705418093279
 30
0.0
 11
134.09117925244391
 21
2538.170541809327
 31
0.0
  0
LINE
  5
8BF7
  8
OVERLAY-A3
 10
134.09117925244391
 20
2538.170541809327
 30
0.0
 11
134.09117925244391
 21
81.219636710357932
 31
0.0
  0
TEXT
  5
8C01
  8
DIM
  6
CONTINUOUS
 62
    50
 10
1155.452092881158
 20
1219.3097692768461
 30
0.0
 40
30.0
  1
1641 MTG. CTRS
  7
TITLE3
  0
LINE
  5
8C0A
  8
DIM
  6
CONTINUOUS
 10
581.52257826493201
 20
2392.6477594309881
 30
0.0
 11
581.52257826493201
 21
2429.409791790702
 31
0.0
  0
LINE
  5
8C0B
  8
DIM
  6
CONTINUOUS
 10
1823.522578264937
 20
2392.6477594309772
 30
0.0
 11
1823.522578264937
 21
2429.409791790702
 31
0.0
  0
LINE
  5
8C0C
  8
DIM
  6
CONTINUOUS
 10
611.52257826493201
 20
2429.2297917907031
 30
0.0
 11
1147.5225782649341
 21
2429.2297917907031
 31
0.0
  0
LINE
  5
8C0D
  8
DIM
  6
CONTINUOUS
 10
1793.522578264937
 20
2429.2297917907031
 30
0.0
 11
1257.5225782649341
 21
2429.2297917907031
 31
0.0
  0
SOLID
  5
8C0E
  8
DIM
  6
CONTINUOUS
 10
611.52257826493201
 20
2434.2297917907022
 30
0.0
 11
611.52257826493201
 21
2424.2297917907031
 31
0.0
 12
581.52257826493201
 22
2429.2297917907031
 32
0.0
 13
581.52257826493201
 23
2429.2297917907031
 33
0.0
  0
SOLID
  5
8C0F
  8
DIM
  6
CONTINUOUS
 10
1793.522578264937
 20
2434.2297917907022
 30
0.0
 11
1793.522578264937
 21
2424.2297917907031
 31
0.0
 12
1823.522578264937
 22
2429.2297917907031
 32
0.0
 13
1823.522578264937
 23
2429.2297917907031
 33
0.0
  0
INSERT
  5
8C10
  8
DIM
  6
CONTINUOUS
  2
*U12
 10
0.0
 20
-36.548842457422332
 30
0.0
  0
TEXT
  5
8C1B
  8
DIM
  6
CONTINUOUS
 62
    50
 10
564.60883389465005
 20
1624.962075860597
 30
0.0
 40
30.0
  1
210
  7
TITLE3
  0
LINE
  5
8C1C
  8
OUTLINE
  6
CONTINUOUS
 10
1588.7716539074361
 20
1776.6477594310011
 30
0.0
 11
1588.7716539074379
 21
1684.6477594309861
 31
0.0
  0
LINE
  5
8C1D
  8
DIM
  6
CONTINUOUS
 10
728.77165390743744
 20
1674.647759430987
 30
0.0
 11
728.77165390743744
 21
1639.118730164096
 31
0.0
  0
LINE
  5
8C1E
  8
DIM
  6
CONTINUOUS
 10
1588.7716539074379
 20
1674.647759430987
 30
0.0
 11
1588.7716539074379
 21
1639.118730164096
 31
0.0
  0
LINE
  5
8C1F
  8
DIM
  6
CONTINUOUS
 10
758.77165390743778
 20
1639.298730164096
 30
0.0
 11
1115.200225336009
 21
1639.298730164096
 31
0.0
  0
LINE
  5
8C20
  8
DIM
  6
CONTINUOUS
 10
1558.771653907437
 20
1639.298730164096
 30
0.0
 11
1202.3430824788661
 21
1639.298730164096
 31
0.0
  0
SOLID
  5
8C21
  8
DIM
  6
CONTINUOUS
 10
758.77165390743778
 20
1644.298730164096
 30
0.0
 11
758.77165390743778
 21
1634.298730164096
 31
0.0
 12
728.77165390743744
 22
1639.298730164096
 32
0.0
 13
728.77165390743744
 23
1639.298730164096
 33
0.0
  0
SOLID
  5
8C22
  8
DIM
  6
CONTINUOUS
 10
1558.771653907437
 20
1644.298730164096
 30
0.0
 11
1558.771653907437
 21
1634.298730164096
 31
0.0
 12
1588.7716539074379
 22
1639.298730164096
 32
0.0
 13
1588.7716539074379
 23
1639.298730164096
 33
0.0
  0
INSERT
  5
8C23
  8
DIM
  6
CONTINUOUS
  2
*U13
 10
0.0
 20
-36.548842457422332
 30
0.0
  0
LINE
  5
8C24
  8
DIM
  6
CONTINUOUS
 10
2184.7716539074372
 20
1792.6477594309861
 30
0.0
 11
2184.7716539074372
 21
1533.195837928648
 31
0.0
  0
LINE
  5
8C25
  8
DIM
  6
CONTINUOUS
 10
516.77165390743801
 20
1792.6477594309861
 30
0.0
 11
516.77165390743801
 21
1533.195837928648
 31
0.0
  0
LINE
  5
8C26
  8
DIM
  6
CONTINUOUS
 10
2154.7716539074381
 20
1533.3758379286469
 30
0.0
 11
1405.7716539074379
 21
1533.3758379286469
 31
0.0
  0
LINE
  5
8C27
  8
DIM
  6
CONTINUOUS
 10
546.77165390743801
 20
1533.3758379286469
 30
0.0
 11
1295.7716539074379
 21
1533.3758379286469
 31
0.0
  0
SOLID
  5
8C28
  8
DIM
  6
CONTINUOUS
 10
2154.7716539074381
 20
1538.375837928646
 30
0.0
 11
2154.7716539074381
 21
1528.3758379286469
 31
0.0
 12
2184.7716539074372
 22
1533.3758379286469
 32
0.0
 13
2184.7716539074372
 23
1533.3758379286469
 33
0.0
  0
SOLID
  5
8C29
  8
DIM
  6
CONTINUOUS
 10
546.77165390743801
 20
1538.375837928646
 30
0.0
 11
546.77165390743801
 21
1528.3758379286469
 31
0.0
 12
516.77165390743801
 22
1533.3758379286469
 32
0.0
 13
516.77165390743801
 23
1533.3758379286469
 33
0.0
  0
INSERT
  5
8C2A
  8
DIM
  6
CONTINUOUS
  2
*U14
 10
0.0
 20
-36.548842457422332
 30
0.0
  0
INSERT
  5
8C43
  8
DIM
  6
CONTINUOUS
  2
A$C70722A8B
 10
3625.1135480174289
 20
432.67639784731432
 30
0.0
  0
LINE
  5
8DBF
  8
OUTLINE
  6
CONTINUOUS
 10
1808.4559333774359
 20
1684.6477594309879
 30
0.0
 11
1808.4559333774359
 21
1776.6477594309861
 31
0.0
  0
LINE
  5
8DC0
  8
OUTLINE
  6
CONTINUOUS
 10
2098.463793642436
 20
1684.6477594309879
 30
0.0
 11
2098.463793642436
 21
1776.6477594309861
 31
0.0
  0
TEXT
  5
8DCA
  8
DIM
  6
CONTINUOUS
 10
3124.903338240103
 20
1240.5854905575609
 30
0.0
 40
30.0
  1
68
 50
90.0
  0
LINE
  5
8DCB
  8
OUTLINE
  6
CONTINUOUS
 10
3286.4843302132772
 20
1053.3181089566069
 30
0.0
 11
2969.4843302132772
 21
1053.3181089566069
 31
0.0
  0
LINE
  5
8DCC
  8
OUTLINE
  6
CONTINUOUS
 10
2969.4843302132772
 20
712.3181089566076
 30
0.0
 11
3286.4843302132772
 21
712.3181089566076
 31
0.0
  0
LINE
  5
8DCD
  8
OUTLINE
  6
CONTINUOUS
 10
3286.4843302132772
 20
712.3181089566076
 30
0.0
 11
3286.4843302132772
 21
1053.3181089566069
 31
0.0
  0
LINE
  5
8DCF
  8
OUTLINE
  6
CONTINUOUS
 10
2969.4843302132772
 20
1053.3181089566069
 30
0.0
 11
2969.4843302132772
 21
712.3181089566076
 31
0.0
  0
TEXT
  5
8DD1
  8
DIM
  6
CONTINUOUS
 10
2580.6001464716519
 20
876.24668038517905
 30
0.0
 40
30.0
  1
490
 50
90.0
  7
TITLE3
  0
TEXT
  5
8DD4
  8
DIM
  6
CONTINUOUS
 10
2284.6227299489619
 20
860.74668038517939
 30
0.0
 40
30.0
  1
518
 50
90.0
  7
TITLE3
  0
TEXT
  5
8DDF
  8
DIM
  6
CONTINUOUS
 10
377.76197581000082
 20
857.96096609946471
 30
0.0
 40
30.0
  1
526
 50
90.0
  7
TITLE3
  0
LINE
  5
8DF2
  8
OUTLINE
  6
CONTINUOUS
 10
2735.4843302132772
 20
1053.3181089566069
 30
0.0
 11
2853.4843302132781
 21
1053.3181089566069
 31
0.0
  0
LINE
  5
8DF4
  8
DIM
  6
CONTINUOUS
 10
2725.4843302132772
 20
1053.3181089566069
 30
0.0
 11
2668.4375977085101
 21
1053.3181089566069
 31
0.0
  0
LINE
  5
8DF5
  8
DIM
  6
CONTINUOUS
 10
2725.4843302132772
 20
1170.3181089566069
 30
0.0
 11
2668.4375977085101
 21
1170.3181089566069
 31
0.0
  0
LINE
  5
8DF7
  8
DIM
  6
CONTINUOUS
 10
2668.6175977085099
 20
1200.3181089566069
 30
0.0
 11
2668.6175977085099
 21
1230.3181089566069
 31
0.0
  0
SOLID
  5
8DF9
  8
DIM
  6
CONTINUOUS
 10
2663.6175977085099
 20
1200.3181089566069
 30
0.0
 11
2673.6175977085099
 21
1200.3181089566069
 31
0.0
 12
2668.6175977085099
 22
1170.3181089566069
 32
0.0
 13
2668.6175977085099
 23
1170.3181089566069
 33
0.0
  0
INSERT
  5
8DFA
  8
DIM
  6
CONTINUOUS
  2
*U15
 10
0.0
 20
0.0
 30
0.0
  0
ENDSEC
  0
EOF
