  0
SECTION
  2
HEADER
  9
$ACADVER
  1
AC1018
  9
$ACADMAINTVER
 70
   104
  9
$DWGCODEPAGE
  3
ANSI_1252
  9
$LASTSAVEDBY
  1
mcleland
  9
$INSBASE
 10
0.0
 20
0.0
 30
0.0
  9
$EXTMIN
 10
33498.12778715701
 20
-25874.25004001751
 30
-0.0000000000000053
  9
$EXTMAX
 10
40683.43671149862
 20
-20369.85646681998
 30
0.0000000000000099
  9
$LIMMIN
 10
0.0
 20
0.0
  9
$LIMMAX
 10
3890.0
 20
2660.0
  9
$ORTHOMODE
 70
     1
  9
$REGENMODE
 70
     1
  9
$FILLMODE
 70
     1
  9
$QTEXTMODE
 70
     0
  9
$MIRRTEXT
 70
     0
  9
$LTSCALE
 40
100.0
  9
$ATTMODE
 70
     1
  9
$TEXTSIZE
 40
25.0
  9
$TRACEWID
 40
0.05
  9
$TEXTSTYLE
  7
TITLE3
  9
$CLAYER
  8
Border (ISO)
  9
$CELTYPE
  6
BYLAYER
  9
$CECOLOR
 62
   256
  9
$CELTSCALE
 40
1.0
  9
$DISPSILH
 70
     0
  9
$DIMSCALE
 40
1.0
  9
$DIMASZ
 40
30.0
  9
$DIMEXO
 40
20.0
  9
$DIMDLI
 40
0.38
  9
$DIMRND
 40
0.0
  9
$DIMDLE
 40
0.0
  9
$DIMEXE
 40
20.0
  9
$DIMTP
 40
0.0
  9
$DIMTM
 40
0.0
  9
$DIMTXT
 40
25.0
  9
$DIMCEN
 40
0.09
  9
$DIMTSZ
 40
0.0
  9
$DIMTOL
 70
     0
  9
$DIMLIM
 70
     0
  9
$DIMTIH
 70
     0
  9
$DIMTOH
 70
     0
  9
$DIMSE1
 70
     0
  9
$DIMSE2
 70
     0
  9
$DIMTAD
 70
     0
  9
$DIMZIN
 70
     0
  9
$DIMBLK
  1

  9
$DIMASO
 70
     0
  9
$DIMSHO
 70
     0
  9
$DIMPOST
  1

  9
$DIMAPOST
  1

  9
$DIMALT
 70
     0
  9
$DIMALTD
 70
     2
  9
$DIMALTF
 40
25.4
  9
$DIMLFAC
 40
1.0
  9
$DIMTOFL
 70
     0
  9
$DIMTVP
 40
0.0
  9
$DIMTIX
 70
     0
  9
$DIMSOXD
 70
     0
  9
$DIMSAH
 70
     0
  9
$DIMBLK1
  1

  9
$DIMBLK2
  1

  9
$DIMSTYLE
  2
STANDARD
  9
$DIMCLRD
 70
    52
  9
$DIMCLRE
 70
    52
  9
$DIMCLRT
 70
    50
  9
$DIMTFAC
 40
1.0
  9
$DIMGAP
 40
20.0
  9
$DIMJUST
 70
     0
  9
$DIMSD1
 70
     0
  9
$DIMSD2
 70
     0
  9
$DIMTOLJ
 70
     1
  9
$DIMTZIN
 70
     0
  9
$DIMALTZ
 70
     0
  9
$DIMALTTZ
 70
     0
  9
$DIMUPT
 70
     0
  9
$DIMDEC
 70
     2
  9
$DIMTDEC
 70
     2
  9
$DIMALTU
 70
     2
  9
$DIMALTTD
 70
     2
  9
$DIMTXSTY
  7
TITLE3
  9
$DIMAUNIT
 70
     0
  9
$DIMADEC
 70
     0
  9
$DIMALTRND
 40
0.0
  9
$DIMAZIN
 70
     0
  9
$DIMDSEP
 70
    46
  9
$DIMATFIT
 70
     2
  9
$DIMFRAC
 70
     0
  9
$DIMLDRBLK
  1

  9
$DIMLUNIT
 70
     2
  9
$DIMLWD
 70
    -2
  9
$DIMLWE
 70
    -2
  9
$DIMTMOVE
 70
     2
  9
$LUNITS
 70
     2
  9
$LUPREC
 70
     2
  9
$SKETCHINC
 40
0.1
  9
$FILLETRAD
 40
0.0
  9
$AUNITS
 70
     0
  9
$AUPREC
 70
     2
  9
$MENU
  1
\acad12\support\cnc
  9
$ELEVATION
 40
0.0
  9
$PELEVATION
 40
0.0
  9
$THICKNESS
 40
0.0
  9
$LIMCHECK
 70
     0
  9
$CHAMFERA
 40
0.0
  9
$CHAMFERB
 40
0.0
  9
$CHAMFERC
 40
0.0
  9
$CHAMFERD
 40
0.0
  9
$SKPOLY
 70
     0
  9
$TDCREATE
 40
2450764.468915509
  9
$TDUCREATE
 40
2450763.927248843
  9
$TDUPDATE
 40
2456379.450334421
  9
$TDUUPDATE
 40
2456378.908667755
  9
$TDINDWG
 40
9.8072552546
  9
$TDUSRTIMER
 40
9.8072552546
  9
$USRTIMER
 70
     1
  9
$ANGBASE
 50
0.0
  9
$ANGDIR
 70
     0
  9
$PDMODE
 70
     2
  9
$PDSIZE
 40
10.0
  9
$PLINEWID
 40
1.5
  9
$SPLFRAME
 70
     0
  9
$SPLINETYPE
 70
     6
  9
$SPLINESEGS
 70
     8
  9
$HANDSEED
  5
3FDCA
  9
$SURFTAB1
 70
     6
  9
$SURFTAB2
 70
     6
  9
$SURFTYPE
 70
     6
  9
$SURFU
 70
     6
  9
$SURFV
 70
     6
  9
$UCSBASE
  2

  9
$UCSNAME
  2

  9
$UCSORG
 10
0.0
 20
0.0
 30
0.0
  9
$UCSXDIR
 10
1.0
 20
0.0
 30
0.0
  9
$UCSYDIR
 10
0.0
 20
1.0
 30
0.0
  9
$UCSORTHOREF
  2

  9
$UCSORTHOVIEW
 70
     0
  9
$UCSORGTOP
 10
0.0
 20
0.0
 30
0.0
  9
$UCSORGBOTTOM
 10
0.0
 20
0.0
 30
0.0
  9
$UCSORGLEFT
 10
0.0
 20
0.0
 30
0.0
  9
$UCSORGRIGHT
 10
0.0
 20
0.0
 30
0.0
  9
$UCSORGFRONT
 10
0.0
 20
0.0
 30
0.0
  9
$UCSORGBACK
 10
0.0
 20
0.0
 30
0.0
  9
$PUCSBASE
  2

  9
$PUCSNAME
  2

  9
$PUCSORG
 10
0.0
 20
0.0
 30
0.0
  9
$PUCSXDIR
 10
1.0
 20
0.0
 30
0.0
  9
$PUCSYDIR
 10
0.0
 20
1.0
 30
0.0
  9
$PUCSORTHOREF
  2

  9
$PUCSORTHOVIEW
 70
     0
  9
$PUCSORGTOP
 10
0.0
 20
0.0
 30
0.0
  9
$PUCSORGBOTTOM
 10
0.0
 20
0.0
 30
0.0
  9
$PUCSORGLEFT
 10
0.0
 20
0.0
 30
0.0
  9
$PUCSORGRIGHT
 10
0.0
 20
0.0
 30
0.0
  9
$PUCSORGFRONT
 10
0.0
 20
0.0
 30
0.0
  9
$PUCSORGBACK
 10
0.0
 20
0.0
 30
0.0
  9
$USERI1
 70
     0
  9
$USERI2
 70
     0
  9
$USERI3
 70
     0
  9
$USERI4
 70
     0
  9
$USERI5
 70
     0
  9
$USERR1
 40
0.0
  9
$USERR2
 40
0.0
  9
$USERR3
 40
0.0
  9
$USERR4
 40
0.0
  9
$USERR5
 40
0.0
  9
$WORLDVIEW
 70
     1
  9
$SHADEDGE
 70
     3
  9
$SHADEDIF
 70
    70
  9
$TILEMODE
 70
     1
  9
$MAXACTVP
 70
    16
  9
$PINSBASE
 10
0.0
 20
0.0
 30
0.0
  9
$PLIMCHECK
 70
     0
  9
$PEXTMIN
 10
1.000000000000000E+20
 20
1.000000000000000E+20
 30
1.000000000000000E+20
  9
$PEXTMAX
 10
-1.000000000000000E+20
 20
-1.000000000000000E+20
 30
-1.000000000000000E+20
  9
$PLIMMIN
 10
0.0
 20
0.0
  9
$PLIMMAX
 10
12.0
 20
9.0
  9
$UNITMODE
 70
     0
  9
$VISRETAIN
 70
     0
  9
$PLINEGEN
 70
     0
  9
$PSLTSCALE
 70
     0
  9
$TREEDEPTH
 70
  3020
  9
$CMLSTYLE
  2
STANDARD
  9
$CMLJUST
 70
     0
  9
$CMLSCALE
 40
1.0
  9
$PROXYGRAPHICS
 70
     1
  9
$MEASUREMENT
 70
     0
  9
$CELWEIGHT
370
    -1
  9
$ENDCAPS
280
     0
  9
$JOINSTYLE
280
     0
  9
$LWDISPLAY
290
     0
  9
$INSUNITS
 70
     0
  9
$HYPERLINKBASE
  1

  9
$STYLESHEET
  1
monochrome.ctb
  9
$XEDIT
290
     1
  9
$CEPSNTYPE
380
     0
  9
$PSTYLEMODE
290
     1
  9
$FINGERPRINTGUID
  2
{4F7BFF26-C56D-434C-BD88-6B301DF3C9E7}
  9
$VERSIONGUID
  2
{874E3257-5AB5-4415-8D01-378F79F76CAE}
  9
$EXTNAMES
290
     1
  9
$PSVPSCALE
 40
0.0
  9
$OLESTARTUP
290
     0
  9
$SORTENTS
280
   127
  9
$INDEXCTL
280
     0
  9
$HIDETEXT
280
     0
  9
$XCLIPFRAME
290
     0
  9
$HALOGAP
280
     0
  9
$OBSCOLOR
 70
   257
  9
$OBSLTYPE
280
     0
  9
$INTERSECTIONDISPLAY
280
     0
  9
$INTERSECTIONCOLOR
 70
   257
  9
$DIMASSOC
280
     0
  9
$PROJECTNAME
  1

  0
ENDSEC
  0
SECTION
  2
CLASSES
  0
CLASS
  1
ACDBDICTIONARYWDFLT
  2
AcDbDictionaryWithDefault
  3
ObjectDBX Classes
 90
        0
 91
        1
280
     0
281
     0
  0
CLASS
  1
PLOTSETTINGS
  2
AcDbPlotSettings
  3
ObjectDBX Classes
 90
        0
 91
        3
280
     0
281
     0
  0
CLASS
  1
DICTIONARYVAR
  2
AcDbDictionaryVar
  3
ObjectDBX Classes
 90
        0
 91
       11
280
     0
281
     0
  0
CLASS
  1
RASTERVARIABLES
  2
AcDbRasterVariables
  3
ISM
 90
        0
 91
        0
280
     0
281
     0
  0
CLASS
  1
TABLESTYLE
  2
AcDbTableStyle
  3
ObjectDBX Classes
 90
     4095
 91
        1
280
     0
281
     0
  0
CLASS
  1
MATERIAL
  2
AcDbMaterial
  3
ObjectDBX Classes
 90
     1153
 91
        3
280
     0
281
     0
  0
CLASS
  1
VISUALSTYLE
  2
AcDbVisualStyle
  3
ObjectDBX Classes
 90
     4095
 91
       26
280
     0
281
     0
  0
CLASS
  1
SCALE
  2
AcDbScale
  3
ObjectDBX Classes
 90
     1153
 91
       33
280
     0
281
     0
  0
CLASS
  1
MLEADERSTYLE
  2
AcDbMLeaderStyle
  3
ACDB_MLEADERSTYLE_CLASS
 90
     4095
 91
        1
280
     0
281
     0
  0
CLASS
  1
CELLSTYLEMAP
  2
AcDbCellStyleMap
  3
ObjectDBX Classes
 90
     1152
 91
        1
280
     0
281
     0
  0
CLASS
  1
SORTENTSTABLE
  2
AcDbSortentsTable
  3
ObjectDBX Classes
 90
        0
 91
       19
280
     0
281
     0
  0
CLASS
  1
DIMASSOC
  2
AcDbDimAssoc
  3
"AcDbDimAssoc|Product Desc:     AcDim ARX App For Dimension|Company:          Autodesk, Inc.|WEB Address:      www.autodesk.com"
 90
        0
 91
        0
280
     0
281
     0
  0
CLASS
  1
ACME_DOCUMENT
  2
AcMeDbDoc
  3
AcMeServices
 90
     1024
 91
        2
280
     0
281
     0
  0
CLASS
  1
AMGSETTINGSOBJ
  2
AmgSettingsObj
  3
"AcadM|Product Description: AutoCAD Mechanical|Company: Autodesk, Inc."
 90
     1024
 91
        3
280
     0
281
     0
  0
CLASS
  1
ACMESCOPE
  2
AcMeScope
  3
AcMeServices
 90
     1024
 91
        1
280
     0
281
     0
  0
CLASS
  1
ACMECOMMANDHISTORY
  2
AcMeCommandHistory
  3
AcMeServices
 90
     1024
 91
        1
280
     0
281
     0
  0
CLASS
  1
ACIMSYSVARMAN
  2
AcImSysVarManager
  3
AcMeServices
 90
     1024
 91
        4
280
     0
281
     0
  0
CLASS
  1
ACIMINTSYSVAR
  2
AcImIntSysVar
  3
AcMeServices
 90
     1024
 91
       28
280
     0
281
     0
  0
CLASS
  1
ACMEDRAWINGMAN
  2
AcMeDrawingMan
  3
AcMeServices
 90
     1024
 91
        0
280
     0
281
     0
  0
CLASS
  1
ACMEVIEW
  2
AcMeView
  3
AcMeServices
 90
     1024
 91
        0
280
     0
281
     0
  0
CLASS
  1
ACDBENTITYCACHE
  2
AcMeEntityCache
  3
AcMeServices
 90
     1024
 91
        1
280
     0
281
     0
  0
CLASS
  1
ACMESTATEMGR
  2
AcMeStateMgr
  3
AcMeServices
 90
     1024
 91
        1
280
     0
281
     0
  0
CLASS
  1
ACGREFMASTER
  2
AcGrefMaster
  3
AcAttribServices
 90
     1024
 91
        1
280
     0
281
     0
  0
CLASS
  1
AM_DRAWING_MGR
  2
AcDmDwgMgr
  3
AcMechDwgViewMgmt
 90
     1024
 91
        0
280
     0
281
     0
  0
CLASS
  1
AM_DWG_DOCUMENT
  2
AcDmDwgDocument
  3
AcMechDwgViewMgmt
 90
     1024
 91
        0
280
     0
281
     0
  0
CLASS
  1
AM_DWG_SHEET
  2
AcDmSheet
  3
AcMechDwgViewMgmt
 90
     1024
 91
        0
280
     0
281
     0
  0
CLASS
  1
AM_VIEWDIMPARMAP
  2
AcDmViewDimParMap
  3
AcMechDwgViewMgmt
 90
     1024
 91
        0
280
     0
281
     0
  0
CLASS
  1
AMDTINTERNALREACTOR
  2
AmdtInternalReactor
  3
AcMeServices
 90
     1024
 91
        0
280
     0
281
     0
  0
CLASS
  1
ACIMREALSYSVAR
  2
AcImRealSysVar
  3
AcMeServices
 90
     1024
 91
        1
280
     0
281
     0
  0
CLASS
  1
AM_DWGMGR_NAME
  2
AcDmDwgMgrName
  3
AcMechDwgViewMgmt
 90
     1024
 91
        0
280
     0
281
     0
  0
CLASS
  1
ACME_DATABASE
  2
AcMeDbDatabase
  3
AcMeServices
 90
     1024
 91
       19
280
     0
281
     0
  0
CLASS
  1
ACRFINSADJUSTERMGR
  2
AcRfInsAdjusterMgr
  3
AcMeServices
 90
     1024
 91
        1
280
     0
281
     0
  0
CLASS
  1
ACGREFACADMASTER
  2
AcGrefacadMaster
  3
AcGrefServices
 90
     1024
 91
        1
280
     0
281
     0
  0
CLASS
  1
AMDTMENUSTATEMGR
  2
AmdtMenuStateMgr
  3
McadcomServices
 90
     1024
 91
        1
280
     0
281
     0
  0
CLASS
  1
AMDTMCOMMENUSTATE
  2
AmdtMcomMenuState
  3
McadcomServices
 90
     1024
 91
        1
280
     0
281
     0
  0
CLASS
  1
AMIMASTER
  2
AmiMaster
  3
AmiServices
 90
     1024
 91
        1
280
     0
281
     0
  0
CLASS
  1
MAPIAMMOUDLE
  2
MApiAmModule
  3
MApiAmServices
 90
     1024
 91
        1
280
     0
281
     0
  0
CLASS
  1
ACIMSTRSYSVAR
  2
AcImStrSysVar
  3
AcMeServices
 90
     1024
 91
        5
280
     0
281
     0
  0
CLASS
  1
AMDTADMENUSTATE
  2
AmdtAdMenuState
  3
DesignerServices
 90
     1024
 91
        0
280
     0
281
     0
  0
CLASS
  1
ADAPPL
  2
AcAdAppl
  3
DesignerAssemblies
 90
     1024
 91
        0
280
     0
281
     0
  0
CLASS
  1
DEPMGR
  2
AcAdDepMgr
  3
DesignerAssemblies
 90
     1024
 91
        0
280
     0
281
     0
  0
CLASS
  1
PARAMMGR
  2
AcAdParamMgr
  3
DesignerAssemblies
 90
     1024
 91
        0
280
     0
281
     0
  0
CLASS
  1
PARAMSCOPE
  2
AcAdParamScope
  3
DesignerAssemblies
 90
     1024
 91
        0
280
     0
281
     0
  0
CLASS
  1
NAMEDAPPL
  2
AcAdNamedAppl
  3
DesignerAssemblies
 90
     1024
 91
        0
280
     0
281
     0
  0
CLASS
  1
AMDTDMMENUSTATE
  2
AmdtDmMenuState
  3
AcMechDwgViewMgmt
 90
     1024
 91
        0
280
     0
281
     0
  0
CLASS
  1
AMDTAMMENUSTATE
  2
AmdtAmMenuState
  3
DesignerAssemblies
 90
     1024
 91
        1
280
     0
281
     0
  0
CLASS
  1
ACAMPROJECT
  2
AcAmProject
  3
DesignerAssemblies
 90
     1024
 91
        1
280
     0
281
     0
  0
CLASS
  1
ACAMGRCOMPDEF
  2
AcAmGrCompDef
  3
DesignerAssemblies
 90
     1024
 91
        1
280
     0
281
     0
  0
CLASS
  1
ACAMCOMPDEF
  2
AcAmCompDef
  3
DesignerAssemblies
 90
     1024
 91
        1
280
     0
281
     0
  0
CLASS
  1
ACAMCOMPDEFMGR
  2
AcAmCompDefMgr
  3
DesignerAssemblies
 90
     1024
 91
        1
280
     0
281
     0
  0
CLASS
  1
AMCONTEXTMGR
  2
AcAmContextMgr
  3
DesignerAssemblies
 90
     1024
 91
        1
280
     0
281
     0
  0
CLASS
  1
ACAMCONTEXTMODELER
  2
AcAmContextModeler
  3
DesignerAssemblies
 90
     1024
 91
        1
280
     0
281
     0
  0
CLASS
  1
ACMDATADICTIONARY
  2
AcmDataDictionary
  3
"AcmSymBB|Product Description: AutoCAD Mechanical|Company: Autodesk, Inc."
 90
     1024
 91
        1
280
     0
281
     0
  0
CLASS
  1
CATALOGSTATE
  2
AcAmCatalogState
  3
DesignerAssemblies
 90
     1024
 91
        0
280
     0
281
     0
  0
CLASS
  1
ACAMGRCOMPDEFSET
  2
AcAmGrCompDefSet
  3
DesignerAssemblies
 90
     1024
 91
        1
280
     0
281
     0
  0
CLASS
  1
AMDTBROWSERDBTAB
  2
AmdtBrowserDbTab
  3
McadcomServices
 90
     1024
 91
        1
280
     0
281
     0
  0
CLASS
  1
CBROWSERAPPOBJECT
  2
CBrowserAppObject
  3
McadcomServices
 90
     1024
 91
        2
280
     0
281
     0
  0
CLASS
  1
DM_PLACEHOLDER
  2
AcDmSelsetPlaceholder
  3
McadcomServices
 90
     1024
 91
        1
280
     0
281
     0
  0
CLASS
  1
EXACXREFPANELOBJECT
  2
ExAcXREFPanelObject
  3
EXAC_ESW
 90
     1025
 91
        1
280
     0
281
     0
  0
CLASS
  1
NPOCOLLECTION
  2
AcDbImpNonPersistentObjectsCollection
  3
ObjectDBX Classes
 90
     1153
 91
        1
280
     0
281
     0
  0
CLASS
  1
ACMSTANDARDANSI
  2
AcmStandardANSI
  3
"Amdt_StdImp|Product Description: AutoCAD Mechanical|Company: Autodesk, Inc."
 90
     1024
 91
        1
280
     0
281
     0
  0
CLASS
  1
ACMSURFSTANDARDANSI
  2
AcmSurfTextStdANSI
  3
"Amdt_StdImp|Product Description: AutoCAD Mechanical|Company: Autodesk, Inc."
 90
     1024
 91
        1
280
     0
281
     0
  0
CLASS
  1
ACMFCFSTANDARDANSI
  2
AcmFCFStdANSI
  3
"Amdt_StdImp|Product Description: AutoCAD Mechanical|Company: Autodesk, Inc."
 90
     1024
 91
        1
280
     0
281
     0
  0
CLASS
  1
ACMWELDSTANDARDANSI
  2
AcmWeldingStdANSI
  3
"Amdt_StdImp|Product Description: AutoCAD Mechanical|Company: Autodesk, Inc."
 90
     1024
 91
        1
280
     0
281
     0
  0
CLASS
  1
ACMIDSTANDARDANSI
  2
AcmIdStdANSI
  3
"Amdt_StdImp|Product Description: AutoCAD Mechanical|Company: Autodesk, Inc."
 90
     1024
 91
        1
280
     0
281
     0
  0
CLASS
  1
ACMDATUMSTANDARDANSI
  2
AcmDatumStdANSI
  3
"Amdt_StdImp|Product Description: AutoCAD Mechanical|Company: Autodesk, Inc."
 90
     1024
 91
        1
280
     0
281
     0
  0
CLASS
  1
ACMBOMSTANDARDANSI
  2
AcmBOMStdANSI
  3
"Amdt_StdImp|Product Description: AutoCAD Mechanical|Company: Autodesk, Inc."
 90
     1024
 91
        1
280
     0
281
     0
  0
CLASS
  1
ACMDETAILSTANDARDANSI
  2
AmdtDetailSymStdANSI
  3
"Amdt_StdImp|Product Description: AutoCAD Mechanical|Company: Autodesk, Inc."
 90
     1024
 91
        1
280
     0
281
     0
  0
CLASS
  1
ACMSECTIONSTANDARDANSI
  2
AmdtSectionSymStdANSI
  3
"Amdt_StdImp|Product Description: AutoCAD Mechanical|Company: Autodesk, Inc."
 90
     1024
 91
        1
280
     0
281
     0
  0
CLASS
  1
ACMCENTERLINESTANDARDANSI
  2
AmdtCenterLineStdANSI
  3
"Amdt_StdImp|Product Description: AutoCAD Mechanical|Company: Autodesk, Inc."
 90
     1024
 91
        1
280
     0
281
     0
  0
CLASS
  1
ACMTHREADLINESTANDARDANSI
  2
AmdtThreadLineStdANSI
  3
"Amdt_StdImp|Product Description: AutoCAD Mechanical|Company: Autodesk, Inc."
 90
     1024
 91
        1
280
     0
281
     0
  0
CLASS
  1
ACMNOTESTANDARDANSI
  2
AmdtNoteStdANSI
  3
"Amdt_StdImp|Product Description: AutoCAD Mechanical|Company: Autodesk, Inc."
 90
     1024
 91
        1
280
     0
281
     0
  0
CLASS
  1
ACMTAPERSTANDARDANSI
  2
AcmTaperStdANSI
  3
"Amdt_StdImp|Product Description: AutoCAD Mechanical|Company: Autodesk, Inc."
 90
     1024
 91
        1
280
     0
281
     0
  0
CLASS
  1
ACMANOOTATIONVIEWSTANDARDANSI
  2
AmdtAnViewStdANSI
  3
"Amdt_StdImp|Product Description: AutoCAD Mechanical|Company: Autodesk, Inc."
 90
     1024
 91
        1
280
     0
281
     0
  0
CLASS
  1
ACAMGLAYSTD
  2
AcAmgLayStd
  3
"AmgLay|Product Description: AutoCAD Mechanical|Company: Autodesk, Inc."
 90
     1024
 91
        2
280
     0
281
     0
  0
CLASS
  1
ACAMGDIMSTD
  2
AcAmgDimStd
  3
"AmgDim|Product Description: AutoCAD Mechanical|Company: Autodesk, Inc."
 90
     1024
 91
        2
280
     0
281
     0
  0
CLASS
  1
AMGOBJPROPCFG
  2
AmgObjPropCfg
  3
"AmgLay|Product Description: AutoCAD Mechanical|Company: Autodesk, Inc."
 90
     1024
 91
        1
280
     0
281
     0
  0
CLASS
  1
ACAMGHOLECHARTSTDANSI
  2
AcAmgHoleChartStdANSI
  3
AmgDim|Product Description: AutoCAD Mechanical|Company: Autodesk, Inc.
 90
     1024
 91
        1
280
     0
281
     0
  0
CLASS
  1
ACAMGTITLESTD
  2
AcAmgTitleStd
  3
"AmgTitle|Product Description: AutoCAD Mechanical|Company: Autodesk, Inc."
 90
     1024
 91
        2
280
     0
281
     0
  0
CLASS
  1
AMDTNOTETEMPLATEDB
  2
AmdtNoteTemplateDB
  3
AcmSymBB|Product Description: AutoCAD Mechanical|Company: Autodesk, Inc.
 90
     1024
 91
       12
280
     0
281
     0
  0
CLASS
  1
CAMSSTRUCTBTNSTATE
  2
StructBtnState
  3
DesignerAssemblies
 90
     1024
 91
        1
280
     0
281
     0
  0
CLASS
  1
ACAMGFILTERDAT
  2
AcAmgFilterDat
  3
"AcadM|Product Description: AutoCAD Mechanical|Company: Autodesk, Inc."
 90
     1024
 91
        6
280
     0
281
     0
  0
CLASS
  1
ACMSTANDARDISO
  2
AcmStandardISO
  3
"Amdt_StdImp|Product Description: AutoCAD Mechanical|Company: Autodesk, Inc."
 90
     1024
 91
        1
280
     0
281
     0
  0
CLASS
  1
AMDTEDGESTANDARDISO13715
  2
AmdtEdgeStdISO13715
  3
"Amdt_StdImp|Product Description: AutoCAD Mechanical|Company: Autodesk, Inc."
 90
     1024
 91
        1
280
     0
281
     0
  0
CLASS
  1
ACMSURFSTANDARDISO
  2
AcmSurfTextStdISO
  3
"Amdt_StdImp|Product Description: AutoCAD Mechanical|Company: Autodesk, Inc."
 90
     1024
 91
        1
280
     0
281
     0
  0
CLASS
  1
ACMFCFSTANDARDISO
  2
AcmFCFStdISO
  3
"Amdt_StdImp|Product Description: AutoCAD Mechanical|Company: Autodesk, Inc."
 90
     1024
 91
        1
280
     0
281
     0
  0
CLASS
  1
ACMWELDSTANDARDISO
  2
AcmWeldingStdISO
  3
"Amdt_StdImp|Product Description: AutoCAD Mechanical|Company: Autodesk, Inc."
 90
     1024
 91
        1
280
     0
281
     0
  0
CLASS
  1
ACMIDSTANDARDISO
  2
AcmIdStdISO
  3
"Amdt_StdImp|Product Description: AutoCAD Mechanical|Company: Autodesk, Inc."
 90
     1024
 91
        1
280
     0
281
     0
  0
CLASS
  1
ACMDATUMSTANDARDISO
  2
AcmDatumStdISO
  3
"Amdt_StdImp|Product Description: AutoCAD Mechanical|Company: Autodesk, Inc."
 90
     1024
 91
        1
280
     0
281
     0
  0
CLASS
  1
ACMBOMSTANDARDISO
  2
AcmBOMStdISO
  3
"Amdt_StdImp|Product Description: AutoCAD Mechanical|Company: Autodesk, Inc."
 90
     1024
 91
        1
280
     0
281
     0
  0
CLASS
  1
ACMDETAILSTANDARDISO
  2
AmdtDetailSymStdISO
  3
"Amdt_StdImp|Product Description: AutoCAD Mechanical|Company: Autodesk, Inc."
 90
     1024
 91
        1
280
     0
281
     0
  0
CLASS
  1
ACMSECTIONSTANDARDISO
  2
AmdtSectionSymStdISO
  3
"Amdt_StdImp|Product Description: AutoCAD Mechanical|Company: Autodesk, Inc."
 90
     1024
 91
        1
280
     0
281
     0
  0
CLASS
  1
ACMCENTERLINESTANDARDISO
  2
AmdtCenterLineStdISO
  3
"Amdt_StdImp|Product Description: AutoCAD Mechanical|Company: Autodesk, Inc."
 90
     1024
 91
        1
280
     0
281
     0
  0
CLASS
  1
ACMTHREADLINESTANDARDISO
  2
AmdtThreadLineStdISO
  3
"Amdt_StdImp|Product Description: AutoCAD Mechanical|Company: Autodesk, Inc."
 90
     1024
 91
        1
280
     0
281
     0
  0
CLASS
  1
ACMNOTESTANDARDISO
  2
AmdtNoteStdISO
  3
"Amdt_StdImp|Product Description: AutoCAD Mechanical|Company: Autodesk, Inc."
 90
     1024
 91
        1
280
     0
281
     0
  0
CLASS
  1
ACMTAPERSTANDARDISO
  2
AcmTaperStdISO
  3
"Amdt_StdImp|Product Description: AutoCAD Mechanical|Company: Autodesk, Inc."
 90
     1024
 91
        1
280
     0
281
     0
  0
CLASS
  1
ACAMGHOLECHARTSTDISO
  2
AcAmgHoleChartStdISO
  3
AmgDim|Product Description: AutoCAD Mechanical|Company: Autodesk, Inc.
 90
     1024
 91
        1
280
     0
281
     0
  0
CLASS
  1
ACMANOOTATIONVIEWSTANDARDISO
  2
AmdtAnViewStdISO
  3
"Amdt_StdImp|Product Description: AutoCAD Mechanical|Company: Autodesk, Inc."
 90
     1024
 91
        1
280
     0
281
     0
  0
CLASS
  1
ACMDATAENTRYBLOCK
  2
AcmDataEntryBlock
  3
AcmSymBB|Product Description: AutoCAD Mechanical|Company: Autodesk, Inc.
 90
     1024
 91
        0
280
     0
281
     0
  0
CLASS
  1
AEC_REFEDIT_STATUS_TRACKER
  2
AecDbRefEditStatusTracker
  3
AecArchBase70|Product Desc: Autodesk Architectural Desktop 2007 |Company: Autodesk,Inc. |WEB Address: www.autodesk.com
 90
      129
 91
        0
280
     0
281
     0
  0
CLASS
  1
ACDBSECTIONVIEWSTYLE
  2
AcDbSectionViewStyle
  3
ObjectDBX Classes
 90
     1025
 91
        1
280
     0
281
     0
  0
CLASS
  1
ACDBDETAILVIEWSTYLE
  2
AcDbDetailViewStyle
  3
ObjectDBX Classes
 90
     1025
 91
        1
280
     0
281
     0
  0
ENDSEC
  0
SECTION
  2
TABLES
  0
TABLE
  2
VPORT
  5
277
102
{ACAD_XDICTIONARY
360
3EFBD
102
}
330
0
100
AcDbSymbolTable
 70
     1
  0
VPORT
  5
4A15
330
277
100
AcDbSymbolTableRecord
100
AcDbViewportTableRecord
  2
*Active
 70
     0
 10
0.0
 20
0.0
 11
1.0
 21
1.0
 12
37090.78224932782
 22
-23122.05325341874
 13
0.0
 23
0.0
 14
25.0
 24
25.0
 15
100.0
 25
100.0
 16
0.0
 26
0.0
 36
1.0
 17
0.0
 27
0.0
 37
0.0
 40
5539.453404873944
 41
2.017003188097768
 42
50.0
 43
0.0
 44
0.0
 50
0.0
 51
0.0
 71
     0
 72
   100
 73
     1
 74
     0
 75
     0
 76
     0
 77
     0
 78
     0
281
     0
 65
     1
110
0.0
120
0.0
130
0.0
111
1.0
121
0.0
131
0.0
112
0.0
122
1.0
132
0.0
 79
     0
146
0.0
1001
ACAD_NAV_VCDISPLAY
1070
     3
  0
ENDTAB
  0
TABLE
  2
LTYPE
  5
272
330
0
100
AcDbSymbolTable
 70
    21
  0
LTYPE
  5
273
330
272
100
AcDbSymbolTableRecord
100
AcDbLinetypeTableRecord
  2
BYBLOCK
 70
     0
  3

 72
    65
 73
     0
 40
0.0
  0
LTYPE
  5
274
330
272
100
AcDbSymbolTableRecord
100
AcDbLinetypeTableRecord
  2
BYLAYER
 70
     0
  3

 72
    65
 73
     0
 40
0.0
  0
LTYPE
  5
5
330
272
100
AcDbSymbolTableRecord
100
AcDbLinetypeTableRecord
  2
CONTINUOUS
 70
     0
  3
Solid line
 72
    65
 73
     0
 40
0.0
  0
LTYPE
  5
520
330
272
100
AcDbSymbolTableRecord
100
AcDbLinetypeTableRecord
  2
HIDDEN
 70
     0
  3
Hidden __ __ __ __ __ __ __ __ __ __ __ __ __ _
 72
    65
 73
     2
 40
0.375
 49
0.25
 74
     0
 49
-0.125
 74
     0
  0
LTYPE
  5
52C
330
272
100
AcDbSymbolTableRecord
100
AcDbLinetypeTableRecord
  2
HIDDEN2
 70
     0
  3
Hidden (.5x) _ _ _ _ _ _ _ _ _ _ _ _ _ _ _ _ _
 72
    65
 73
     2
 40
0.1875
 49
0.125
 74
     0
 49
-0.0625
 74
     0
  0
LTYPE
  5
F5C8
330
272
100
AcDbSymbolTableRecord
100
AcDbLinetypeTableRecord
  2
PHANTOM2
 70
     0
  3
Phantom (.5x) ___ _ _ ___ _ _ ___ _ _ ___ _ _
 72
    65
 73
     6
 40
1.25
 49
0.625
 74
     0
 49
-0.125
 74
     0
 49
0.125
 74
     0
 49
-0.125
 74
     0
 49
0.125
 74
     0
 49
-0.125
 74
     0
  0
LTYPE
  5
F5C9
330
272
100
AcDbSymbolTableRecord
100
AcDbLinetypeTableRecord
  2
CENTER
 70
     0
  3
Center ____ _ ____ _ ____ _ ____ _ ____ _ ____
 72
    65
 73
     4
 40
2.0
 49
1.25
 74
     0
 49
-0.25
 74
     0
 49
0.25
 74
     0
 49
-0.25
 74
     0
  0
LTYPE
  5
F60F
330
272
100
AcDbSymbolTableRecord
100
AcDbLinetypeTableRecord
  2
AM_ISO02W050
 70
     0
  3
__ __ __ __ __ __ __ __ __ __ __ __ __ __ __
 72
    65
 73
     2
 40
7.5
 49
6.0
 74
     0
 49
-1.5
 74
     0
  0
LTYPE
  5
F610
330
272
100
AcDbSymbolTableRecord
100
AcDbLinetypeTableRecord
  2
AM_ISO08W050
 70
     0
  3
____ . ____ . ____ . ____ . ____ . ____ . ____
 72
    65
 73
     4
 40
18.0
 49
12.0
 74
     0
 49
-1.5
 74
     0
 49
3.0
 74
     0
 49
-1.5
 74
     0
  0
LTYPE
  5
F611
330
272
100
AcDbSymbolTableRecord
100
AcDbLinetypeTableRecord
  2
AM_ISO09W050
 70
     0
  3
_____ . . _____ . . _____ . . ____ .. ____
 72
    65
 73
     6
 40
22.5
 49
12.0
 74
     0
 49
-1.5
 74
     0
 49
3.0
 74
     0
 49
-1.5
 74
     0
 49
3.0
 74
     0
 49
-1.5
 74
     0
  0
LTYPE
  5
F612
330
272
100
AcDbSymbolTableRecord
100
AcDbLinetypeTableRecord
  2
Amconstr
 70
     0
  3
_______________________
 72
    65
 73
     2
 40
9999.0
 49
9999.0
 74
     0
 49
0.0
 74
     0
  0
LTYPE
  5
F613
330
272
100
AcDbSymbolTableRecord
100
AcDbLinetypeTableRecord
  2
AM_ISO08W050x2
 70
     0
  3
__ . __ . __ . __ . __ . __
 72
    65
 73
     4
 40
9.0
 49
6.0
 74
     0
 49
-0.75
 74
     0
 49
1.5
 74
     0
 49
-0.75
 74
     0
  0
LTYPE
  5
F614
330
272
100
AcDbSymbolTableRecord
100
AcDbLinetypeTableRecord
  2
AM_ISO02W050x2
 70
     0
  3
 _ _ _ _ _ _ _ _ _ _ _ _
 72
    65
 73
     2
 40
3.75
 49
3.0
 74
     0
 49
-0.75
 74
     0
  0
LTYPE
  5
F617
330
272
100
AcDbSymbolTableRecord
100
AcDbLinetypeTableRecord
  2
Amzigzag
 70
     0
  3
/\/-/\/-/\/-/\/-/\/-/\/
 72
    65
 73
     2
 40
11.0001
 49
0.0001
 74
     4
 75
   136
340
F616
 46
0.04
 50
0.0
 44
0.0
 45
0.0
 49
-11.0
 74
     0
  0
LTYPE
  5
F618
330
272
100
AcDbSymbolTableRecord
100
AcDbLinetypeTableRecord
  2
CENTER2
 70
     0
  3
Center (.5x) ___ _ ___ _ ___ _ ___ _ ___ _ ___
 72
    65
 73
     4
 40
1.125
 49
0.75
 74
     0
 49
-0.125
 74
     0
 49
0.125
 74
     0
 49
-0.125
 74
     0
  0
LTYPE
  5
F619
330
272
100
AcDbSymbolTableRecord
100
AcDbLinetypeTableRecord
  2
Amzigzag2
 70
     0
  3
/\/-/\/-/\/-/\/-/\/-/\/
 72
    65
 73
     2
 40
0.4401
 49
0.0001
 74
     4
 75
   136
340
F616
 46
0.0016
 50
0.0
 44
0.0
 45
0.0
 49
-0.4400000000000001
 74
     0
  0
LTYPE
  5
F627
330
272
100
AcDbSymbolTableRecord
100
AcDbLinetypeTableRecord
  2
ACANSTGB
 70
     0
  3
__ . . __ . .
 72
    65
 73
     6
 40
0.35433070866
 49
0.15748031496
 74
     0
 49
-0.03937007874
 74
     0
 49
0.03937007874
 74
     0
 49
-0.03937007874
 74
     0
 49
0.03937007874
 74
     0
 49
-0.03937007874
 74
     0
  0
LTYPE
  5
F628
330
272
100
AcDbSymbolTableRecord
100
AcDbLinetypeTableRecord
  2
ACANSTGL
 70
     0
  3
_ _ _ _ _
 72
    65
 73
     2
 40
0.11811023622
 49
0.07874015748
 74
     0
 49
-0.03937007874
 74
     0
  0
LTYPE
  5
16FF5
330
272
100
AcDbSymbolTableRecord
100
AcDbLinetypeTableRecord
  2
ACISOWELD
 70
     0
  3
_ _ _ _ _
 72
    65
 73
     2
 40
2.0
 49
2.0
 74
     0
 49
-1.0
 74
     0
  0
LTYPE
  5
16FF6
330
272
100
AcDbSymbolTableRecord
100
AcDbLinetypeTableRecord
  2
ACISOTGB
 70
     0
  3
__ . . __ . .
 72
    65
 73
     6
 40
9.0
 49
4.0
 74
     0
 49
-1.0
 74
     0
 49
1.0
 74
     0
 49
-1.0
 74
     0
 49
1.0
 74
     0
 49
-1.0
 74
     0
  0
LTYPE
  5
16FF7
330
272
100
AcDbSymbolTableRecord
100
AcDbLinetypeTableRecord
  2
ACISOTGL
 70
     0
  3
_ _ _ _ _
 72
    65
 73
     2
 40
3.0
 49
2.0
 74
     0
 49
-1.0
 74
     0
  0
ENDTAB
  0
TABLE
  2
LAYER
  5
26F
102
{ACAD_XDICTIONARY
360
5406
102
}
330
0
100
AcDbSymbolTable
 70
    17
  0
LAYER
  5
268
102
{ACAD_XDICTIONARY
360
4C83
102
}
330
26F
100
AcDbSymbolTableRecord
100
AcDbLayerTableRecord
  2
0
 70
     0
 62
     7
  6
CONTINUOUS
370
    -3
390
29D
  0
LAYER
  5
52
102
{ACAD_XDICTIONARY
360
4C85
102
}
330
26F
100
AcDbSymbolTableRecord
100
AcDbLayerTableRecord
  2
OUTLINE
 70
     0
 62
   254
  6
CONTINUOUS
370
    -3
390
29D
  0
LAYER
  5
E45
102
{ACAD_XDICTIONARY
360
4C8D
102
}
330
26F
100
AcDbSymbolTableRecord
100
AcDbLayerTableRecord
  2
COIL
 70
     0
 62
     6
  6
CONTINUOUS
370
    -3
390
29D
  0
LAYER
  5
1AA2
102
{ACAD_XDICTIONARY
360
4C95
102
}
330
26F
100
AcDbSymbolTableRecord
100
AcDbLayerTableRecord
  2
TOP
 70
     0
 62
    30
  6
CONTINUOUS
370
    -3
390
29D
  0
LAYER
  5
1B55
102
{ACAD_XDICTIONARY
360
4C99
102
}
330
26F
100
AcDbSymbolTableRecord
100
AcDbLayerTableRecord
  2
DIM
 70
     0
 62
    50
  6
CONTINUOUS
370
    -3
390
29D
  0
LAYER
  5
2466
102
{ACAD_XDICTIONARY
360
4CA3
102
}
330
26F
100
AcDbSymbolTableRecord
100
AcDbLayerTableRecord
  2
HEADER
 70
     0
 62
     6
  6
CONTINUOUS
370
    -3
390
29D
  0
LAYER
  5
4C2C
102
{ACAD_XDICTIONARY
360
4CA9
102
}
330
26F
100
AcDbSymbolTableRecord
100
AcDbLayerTableRecord
  2
LOGO
 70
     0
 62
    46
  6
CONTINUOUS
370
    -3
390
29D
  0
LAYER
  5
957C
330
26F
100
AcDbSymbolTableRecord
100
AcDbLayerTableRecord
  2
Defpoints
 70
     0
 62
     7
  6
CONTINUOUS
290
     0
370
    -3
390
29D
  0
LAYER
  5
27C4E
102
{ACAD_XDICTIONARY
360
27C4F
102
}
330
26F
100
AcDbSymbolTableRecord
100
AcDbLayerTableRecord
  2
Sketch Geometry (ANSI)
 70
     0
 62
     7
  6
CONTINUOUS
370
    25
390
29D
  0
LAYER
  5
2DF45
330
26F
100
AcDbSymbolTableRecord
100
AcDbLayerTableRecord
  2
Border (ISO)
 70
     0
 62
     7
  6
CONTINUOUS
370
    70
390
29D
  0
ENDTAB
  0
TABLE
  2
STYLE
  5
270
330
0
100
AcDbSymbolTable
 70
    15
  0
STYLE
  5
271
330
270
100
AcDbSymbolTableRecord
100
AcDbTextStyleTableRecord
  2
STANDARD
 70
     0
 40
0.0
 41
1.0
 50
0.0
 71
     0
 42
0.2
  3
txt
  4

  0
STYLE
  5
4C
330
270
100
AcDbSymbolTableRecord
100
AcDbTextStyleTableRecord
  2
TITLE3
 70
     0
 40
25.0
 41
1.0
 50
0.0
 71
     0
 42
25.0
  3
SIMPLEX.shx
  4

  0
STYLE
  5
F616
330
270
100
AcDbSymbolTableRecord
100
AcDbTextStyleTableRecord
  2

 70
     1
 40
0.0
 41
1.0
 50
0.0
 71
     0
 42
25.0
  3
genltshp.shx
  4

  0
STYLE
  5
F626
330
270
100
AcDbSymbolTableRecord
100
AcDbTextStyleTableRecord
  2
ACANSGDT
 70
     0
 40
0.0
 41
1.0
 50
0.0
 71
     0
 42
25.0
  3
amgdt.shx
  4

  0
STYLE
  5
16FFB
330
270
100
AcDbSymbolTableRecord
100
AcDbTextStyleTableRecord
  2
Note Text (ANSI)
 70
     0
 40
0.0
 41
1.0
 50
0.0
 71
     0
 42
0.2
  3
tahoma.ttf
  4

1001
ACAD
1000
Tahoma
1071
      256
  0
STYLE
  5
16FFC
330
270
100
AcDbSymbolTableRecord
100
AcDbTextStyleTableRecord
  2
ACISOTS
 70
     0
 40
1.0
 41
1.0
 50
0.0
 71
     0
 42
0.2
  3
isocp.shx
  4

  0
STYLE
  5
16FFD
330
270
100
AcDbSymbolTableRecord
100
AcDbTextStyleTableRecord
  2
ACISOGDT
 70
     0
 40
0.0
 41
1.0
 50
0.0
 71
     0
 42
0.2
  3
amgdt.shx
  4

  0
ENDTAB
  0
TABLE
  2
VIEW
  5
275
330
0
100
AcDbSymbolTable
 70
    15
  0
ENDTAB
  0
TABLE
  2
UCS
  5
276
330
0
100
AcDbSymbolTable
 70
     0
  0
ENDTAB
  0
TABLE
  2
APPID
  5
279
330
0
100
AcDbSymbolTable
 70
    31
  0
APPID
  5
27A
330
279
100
AcDbSymbolTableRecord
100
AcDbRegAppTableRecord
  2
ACAD
 70
     0
  0
APPID
  5
4A65
330
279
100
AcDbSymbolTableRecord
100
AcDbRegAppTableRecord
  2
ACAD_MLEADERVER
 70
     0
  0
APPID
  5
4CB8
330
279
100
AcDbSymbolTableRecord
100
AcDbRegAppTableRecord
  2
ACAD_EXEMPT_FROM_CAD_STANDARDS
 70
     0
  0
APPID
  5
5404
330
279
100
AcDbSymbolTableRecord
100
AcDbRegAppTableRecord
  2
ACAD_PSEXT
 70
     0
  0
APPID
  5
5405
330
279
100
AcDbSymbolTableRecord
100
AcDbRegAppTableRecord
  2
AcAecLayerStandard
 70
     0
  0
APPID
  5
9CE7
330
279
100
AcDbSymbolTableRecord
100
AcDbRegAppTableRecord
  2
ACAD_DSTYLE_DIMJAG
 70
     0
  0
APPID
  5
9CE8
330
279
100
AcDbSymbolTableRecord
100
AcDbRegAppTableRecord
  2
ACAD_DSTYLE_DIMTALN
 70
     0
  0
APPID
  5
F59D
330
279
100
AcDbSymbolTableRecord
100
AcDbRegAppTableRecord
  2
MCAD_NO_VIS
 70
     0
  0
APPID
  5
F59E
330
279
100
AcDbSymbolTableRecord
100
AcDbRegAppTableRecord
  2
ACAD_TEMP_GRAPHIC
 70
     0
  0
APPID
  5
F5CB
330
279
100
AcDbSymbolTableRecord
100
AcDbRegAppTableRecord
  2
AD_DRAW
 70
     0
  0
APPID
  5
F5CE
330
279
100
AcDbSymbolTableRecord
100
AcDbRegAppTableRecord
  2
ACATTRIBSERVICES
 70
     0
  0
APPID
  5
F5EE
330
279
100
AcDbSymbolTableRecord
100
AcDbRegAppTableRecord
  2
DESIGNERASSEMBLIES
 70
     0
  0
APPID
  5
F5F4
330
279
100
AcDbSymbolTableRecord
100
AcDbRegAppTableRecord
  2
ACADM_DIM_EDIT
 70
     0
  0
APPID
  5
F5F5
330
279
100
AcDbSymbolTableRecord
100
AcDbRegAppTableRecord
  2
AMDT_DM_ADJ
 70
     0
  0
APPID
  5
F60D
330
279
100
AcDbSymbolTableRecord
100
AcDbRegAppTableRecord
  2
ACAD_DSTYLE_DIMBREAK
 70
     0
  0
APPID
  5
FDB9
330
279
100
AcDbSymbolTableRecord
100
AcDbRegAppTableRecord
  2
GENIUS_GENREC_14
 70
     0
  0
APPID
  5
FDBA
330
279
100
AcDbSymbolTableRecord
100
AcDbRegAppTableRecord
  2
GENIUS_GENODEF_13
 70
     0
  0
APPID
  5
FDBB
330
279
100
AcDbSymbolTableRecord
100
AcDbRegAppTableRecord
  2
GENIUS_GENOBJ-N-REC_13
 70
     0
  0
APPID
  5
1031A
330
279
100
AcDbSymbolTableRecord
100
AcDbRegAppTableRecord
  2
ACAD_DSTYLE_DIMINSPECT
 70
     0
  0
APPID
  5
1B0DA
330
279
100
AcDbSymbolTableRecord
100
AcDbRegAppTableRecord
  2
GENIUS_GENOBJ-N-FIL_13
 70
     0
  0
APPID
  5
1B5AF
330
279
100
AcDbSymbolTableRecord
100
AcDbRegAppTableRecord
  2
GENIUS_GENOBJ-N-CEN_13
 70
     0
  0
APPID
  5
1B5B0
330
279
100
AcDbSymbolTableRecord
100
AcDbRegAppTableRecord
  2
GENIUS_GENCEN_19
 70
     0
  0
APPID
  5
1FFA4
330
279
100
AcDbSymbolTableRecord
100
AcDbRegAppTableRecord
  2
GENIUS_GENDTOL_13
 70
     0
  0
APPID
  5
24F9E
330
279
100
AcDbSymbolTableRecord
100
AcDbRegAppTableRecord
  2
ACAD_DSTYLE_DIMANGULAR_EXTENSION
 70
     0
  0
APPID
  5
25400
330
279
100
AcDbSymbolTableRecord
100
AcDbRegAppTableRecord
  2
AcadAnnoPO
 70
     0
  0
APPID
  5
27C50
330
279
100
AcDbSymbolTableRecord
100
AcDbRegAppTableRecord
  2
ACAD_DSTYLE_DIMRADIAL_EXTENSION
 70
     0
  0
APPID
  5
33F34
330
279
100
AcDbSymbolTableRecord
100
AcDbRegAppTableRecord
  2
ACAD_NAV_VCDISPLAY
 70
     0
  0
APPID
  5
3EFE9
330
279
100
AcDbSymbolTableRecord
100
AcDbRegAppTableRecord
  2
ACAD_DSTYLE_DIMARC_LENGTH_SYMBOL
 70
     0
  0
APPID
  5
3EFEA
330
279
100
AcDbSymbolTableRecord
100
AcDbRegAppTableRecord
  2
ACAD_DSTYLE_DIM_LINETYPE
 70
     0
  0
APPID
  5
3EFEB
330
279
100
AcDbSymbolTableRecord
100
AcDbRegAppTableRecord
  2
ACAD_DSTYLE_DIM_EXT1_LINETYPE
 70
     0
  0
APPID
  5
3EFEC
330
279
100
AcDbSymbolTableRecord
100
AcDbRegAppTableRecord
  2
ACAD_DSTYLE_DIM_EXT2_LINETYPE
 70
     0
  0
ENDTAB
  0
TABLE
  2
DIMSTYLE
  5
27B
330
0
100
AcDbSymbolTable
 70
    18
100
AcDbDimStyleTable
 71
     1
340
281
  0
DIMSTYLE
105
281
330
27B
100
AcDbSymbolTableRecord
100
AcDbDimStyleTableRecord
  2
STANDARD
 70
     0
340
271
  0
DIMSTYLE
105
F60C
102
{ACAD_REACTORS
330
F5FC
102
}
330
27B
100
AcDbSymbolTableRecord
100
AcDbDimStyleTableRecord
  2
AM_ANSI
 70
     0
  4
mm
 41
0.12
 42
0.05
 43
0.5
 44
0.1
 47
0.1
 48
0.1
 78
     7
 79
     2
140
0.12
141
0.0
146
0.71
147
0.06
176
   256
177
   256
178
     2
274
     4
284
     7
340
271
371
    -1
372
    -1
1001
ACAD_DSTYLE_DIMJAG
1070
   388
1040
1.5
1001
ACAD_DSTYLE_DIMBREAK
1070
   391
1040
0.125
1001
ACAD_DSTYLE_DIMARC_LENGTH_SYMBOL
1070
   379
1070
     1
1001
ACAD_DSTYLE_DIM_LINETYPE
1070
   380
1005
273
1001
ACAD_DSTYLE_DIM_EXT1_LINETYPE
1070
   381
1005
273
1001
ACAD_DSTYLE_DIM_EXT2_LINETYPE
1070
   382
1005
273
  0
DIMSTYLE
105
F61A
330
27B
100
AcDbSymbolTableRecord
100
AcDbDimStyleTableRecord
  2
AM_ANSI$3
 70
     0
  4
mm
 41
0.12
 42
0.05
 43
0.5
 44
0.1
 47
0.1
 48
0.1
 78
     7
 79
     2
140
0.12
141
0.0
146
0.71
147
0.06
176
   256
177
   256
178
     2
274
     4
284
     7
288
     1
289
     0
340
271
371
    -1
372
    -1
1001
ACAD_DSTYLE_DIMBREAK
1070
   391
1040
0.125
1001
ACAD_DSTYLE_DIMJAG
1070
   388
1040
1.5
1001
ACAD_DSTYLE_DIMARC_LENGTH_SYMBOL
1070
   379
1070
     1
1001
ACAD_DSTYLE_DIM_LINETYPE
1070
   380
1005
273
1001
ACAD_DSTYLE_DIM_EXT1_LINETYPE
1070
   381
1005
273
1001
ACAD_DSTYLE_DIM_EXT2_LINETYPE
1070
   382
1005
273
  0
DIMSTYLE
105
F61B
330
27B
100
AcDbSymbolTableRecord
100
AcDbDimStyleTableRecord
  2
AM_ANSI$4
 70
     0
  4
mm
 41
0.12
 42
0.05
 43
0.5
 44
0.1
 47
0.1
 48
0.1
 78
     7
 79
     2
140
0.12
141
0.0
146
0.71
147
0.06
176
   256
177
   256
178
     2
274
     4
284
     7
288
     1
289
     0
340
271
371
    -1
372
    -1
1001
ACAD_DSTYLE_DIMBREAK
1070
   391
1040
0.125
1001
ACAD_DSTYLE_DIMJAG
1070
   388
1040
1.5
1001
ACAD_DSTYLE_DIMARC_LENGTH_SYMBOL
1070
   379
1070
     1
1001
ACAD_DSTYLE_DIM_LINETYPE
1070
   380
1005
273
1001
ACAD_DSTYLE_DIM_EXT1_LINETYPE
1070
   381
1005
273
1001
ACAD_DSTYLE_DIM_EXT2_LINETYPE
1070
   382
1005
273
  0
DIMSTYLE
105
F61C
330
27B
100
AcDbSymbolTableRecord
100
AcDbDimStyleTableRecord
  2
AM_ANSI$7
 70
     0
  4
mm
 41
0.12
 42
0.05
 43
0.5
 44
0.1
 47
0.1
 48
0.1
 78
     7
 79
     2
140
0.12
141
0.0
146
0.71
147
0.06
176
   256
177
   256
178
     2
274
     4
284
     7
340
271
371
    -1
372
    -1
1001
ACAD_DSTYLE_DIMBREAK
1070
   391
1040
0.125
1001
ACAD_DSTYLE_DIMJAG
1070
   388
1040
1.5
1001
ACAD_DSTYLE_DIMARC_LENGTH_SYMBOL
1070
   379
1070
     1
1001
ACAD_DSTYLE_DIM_LINETYPE
1070
   380
1005
273
1001
ACAD_DSTYLE_DIM_EXT1_LINETYPE
1070
   381
1005
273
1001
ACAD_DSTYLE_DIM_EXT2_LINETYPE
1070
   382
1005
273
  0
DIMSTYLE
105
F61D
330
27B
100
AcDbSymbolTableRecord
100
AcDbDimStyleTableRecord
  2
AM_ANSI$SF
 70
     0
  4
mm
 41
0.12
 42
0.05
 43
0.5
 44
0.1
 47
0.1
 48
0.1
 75
     1
 76
     1
 78
     7
 79
     2
140
0.12
141
0.0
146
0.71
147
0.06
176
   256
177
   256
178
     2
274
     4
284
     7
340
271
371
    -1
372
    -1
1001
ACAD_DSTYLE_DIMBREAK
1070
   391
1040
0.125
1001
ACAD_DSTYLE_DIMJAG
1070
   388
1040
1.5
1001
ACAD_DSTYLE_DIMARC_LENGTH_SYMBOL
1070
   379
1070
     1
1001
ACAD_DSTYLE_DIM_LINETYPE
1070
   380
1005
273
1001
ACAD_DSTYLE_DIM_EXT1_LINETYPE
1070
   381
1005
273
1001
ACAD_DSTYLE_DIM_EXT2_LINETYPE
1070
   382
1005
273
  0
DIMSTYLE
105
F622
330
27B
100
AcDbSymbolTableRecord
100
AcDbDimStyleTableRecord
  2
AM_ANSI$SH
 70
     0
  4
mm
 41
0.12
 42
0.05
 43
0.5
 44
0.1
 47
0.1
 48
0.1
 75
     1
 76
     1
 78
     7
 79
     2
140
0.12
141
0.0
146
0.71
147
0.06
173
     1
176
   256
177
   256
178
     2
274
     4
284
     7
340
271
343
F61E
371
    -1
372
    -1
1001
ACAD_DSTYLE_DIMBREAK
1070
   391
1040
0.125
1001
ACAD_DSTYLE_DIMJAG
1070
   388
1040
1.5
1001
ACAD_DSTYLE_DIMARC_LENGTH_SYMBOL
1070
   379
1070
     1
1001
ACAD_DSTYLE_DIM_LINETYPE
1070
   380
1005
273
1001
ACAD_DSTYLE_DIM_EXT1_LINETYPE
1070
   381
1005
273
1001
ACAD_DSTYLE_DIM_EXT2_LINETYPE
1070
   382
1005
273
  0
DIMSTYLE
105
17000
330
27B
100
AcDbSymbolTableRecord
100
AcDbDimStyleTableRecord
  2
AM_ISO
 70
     0
  4
"
 41
2.5
 42
1.0
 43
10.0
 44
1.0
 47
0.1
 48
0.1
 73
     0
 74
     0
 77
     1
 78
     8
 79
     2
140
3.5
141
0.0
143
0.0393701
146
0.71
147
1.5
172
     1
176
   256
177
   256
178
     2
271
     2
272
     3
274
     4
283
     0
284
     8
340
271
371
    -1
372
    -1
1001
ACAD_DSTYLE_DIMARC_LENGTH_SYMBOL
1070
   379
1070
     1
  0
DIMSTYLE
105
17001
330
27B
100
AcDbSymbolTableRecord
100
AcDbDimStyleTableRecord
  2
AM_ISO$3
 70
     0
  4
"
 41
2.5
 42
1.0
 43
10.0
 44
1.0
 47
0.1
 48
0.1
 73
     0
 77
     1
 78
     8
 79
     2
140
3.5
141
0.0
143
0.0393701
146
0.71
147
1.5
176
   256
177
   256
178
     2
271
     2
272
     3
274
     4
283
     0
284
     8
288
     1
289
     0
340
271
371
    -1
372
    -1
1001
ACAD_DSTYLE_DIMARC_LENGTH_SYMBOL
1070
   379
1070
     1
  0
DIMSTYLE
105
17002
330
27B
100
AcDbSymbolTableRecord
100
AcDbDimStyleTableRecord
  2
AM_ISO$4
 70
     0
  4
"
 41
2.5
 42
1.0
 43
10.0
 44
1.0
 47
0.1
 48
0.1
 73
     0
 77
     1
 78
     8
 79
     2
140
3.5
141
0.0
143
0.0393701
146
0.71
147
1.5
176
   256
177
   256
178
     2
271
     2
272
     3
274
     4
283
     0
284
     8
288
     1
289
     0
340
271
371
    -1
372
    -1
1001
ACAD_DSTYLE_DIMARC_LENGTH_SYMBOL
1070
   379
1070
     1
  0
DIMSTYLE
105
17003
330
27B
100
AcDbSymbolTableRecord
100
AcDbDimStyleTableRecord
  2
AM_ISO$6
 70
     0
  4
"
 41
2.5
 42
1.0
 43
10.0
 44
1.0
 47
0.1
 48
0.1
 73
     0
 74
     0
 78
     8
 79
     2
140
3.5
141
0.0
143
0.0393701
146
0.71
147
1.5
172
     1
176
   256
177
   256
178
     2
271
     2
272
     3
274
     4
283
     0
284
     8
340
271
371
    -1
372
    -1
1001
ACAD_DSTYLE_DIMARC_LENGTH_SYMBOL
1070
   379
1070
     1
  0
DIMSTYLE
105
17004
330
27B
100
AcDbSymbolTableRecord
100
AcDbDimStyleTableRecord
  2
AM_ISO$7
 70
     0
  4
"
 41
2.5
 42
1.0
 43
10.0
 44
1.0
 47
0.1
 48
0.1
 73
     0
 74
     0
 77
     1
 78
     8
 79
     2
140
5.0
141
0.0
143
0.0393701
146
0.71
147
1.5
172
     1
176
   256
177
   256
178
     2
271
     2
272
     3
274
     4
283
     0
284
     8
340
271
371
    -1
372
    -1
1001
ACAD_DSTYLE_DIMARC_LENGTH_SYMBOL
1070
   379
1070
     1
  0
DIMSTYLE
105
17005
330
27B
100
AcDbSymbolTableRecord
100
AcDbDimStyleTableRecord
  2
AM_ISO$SF
 70
     0
  4
"
 41
2.5
 42
1.0
 43
10.0
 44
1.0
 47
0.1
 48
0.1
 73
     0
 74
     0
 75
     1
 76
     1
 77
     1
 78
     8
 79
     2
140
3.5
141
0.0
143
0.0393701
146
0.71
147
1.5
172
     1
176
   256
177
   256
178
     2
271
     2
272
     3
274
     4
283
     0
284
     8
340
271
371
    -1
372
    -1
1001
ACAD_DSTYLE_DIMARC_LENGTH_SYMBOL
1070
   379
1070
     1
  0
DIMSTYLE
105
17006
330
27B
100
AcDbSymbolTableRecord
100
AcDbDimStyleTableRecord
  2
AM_ISO$SH
 70
     0
  4
"
 41
2.5
 42
1.0
 43
10.0
 44
1.0
 47
0.1
 48
0.1
 73
     0
 74
     0
 75
     1
 76
     1
 77
     1
 78
     8
 79
     2
140
3.5
141
0.0
143
0.0393701
144
2.0
146
0.71
147
1.5
172
     1
173
     1
176
   256
177
   256
178
     2
271
     2
272
     3
274
     4
283
     0
284
     8
340
271
343
F61E
371
    -1
372
    -1
1001
ACAD_DSTYLE_DIMARC_LENGTH_SYMBOL
1070
   379
1070
     1
  0
ENDTAB
  0
TABLE
  2
BLOCK_RECORD
  5
1
330
0
100
AcDbSymbolTable
 70
    26
  0
BLOCK_RECORD
  5
2
102
{ACAD_XDICTIONARY
360
4CC0
102
}
330
1
100
AcDbSymbolTableRecord
100
AcDbBlockTableRecord
  2
*MODEL_SPACE
340
2A0
  0
BLOCK_RECORD
  5
26C
330
1
100
AcDbSymbolTableRecord
100
AcDbBlockTableRecord
  2
*PAPER_SPACE
340
2A1
  0
BLOCK_RECORD
  5
F61E
330
1
100
AcDbSymbolTableRecord
100
AcDbBlockTableRecord
  2
GENAXEH
340
0
  0
BLOCK_RECORD
  5
33FFD
330
1
100
AcDbSymbolTableRecord
100
AcDbBlockTableRecord
  2
AIR FLOW ARROW
340
0
102
{BLKREFS
331
3C88D
331
3DA24
102
}
  0
ENDTAB
  0
ENDSEC
  0
SECTION
  2
BLOCKS
  0
BLOCK
  5
26A
330
2
100
AcDbEntity
  8
0
100
AcDbBlockBegin
  2
*MODEL_SPACE
 70
     0
 10
0.0
 20
0.0
 30
0.0
  3
*MODEL_SPACE
  1

  0
ENDBLK
  5
26B
330
2
100
AcDbEntity
  8
0
100
AcDbBlockEnd
  0
BLOCK
  5
26D
330
26C
100
AcDbEntity
 67
     1
  8
0
100
AcDbBlockBegin
  2
*PAPER_SPACE
 70
     0
 10
0.0
 20
0.0
 30
0.0
  3
*PAPER_SPACE
  1

  0
ENDBLK
  5
26E
330
26C
100
AcDbEntity
 67
     1
  8
0
100
AcDbBlockEnd
  0
BLOCK
  5
F620
330
F61E
100
AcDbEntity
  8
0
100
AcDbBlockBegin
  2
GENAXEH
 70
     0
 10
0.0
 20
0.0
 30
0.0
  3
GENAXEH
  1

  0
LINE
  5
F61F
330
F61E
100
AcDbEntity
  8
0
100
AcDbLine
 10
-1.0
 20
0.0
 30
0.0
 11
1.0
 21
0.0
 31
0.0
  0
ENDBLK
  5
F621
330
F61E
100
AcDbEntity
  8
0
100
AcDbBlockEnd
  0
BLOCK
  5
33FFE
330
33FFD
100
AcDbEntity
  8
0
100
AcDbBlockBegin
  2
AIR FLOW ARROW
 70
     0
 10
0.0
 20
0.0
 30
0.0
  3
AIR FLOW ARROW
  1

  0
HATCH
  5
33FFF
330
33FFD
100
AcDbEntity
  8
OUTLINE
100
AcDbHatch
 10
0.0
 20
0.0
 30
0.0
210
0.0
220
0.0
230
1.0
  2
SOLID
 70
     1
 71
     0
 91
        1
 92
        1
 93
        3
 72
     1
 10
0.0
 20
-5.867757036044736
 11
-1.171875
 21
1.163492963955263
 72
     1
 10
-1.171875
 20
1.163492963955263
 11
1.171875
 21
1.163492963955263
 72
     1
 10
1.171875
 20
1.163492963955263
 11
0.0
 21
-5.867757036044736
 97
        0
 75
     0
 76
     1
 98
        1
 10
0.0
 20
0.0
450
        0
451
        0
460
0.0
461
0.0
452
        0
462
0.0
453
        0
470

  0
LINE
  5
34000
330
33FFD
100
AcDbEntity
  8
Sketch Geometry (ANSI)
100
AcDbLine
 10
1.171875
 20
1.163492963955263
 30
0.0
 11
0.0
 21
-5.867757036044736
 31
0.0
  0
LINE
  5
34001
330
33FFD
100
AcDbEntity
  8
Sketch Geometry (ANSI)
100
AcDbLine
 10
0.0
 20
-5.867757036044736
 30
0.0
 11
-1.171875
 21
1.163492963955263
 31
0.0
  0
LINE
  5
34002
330
33FFD
100
AcDbEntity
  8
Sketch Geometry (ANSI)
100
AcDbLine
 10
-1.171875
 20
1.163492963955263
 30
0.0
 11
1.171875
 21
1.163492963955263
 31
0.0
  0
LINE
  5
34003
330
33FFD
100
AcDbEntity
  8
OUTLINE
100
AcDbLine
 10
0.0
 20
1.157503906667898
 30
0.0
 11
0.0
 21
5.867757036044736
 31
0.0
  0
ENDBLK
  5
34004
330
33FFD
100
AcDbEntity
  8
0
100
AcDbBlockEnd
  0
ENDSEC
  0
SECTION
  2
ENTITIES
  0
MTEXT
  5
9148
330
2
100
AcDbEntity
  8
HEADER
 62
    50
100
AcDbMText
 10
-1508.157614002084
 20
1995.437775344196
 30
0.0
 40
25.0
 41
0.0
 71
     9
 72
     1
  1
\A1;
  7
TITLE3
 73
     1
 44
1.0
  0
MTEXT
  5
914A
330
2
100
AcDbEntity
  8
HEADER
 62
    50
100
AcDbMText
 10
-1279.26135761413
 20
2023.82828767325
 30
0.0
 40
25.0
 41
0.0
 71
     1
 72
     1
  1
\A1;
  7
TITLE3
 73
     1
 44
1.0
  0
MTEXT
  5
A77C
330
2
100
AcDbEntity
  8
TOP
 62
    50
100
AcDbMText
 10
6055.427264221703
 20
616.3630374466848
 30
0.0
 40
25.0
 41
0.0
 71
     9
 72
     1
  1
\A1;
  7
TITLE3
 73
     1
 44
1.0
  0
MTEXT
  5
A7B8
330
2
100
AcDbEntity
  8
COIL
 62
    50
100
AcDbMText
 10
4962.301697915325
 20
1642.234601772197
 30
-2.544901920109157
 40
25.0
 41
0.0
 71
     9
 72
     1
  1
\A1;
  7
TITLE3
 73
     1
 44
1.0
  0
MTEXT
  5
A7BB
330
2
100
AcDbEntity
  8
COIL
 62
    50
100
AcDbMText
 10
5040.455828708444
 20
1887.696533747417
 30
0.0
 40
25.0
 41
0.0
 71
     9
 72
     1
  1
\A1;
  7
TITLE3
 73
     1
 44
1.0
  0
MTEXT
  5
A7BF
330
2
100
AcDbEntity
  8
COIL
 62
    50
100
AcDbMText
 10
5042.521289913501
 20
2000.030574165656
 30
0.0
 40
25.0
 41
0.0
 71
     9
 72
     1
  1
\A1;
  7
TITLE3
 73
     1
 44
1.0
  0
MTEXT
  5
A7C4
330
2
100
AcDbEntity
  8
COIL
 62
    50
100
AcDbMText
 10
7224.400752102557
 20
1890.035404019621
 30
0.0
 40
25.0
 41
0.0
 71
     1
 72
     1
  1
\A1;
  7
TITLE3
 73
     1
 44
1.0
  0
TEXT
  5
129D6
330
2
100
AcDbEntity
  8
DIM
100
AcDbText
 10
44.14624651219128
 20
-1531.608486871678
 30
0.0
 40
30.0
  1
 
  7
TITLE3
100
AcDbText
  0
MTEXT
  5
1BD59
330
2
100
AcDbEntity
  8
DIM
 62
    50
100
AcDbMText
 10
27206.44614463318
 20
-4453.88820217007
 30
0.0
 40
25.0
 41
15.73949149061809
 71
     9
 72
     1
  1
\A1;
  7
TITLE3
 73
     1
 44
1.0
  0
MTEXT
  5
1BD5F
330
2
100
AcDbEntity
  8
DIM
 62
    50
100
AcDbMText
 10
27121.88920604033
 20
-4555.437118042799
 30
0.0
 40
25.0
 41
0.0
 71
     9
 72
     1
  1
\A1;
  7
TITLE3
 73
     1
 44
1.0
  0
MTEXT
  5
29C49
330
2
100
AcDbEntity
  8
DIM
 62
    50
100
AcDbMText
 10
8508.219557682489
 20
-18725.46357891275
 30
0.0
 40
25.0
 41
0.0
 71
     1
 72
     1
  1
\A1;
  7
TITLE3
 73
     1
 44
1.0
  0
MTEXT
  5
2B042
330
2
100
AcDbEntity
  8
DIM
 62
    50
100
AcDbMText
 10
4885.982802892944
 20
-19997.11274476714
 30
0.0
 40
25.0
 41
0.9442999023303855
 71
     1
 72
     1
  1
\A1;
  7
TITLE3
 73
     1
 44
1.0
  0
MTEXT
  5
2BB47
330
2
100
AcDbEntity
  8
DIM
 62
     2
100
AcDbMText
 10
18326.96915708877
 20
-21149.40245948827
 30
0.0
 40
30.0
 41
0.0
 71
     6
 72
     1
  1
\A1;
  7
TITLE3
 73
     1
 44
1.0
  0
MTEXT
  5
33249
330
2
100
AcDbEntity
  8
DIM
 62
    50
100
AcDbMText
 10
24950.75210190709
 20
-18741.53182730423
 30
0.0
 40
25.0
 41
0.9442999023303855
 71
     1
 72
     1
  1
\A1;
  7
TITLE3
 73
     1
 44
1.0
  0
LINE
  5
3765E
330
2
100
AcDbEntity
  8
Border (ISO)
370
    35
100
AcDbLine
 10
40681.84540745929
 20
-25872.89773860476
 30
0.0
 11
33500.02722564111
 21
-25872.89773860476
 31
0.0
  0
LINE
  5
3765F
330
2
100
AcDbEntity
  8
Border (ISO)
370
    35
100
AcDbLine
 10
40681.84540745929
 20
-20370.92719064903
 30
0.0
 11
40681.84540745929
 21
-25872.89773860475
 31
0.0
  0
LINE
  5
37660
330
2
100
AcDbEntity
  8
Border (ISO)
370
    35
100
AcDbLine
 10
33500.02722564111
 20
-20370.92719064903
 30
0.0
 11
40681.84540745929
 21
-20370.92719064903
 31
0.0
  0
LINE
  5
37661
330
2
100
AcDbEntity
  8
Border (ISO)
370
    35
100
AcDbLine
 10
33500.02722564111
 20
-25872.89773860476
 30
0.0
 11
33500.02722564111
 21
-20370.92719064903
 31
0.0
  0
LINE
  5
3780F
330
2
100
AcDbEntity
  8
LOGO
370
    35
100
AcDbLine
 10
39646.97882737756
 20
-25543.42625414218
 30
0.0
 11
39669.74895631669
 21
-25543.42625414218
 31
0.0
  0
LINE
  5
37810
330
2
100
AcDbEntity
  8
LOGO
370
    35
100
AcDbLine
 10
39646.97882737756
 20
-25605.96880868763
 30
0.0
 11
39669.74895631669
 21
-25605.96880868763
 31
0.0
  0
MTEXT
  5
37895
330
2
100
AcDbEntity
  8
DIM
100
AcDbMText
 10
38639.53717775941
 20
-25463.50491951161
 30
0.0
 40
55.41818250309337
 41
374.4993643327193
 71
     1
 72
     1
  1
{\fTahoma|b0|i0;\H55.4182;\LSIDE VIEW}
  7
Note Text (ANSI)
 73
     1
 44
1.0
  0
MTEXT
  5
37896
330
2
100
AcDbEntity
  8
DIM
100
AcDbMText
 10
35686.05713012352
 20
-25464.15198739256
 30
0.0
 40
55.41818250309337
 41
833.6978392167527
 71
     2
 72
     1
  1
{\H1x;\LFRONT VIEW}
  7
Note Text (ANSI)
 73
     2
 44
0.9878841638565063
  0
ARC
  5
3789A
330
2
100
AcDbEntity
  8
OUTLINE
100
AcDbCircle
 10
37903.28412045937
 20
-24904.19360694353
 30
0.0
 40
2.199999999999757
100
AcDbArc
 50
180.0
 51
270.0
  0
ARC
  5
3789B
330
2
100
AcDbEntity
  8
OUTLINE
100
AcDbCircle
 10
37903.28412045937
 20
-24904.19360694353
 30
0.0
 40
0.9999999999995434
100
AcDbArc
 50
180.0
 51
270.0
  0
LINE
  5
3789C
330
2
100
AcDbEntity
  8
OUTLINE
100
AcDbLine
 10
37903.28412045934
 20
-24906.39360694644
 30
0.0
 11
38817.28412045936
 21
-24906.39360694635
 31
0.0
  0
LINE
  5
3789D
330
2
100
AcDbEntity
  8
OUTLINE
100
AcDbLine
 10
37903.28412045934
 20
-24906.39360694644
 30
0.0
 11
37903.28412045934
 21
-24904.19360694665
 31
0.0
  0
LINE
  5
3789E
330
2
100
AcDbEntity
  8
OUTLINE
100
AcDbLine
 10
38817.28412045936
 20
-24904.19360694657
 30
0.0
 11
38817.28412045936
 21
-24906.39360694635
 31
0.0
  0
LINE
  5
3789F
330
2
100
AcDbEntity
  8
OUTLINE
100
AcDbLine
 10
38818.28412045936
 20
-24905.39360694635
 30
0.0
 11
38818.28412045936
 21
-24904.19360694647
 31
0.0
  0
LINE
  5
378A0
330
2
100
AcDbEntity
  8
OUTLINE
100
AcDbLine
 10
38819.48412045936
 20
-24904.19360694647
 30
0.0
 11
38819.48412045936
 21
-24905.39360694635
 31
0.0
  0
LINE
  5
378A1
330
2
100
AcDbEntity
  8
OUTLINE
100
AcDbLine
 10
38818.28412045936
 20
-24905.39360694635
 30
0.0
 11
38819.48412045936
 21
-24905.39360694635
 31
0.0
  0
LINE
  5
378A2
330
2
100
AcDbEntity
  8
OUTLINE
100
AcDbLine
 10
37925.88412048502
 20
-24874.19360694643
 30
0.0
 11
38785.48412045936
 21
-24874.19360694635
 31
0.0
  0
ARC
  5
378A4
330
2
100
AcDbEntity
  8
OUTLINE
100
AcDbCircle
 10
39567.88412045943
 20
-24904.19360694607
 30
0.0
 40
2.20000000000021
100
AcDbArc
 50
270.0
 51
0.0
  0
LINE
  5
378A6
330
2
100
AcDbEntity
  8
OUTLINE
100
AcDbLine
 10
38822.88412045936
 20
-24904.19360694633
 30
0.0
 11
38822.88412045936
 21
-24906.39360694614
 31
0.0
  0
LINE
  5
378A7
330
2
100
AcDbEntity
  8
OUTLINE
100
AcDbLine
 10
39567.88412045943
 20
-24906.39360694607
 30
0.0
 11
38822.88412045936
 21
-24906.39360694614
 31
0.0
  0
ARC
  5
378A8
330
2
100
AcDbEntity
  8
OUTLINE
100
AcDbCircle
 10
38822.88412045936
 20
-24904.19360694614
 30
0.0
 40
0.9999999999998246
100
AcDbArc
 50
180.0
 51
270.0
  0
ARC
  5
378A9
330
2
100
AcDbEntity
  8
OUTLINE
100
AcDbCircle
 10
38822.88412045936
 20
-24904.19360694613
 30
0.0
 40
2.200000000000238
100
AcDbArc
 50
180.0
 51
270.0
  0
LINE
  5
378AA
330
2
100
AcDbEntity
  8
OUTLINE
100
AcDbLine
 10
39406.88412045942
 20
-24906.39360694608
 30
0.0
 11
39406.8841204593
 21
-23642.99360686432
 31
0.0
  0
LINE
  5
378B1
330
2
100
AcDbEntity
  8
OUTLINE
100
AcDbLine
 10
39571.2841204593
 20
-23615.99360694629
 30
0.0
 11
39570.88412045925
 21
-23615.99360694641
 31
0.0
  0
LINE
  5
378B2
330
2
100
AcDbEntity
  8
OUTLINE
100
AcDbLine
 10
39571.2841204593
 20
-23615.99360694629
 30
0.0
 11
39571.28412045943
 21
-24904.19360694618
 31
0.0
  0
LINE
  5
378B3
330
2
100
AcDbEntity
  8
OUTLINE
100
AcDbLine
 10
39571.28412045943
 20
-24904.19360694618
 30
0.0
 11
39569.08412045942
 21
-24904.19360694639
 31
0.0
  0
LINE
  5
378B7
330
2
100
AcDbEntity
  8
OUTLINE
100
AcDbLine
 10
38758.28412045939
 20
-24873.19360694393
 30
0.0
 11
38782.28412045939
 21
-24873.19360694393
 31
0.0
  0
LINE
  5
378B8
330
2
100
AcDbEntity
  8
OUTLINE
100
AcDbLine
 10
38758.28412045939
 20
-24873.19360694393
 30
0.0
 11
38758.28412045927
 21
-23642.99360686426
 31
0.0
  0
LINE
  5
378B9
330
2
100
AcDbEntity
  8
OUTLINE
100
AcDbLine
 10
38782.28412045939
 20
-24873.19360694393
 30
0.0
 11
38783.28412045939
 21
-24873.19360694403
 31
0.0
  0
LINE
  5
378BA
330
2
100
AcDbEntity
  8
OUTLINE
100
AcDbLine
 10
38783.28412045925
 20
-23642.99360686425
 30
0.0
 11
38783.28412045937
 21
-24873.19360694626
 31
0.0
  0
LINE
  5
378BB
330
2
100
AcDbEntity
  8
OUTLINE
100
AcDbLine
 10
38785.48412045936
 20
-24873.19360694647
 30
0.0
 11
38783.28412045937
 21
-24873.19360694626
 31
0.0
  0
LINE
  5
378BC
330
2
100
AcDbEntity
  8
OUTLINE
100
AcDbLine
 10
38785.49412045936
 20
-24873.19360694647
 30
0.0
 11
38785.48412045936
 21
-24873.19360694647
 31
0.0
  0
LINE
  5
378BD
330
2
100
AcDbEntity
  8
OUTLINE
100
AcDbLine
 10
38785.48412045936
 20
-24873.20360694647
 30
0.0
 11
38785.49412045936
 21
-24873.20360694647
 31
0.0
  0
LINE
  5
378BE
330
2
100
AcDbEntity
  8
OUTLINE
100
AcDbLine
 10
38785.49412045936
 20
-24873.20360694647
 30
0.0
 11
38785.49412045936
 21
-24873.19360694647
 31
0.0
  0
LINE
  5
378BF
330
2
100
AcDbEntity
  8
OUTLINE
100
AcDbLine
 10
38785.48412045936
 20
-24873.20360694647
 30
0.0
 11
38785.48412045937
 21
-24904.19360694647
 31
0.0
  0
LINE
  5
378C0
330
2
100
AcDbEntity
  8
OUTLINE
100
AcDbLine
 10
38785.48412045937
 20
-24904.19360694647
 30
0.0
 11
38844.58412045937
 21
-24904.19360694646
 31
0.0
  0
LINE
  5
378C1
330
2
100
AcDbEntity
  8
OUTLINE
100
AcDbLine
 10
38846.78412045935
 20
-24906.39360694614
 30
0.0
 11
38846.78412045925
 21
-23642.99360686425
 31
0.0
  0
LINE
  5
3793C
330
2
100
AcDbEntity
  8
OUTLINE
100
AcDbLine
 10
37952.08412048429
 20
-24849.19360694317
 30
0.0
 11
38758.28412045938
 21
-24849.19360694313
 31
0.0
  0
LINE
  5
3793D
330
2
100
AcDbEntity
  8
OUTLINE
100
AcDbLine
 10
38820.68412045937
 20
-24906.3081996699
 30
0.0
 11
38819.48412045937
 21
-24906.3081996699
 31
0.0
  0
LINE
  5
3793E
330
2
100
AcDbEntity
  8
OUTLINE
100
AcDbLine
 10
38819.48412045943
 20
-24906.30819965025
 30
0.0
 11
38819.48412045943
 21
-24906.39360694608
 31
0.0
  0
LINE
  5
3793F
330
2
100
AcDbEntity
  8
OUTLINE
100
AcDbLine
 10
38820.68412045942
 20
-24906.39360694608
 30
0.0
 11
38820.68412045942
 21
-24906.30819965025
 31
0.0
  0
LINE
  5
37940
330
2
100
AcDbEntity
  8
OUTLINE
100
AcDbLine
 10
38819.48412045937
 20
-24906.3081996699
 30
0.0
 11
38819.48412045937
 21
-24905.39360694634
 31
0.0
  0
LINE
  5
37941
330
2
100
AcDbEntity
  8
OUTLINE
100
AcDbLine
 10
38820.68412045937
 20
-24904.19360694645
 30
0.0
 11
38820.68412045937
 21
-24906.3081996699
 31
0.0
  0
LINE
  5
37A47
330
2
100
AcDbEntity
  8
OUTLINE
100
AcDbLine
 10
37899.88412048497
 20
-24904.19360694656
 30
0.0
 11
37902.08412048504
 21
-24904.19360694677
 31
0.0
  0
LINE
  5
37A48
330
2
100
AcDbEntity
  8
OUTLINE
100
AcDbLine
 10
37925.88412048504
 20
-24904.19360694677
 30
0.0
 11
37902.08412048504
 21
-24904.19360694677
 31
0.0
  0
ARC
  5
37A4E
330
2
100
AcDbEntity
  8
OUTLINE
100
AcDbCircle
 10
37902.08412048484
 20
-23616.19360694619
 30
0.0
 40
2.200000000000266
100
AcDbArc
 50
144.9031999430837
 51
174.5349903682968
  0
LINE
  5
37A51
330
2
100
AcDbEntity
  8
OUTLINE
100
AcDbLine
 10
37899.88412048497
 20
-24904.19360694656
 30
0.0
 11
37899.88412048492
 21
-23616.1936069464
 31
0.0
  0
LINE
  5
37A54
330
2
100
AcDbEntity
  8
OUTLINE
100
AcDbLine
 10
37925.88412048504
 20
-24904.19360694677
 30
0.0
 11
37925.88412048504
 21
-24873.19360694677
 31
0.0
  0
LINE
  5
37A57
330
2
100
AcDbEntity
  8
OUTLINE
100
AcDbLine
 10
37952.08412048429
 20
-24874.19360694643
 30
0.0
 11
37952.08412048424
 21
-23642.99360686433
 31
0.0
  0
LINE
  5
37A5B
330
2
100
AcDbEntity
  8
OUTLINE
100
AcDbLine
 10
37838.67412045995
 20
-23871.49560685733
 30
0.0
 11
37838.67412045995
 21
-23872.70560685745
 31
0.0
  0
LINE
  5
37A5C
330
2
100
AcDbEntity
  8
OUTLINE
100
AcDbLine
 10
37898.67412045995
 20
-23871.49560685733
 30
0.0
 11
37838.67412045995
 21
-23871.49560685733
 31
0.0
  0
LINE
  5
37A5E
330
2
100
AcDbEntity
  8
OUTLINE
100
AcDbLine
 10
37838.67412045996
 20
-23871.49560685733
 30
0.0
 11
37838.67412045998
 21
-24642.68574345097
 31
0.0
  0
LINE
  5
37A65
330
2
100
AcDbEntity
  8
OUTLINE
100
AcDbLine
 10
37838.67412045998
 20
-24642.68574345097
 30
0.0
 11
37838.68412045999
 21
-24642.68574345097
 31
0.0
  0
LINE
  5
37A6F
330
2
100
AcDbEntity
  8
OUTLINE
100
AcDbLine
 10
37838.68412045999
 20
-24617.69574344826
 30
0.0
 11
37838.68412045999
 21
-24642.68574344826
 31
0.0
  0
LINE
  5
37A72
330
2
100
AcDbEntity
  8
OUTLINE
100
AcDbLine
 10
37838.68412045999
 20
-24643.89574344814
 30
0.0
 11
37898.66412045999
 21
-24643.89574344814
 31
0.0
  0
LINE
  5
37A73
330
2
100
AcDbEntity
  8
OUTLINE
100
AcDbLine
 10
37838.68412045999
 20
-24642.68574344826
 30
0.0
 11
37838.68412045999
 21
-24643.89574344814
 31
0.0
  0
LINE
  5
37A74
330
2
100
AcDbEntity
  8
OUTLINE
100
AcDbLine
 10
37838.68412045999
 20
-24642.69574344814
 30
0.0
 11
37838.67412045998
 21
-24642.69574344814
 31
0.0
  0
LINE
  5
37A75
330
2
100
AcDbEntity
  8
OUTLINE
100
AcDbLine
 10
37838.67412045998
 20
-24643.89574344814
 30
0.0
 11
37838.68412045999
 21
-24643.89574344814
 31
0.0
  0
LINE
  5
37A76
330
2
100
AcDbEntity
  8
OUTLINE
100
AcDbLine
 10
37838.67412045998
 20
-24642.69574344814
 30
0.0
 11
37838.67412045998
 21
-24643.89574344814
 31
0.0
  0
LINE
  5
37A7A
330
2
100
AcDbEntity
  8
OUTLINE
100
AcDbLine
 10
37838.67412045609
 20
-24642.6957434073
 30
0.0
 11
37838.67412045609
 21
-24642.6857434073
 31
0.0
  0
LINE
  5
37E76
330
2
100
AcDbEntity
  8
OUTLINE
100
AcDbLine
 10
37900.28412045921
 20
-23642.99360686433
 30
0.0
 11
39570.88412045925
 21
-23642.99360686421
 31
0.0
  0
LINE
  5
37E77
330
2
100
AcDbEntity
  8
OUTLINE
100
AcDbLine
 10
37900.2841204592
 20
-23613.99360686433
 30
0.0
 11
37900.28412045921
 21
-23642.99360686433
 31
0.0
  0
LINE
  5
37E78
330
2
100
AcDbEntity
  8
OUTLINE
100
AcDbLine
 10
39570.88412045925
 20
-23642.99360686421
 30
0.0
 11
39570.88412045925
 21
-23613.99360686421
 31
0.0
  0
LINE
  5
37E79
330
2
100
AcDbEntity
  8
OUTLINE
100
AcDbLine
 10
39570.88412045925
 20
-23613.99360686421
 30
0.0
 11
39570.88412045925
 21
-23611.79360686412
 31
0.0
  0
LINE
  5
37E7A
330
2
100
AcDbEntity
  8
OUTLINE
100
AcDbLine
 10
37900.2841204592
 20
-23613.99360686433
 30
0.0
 11
37900.28412045921
 21
-23611.79360686425
 31
0.0
  0
LINE
  5
37E7B
330
2
100
AcDbEntity
  8
OUTLINE
100
AcDbLine
 10
37900.28412045921
 20
-23611.79360686425
 30
0.0
 11
39570.88412045925
 21
-23611.79360686412
 31
0.0
  0
LINE
  5
37E87
330
2
100
AcDbEntity
  8
OUTLINE
100
AcDbLine
 10
37938.23412045947
 20
-24989.99360694692
 30
0.0
 11
37938.23412045946
 21
-24922.99360694643
 31
0.0
  0
LINE
  5
37E88
330
2
100
AcDbEntity
  8
OUTLINE
100
AcDbLine
 10
37961.73412045942
 20
-24989.99360694691
 30
0.0
 11
37961.73412045941
 21
-24922.99360694643
 31
0.0
  0
LINE
  5
37E90
330
2
100
AcDbEntity
  8
OUTLINE
100
AcDbLine
 10
39531.73412045946
 20
-24922.99360694627
 30
0.0
 11
39531.73412045947
 21
-24989.99360694677
 31
0.0
  0
LINE
  5
37E91
330
2
100
AcDbEntity
  8
OUTLINE
100
AcDbLine
 10
39508.23412045942
 20
-24922.99360694628
 30
0.0
 11
39508.23412045942
 21
-24989.99360694677
 31
0.0
  0
LINE
  5
37EA7
330
2
100
AcDbEntity
  8
OUTLINE
100
AcDbLine
 10
37900.48412045941
 20
-24915.99360694644
 30
0.0
 11
37907.48412045942
 21
-24922.99360694643
 31
0.0
  0
LINE
  5
37EA8
330
2
100
AcDbEntity
  8
OUTLINE
100
AcDbLine
 10
37900.48412045941
 20
-24908.99360694644
 30
0.0
 11
37900.48412045941
 21
-24915.99360694644
 31
0.0
  0
LINE
  5
37EA9
330
2
100
AcDbEntity
  8
OUTLINE
100
AcDbLine
 10
39569.48412045941
 20
-24915.99360694628
 30
0.0
 11
39569.4841204594
 21
-24908.99360694628
 31
0.0
  0
LINE
  5
37EAA
330
2
100
AcDbEntity
  8
OUTLINE
100
AcDbLine
 10
39562.4841204594
 20
-24922.99360694628
 30
0.0
 11
39569.48412045941
 21
-24915.99360694628
 31
0.0
  0
LINE
  5
37EAB
330
2
100
AcDbEntity
  8
OUTLINE
100
AcDbLine
 10
37907.48412045942
 20
-24922.99360694644
 30
0.0
 11
39562.4841204594
 21
-24922.99360694628
 31
0.0
  0
LINE
  5
37EB4
330
2
100
AcDbEntity
  8
OUTLINE
100
AcDbLine
 10
37851.48412045947
 20
-24908.99360694048
 30
0.0
 11
37844.48412045947
 21
-24915.99360694048
 31
0.0
  0
LINE
  5
37EB5
330
2
100
AcDbEntity
  8
OUTLINE
100
AcDbLine
 10
37851.48412045941
 20
-24989.99360694692
 30
0.0
 11
37844.48412045942
 21
-24996.99360694692
 31
0.0
  0
LINE
  5
37EB6
330
2
100
AcDbEntity
  8
OUTLINE
100
AcDbLine
 10
39625.48412045941
 20
-24996.99360694675
 30
0.0
 11
39618.48412045941
 21
-24989.99360694675
 31
0.0
  0
LINE
  5
37EB7
330
2
100
AcDbEntity
  8
OUTLINE
100
AcDbLine
 10
39625.48412045947
 20
-24915.99360694031
 30
0.0
 11
39618.48412045947
 21
-24908.99360694031
 31
0.0
  0
LINE
  5
37EB8
330
2
100
AcDbEntity
  8
OUTLINE
100
AcDbLine
 10
37900.48412045947
 20
-24908.99360694047
 30
0.0
 11
37851.48412045947
 21
-24908.99360694048
 31
0.0
  0
LINE
  5
37EB9
330
2
100
AcDbEntity
  8
OUTLINE
100
AcDbLine
 10
39618.48412045947
 20
-24908.99360694031
 30
0.0
 11
39569.48412045946
 21
-24908.99360694032
 31
0.0
  0
CIRCLE
  5
37EBA
330
2
100
AcDbEntity
  8
OUTLINE
100
AcDbCircle
 10
37870.48412045947
 20
-24956.49360694047
 30
0.0
 40
15.99999999999995
  0
CIRCLE
  5
37EBB
330
2
100
AcDbEntity
  8
OUTLINE
100
AcDbCircle
 10
39599.48412045947
 20
-24956.49360694031
 30
0.0
 40
15.99999999999995
  0
LINE
  5
37ECE
330
2
100
AcDbEntity
  8
OUTLINE
100
AcDbLine
 10
39625.48412045947
 20
-24996.9936069466
 30
0.0
 11
39625.48412045947
 21
-24915.99360694031
 31
0.0
  0
LINE
  5
37ECF
330
2
100
AcDbEntity
  8
OUTLINE
100
AcDbLine
 10
37844.48412045947
 20
-24915.99360694048
 30
0.0
 11
37844.48412045948
 21
-24996.99360694677
 31
0.0
  0
LINE
  5
37ED0
330
2
100
AcDbEntity
  8
OUTLINE
100
AcDbLine
 10
39618.48412045941
 20
-24989.99360694675
 30
0.0
 11
37851.48412045941
 21
-24989.99360694692
 31
0.0
  0
LINE
  5
37ED1
330
2
100
AcDbEntity
  8
OUTLINE
100
AcDbLine
 10
39625.48412045941
 20
-25003.99360694675
 30
0.0
 11
39625.48412045941
 21
-24996.99360694675
 31
0.0
  0
LINE
  5
37ED2
330
2
100
AcDbEntity
  8
OUTLINE
100
AcDbLine
 10
37844.48412045942
 20
-24996.99360694692
 30
0.0
 11
37844.48412045942
 21
-25003.99360694696
 31
0.0
  0
LINE
  5
37ED3
330
2
100
AcDbEntity
  8
OUTLINE
100
AcDbLine
 10
37900.48412045941
 20
-24908.99360694644
 30
0.0
 11
37900.48412045941
 21
-24906.39360694618
 31
0.0
  0
LINE
  5
37ED4
330
2
100
AcDbEntity
  8
OUTLINE
100
AcDbLine
 10
37900.48412045941
 20
-24906.39360694618
 30
0.0
 11
37903.28412045937
 21
-24906.39360694618
 31
0.0
  0
LINE
  5
37ED5
330
2
100
AcDbEntity
  8
OUTLINE
100
AcDbLine
 10
38817.28412045937
 20
-24906.3936069461
 30
0.0
 11
38822.88412045943
 21
-24906.3936069461
 31
0.0
  0
LINE
  5
37ED6
330
2
100
AcDbEntity
  8
OUTLINE
100
AcDbLine
 10
39567.88412045943
 20
-24906.39360694603
 30
0.0
 11
39569.48412045941
 21
-24906.39360694603
 31
0.0
  0
LINE
  5
37ED7
330
2
100
AcDbEntity
  8
OUTLINE
100
AcDbLine
 10
39569.48412045941
 20
-24906.39360694603
 30
0.0
 11
39569.4841204594
 21
-24908.99360694628
 31
0.0
  0
LINE
  5
37ED8
330
2
100
AcDbEntity
  8
OUTLINE
100
AcDbLine
 10
39625.48412045941
 20
-25003.99360694675
 30
0.0
 11
39625.48412045941
 21
-25006.5936069465
 31
0.0
  0
LINE
  5
37ED9
330
2
100
AcDbEntity
  8
OUTLINE
100
AcDbLine
 10
39625.48412045941
 20
-25006.5936069465
 30
0.0
 11
37844.48412045942
 21
-25006.59360694667
 31
0.0
  0
LINE
  5
37EDA
330
2
100
AcDbEntity
  8
OUTLINE
100
AcDbLine
 10
37844.48412045942
 20
-25003.99360694696
 30
0.0
 11
37844.48412045942
 21
-25006.59360694667
 31
0.0
  0
LINE
  5
3990B
330
2
100
AcDbEntity
  8
OUTLINE
100
AcDbLine
 10
39537.48412045944
 20
-25005.7936069435
 30
0.0
 11
39537.48412045944
 21
-24980.7936069435
 31
0.0
  0
LINE
  5
3990C
330
2
100
AcDbEntity
  8
OUTLINE
100
AcDbLine
 10
39537.48412045944
 20
-25005.7936069435
 30
0.0
 11
39537.48412045944
 21
-25030.79360694351
 31
0.0
  0
LINE
  5
3990E
330
2
100
AcDbEntity
  8
OUTLINE
100
AcDbLine
 10
37932.48412045944
 20
-25005.79360694366
 30
0.0
 11
37932.48412045944
 21
-24980.79360694366
 31
0.0
  0
LINE
  5
3990F
330
2
100
AcDbEntity
  8
OUTLINE
100
AcDbLine
 10
37932.48412045944
 20
-25005.79360694366
 30
0.0
 11
37932.48412045944
 21
-25030.79360694365
 31
0.0
  0
LINE
  5
3AD1C
330
2
100
AcDbEntity
  8
OUTLINE
100
AcDbLine
 10
36375.09214744401
 20
-24906.39360681109
 30
0.0
 11
35043.09214744387
 21
-24906.39360694027
 31
0.0
  0
ARC
  5
3AD1F
330
2
100
AcDbEntity
  8
OUTLINE
100
AcDbCircle
 10
34979.49214744366
 20
-24904.19360694644
 30
0.0
 40
2.200000000000217
100
AcDbArc
 50
180.0
 51
270.0000000058363
  0
LINE
  5
3AD24
330
2
100
AcDbEntity
  8
OUTLINE
100
AcDbLine
 10
34979.49214744388
 20
-24906.39360694644
 30
0.0
 11
34979.89214744372
 21
-24906.3936069464
 31
0.0
  0
LINE
  5
3AFBC
330
2
100
AcDbEntity
  8
OUTLINE
100
AcDbLine
 10
36415.49214703104
 20
-23611.79360680786
 30
0.0
 11
36415.49214703013
 21
-23608.99360679909
 31
0.0
  0
LINE
  5
3BB1B
330
2
100
AcDbEntity
  8
OUTLINE
100
AcDbLine
 10
34978.29214769088
 20
-24904.19360694656
 30
0.0
 11
35765.79214769088
 21
-24904.19360687018
 31
0.0
  0
LINE
  5
3BB1C
330
2
100
AcDbEntity
  8
OUTLINE
100
AcDbLine
 10
34978.29214769088
 20
-24904.19360694656
 30
0.0
 11
34976.09214769096
 21
-24904.19360694677
 31
0.0
  0
LINE
  5
3BB1D
330
2
100
AcDbEntity
  8
OUTLINE
100
AcDbLine
 10
34976.09214756603
 20
-23616.19360694661
 30
0.0
 11
34976.49214736593
 21
-23616.19360694657
 31
0.0
  0
LINE
  5
3BB1E
330
2
100
AcDbEntity
  8
OUTLINE
100
AcDbLine
 10
34976.09214756603
 20
-23616.19360694661
 30
0.0
 11
34976.09214769096
 21
-24904.19360694677
 31
0.0
  0
LINE
  5
3BB20
330
2
100
AcDbEntity
  8
OUTLINE
100
AcDbLine
 10
35767.99214769119
 20
-24906.39360686996
 30
0.0
 11
35767.99214756863
 21
-23642.99360683323
 31
0.0
  0
CIRCLE
  5
3BB23
330
2
100
AcDbEntity
  8
OUTLINE
100
AcDbCircle
 10
35599.79214768128
 20
-24805.19360688627
 30
0.0
 40
21.00000000000254
  0
LINE
  5
3BB57
330
2
100
AcDbEntity
  8
OUTLINE
100
AcDbLine
 10
35884.59214751999
 20
-24904.19360685866
 30
0.0
 11
36434.69214752004
 21
-24904.1936068053
 31
0.0
  0
LINE
  5
3BB73
330
2
100
AcDbEntity
  8
OUTLINE
100
AcDbLine
 10
36436.89214752007
 20
-24904.19360680509
 30
0.0
 11
36436.89214739503
 21
-23616.19360680506
 31
0.0
  0
LINE
  5
3BB74
330
2
100
AcDbEntity
  8
OUTLINE
100
AcDbLine
 10
36436.89214739503
 20
-23616.19360680506
 30
0.0
 11
36436.49214736598
 21
-23616.1936068051
 31
0.0
  0
LINE
  5
3BB76
330
2
100
AcDbEntity
  8
OUTLINE
100
AcDbLine
 10
35882.39214739759
 20
-23642.99360682875
 30
0.0
 11
35882.39214752021
 21
-24906.39360685888
 31
0.0
  0
LINE
  5
3C31B
330
2
100
AcDbEntity
  8
OUTLINE
100
AcDbLine
 10
36437.49214736712
 20
-23642.99360680699
 30
0.0
 11
36438.69214736711
 21
-23642.99360680695
 31
0.0
  0
LINE
  5
3C31C
330
2
100
AcDbEntity
  8
OUTLINE
100
AcDbLine
 10
36438.69214736711
 20
-23642.99360680695
 30
0.0
 11
36438.69214736598
 21
-23613.99360680686
 31
0.0
  0
LINE
  5
3C31D
330
2
100
AcDbEntity
  8
OUTLINE
100
AcDbLine
 10
36437.49214736712
 20
-23642.99360680699
 30
0.0
 11
36437.49214736598
 21
-23613.9936068069
 31
0.0
  0
ARC
  5
3C31E
330
2
100
AcDbEntity
  8
OUTLINE
100
AcDbCircle
 10
36436.49214736598
 20
-23613.99360680703
 30
0.0
 40
0.9999999999997395
100
AcDbArc
 50
0.0
 51
90.0000000025013
  0
ARC
  5
3C31F
330
2
100
AcDbEntity
  8
OUTLINE
100
AcDbCircle
 10
36436.49214736598
 20
-23613.99360680703
 30
0.0
 40
2.20000000000014
100
AcDbArc
 50
0.0
 51
90.0000000025013
  0
LINE
  5
3C320
330
2
100
AcDbEntity
  8
OUTLINE
100
AcDbLine
 10
36436.49214736598
 20
-23613.99360680703
 30
0.0
 11
36436.49214736589
 21
-23611.79360680703
 31
0.0
  0
LINE
  5
3C321
330
2
100
AcDbEntity
  8
OUTLINE
100
AcDbLine
 10
34976.49214736585
 20
-23613.99360686425
 30
0.0
 11
34976.49214736576
 21
-23611.79360686425
 31
0.0
  0
LINE
  5
3C322
330
2
100
AcDbEntity
  8
OUTLINE
100
AcDbLine
 10
36436.49214736589
 20
-23611.79360680703
 30
0.0
 11
34976.49214736576
 21
-23611.79360686425
 31
0.0
  0
LINE
  5
3C323
330
2
100
AcDbEntity
  8
OUTLINE
100
AcDbLine
 10
36436.49214736598
 20
-23613.99360680703
 30
0.0
 11
36436.49214736711
 21
-23642.99360680703
 31
0.0
  0
LINE
  5
3C324
330
2
100
AcDbEntity
  8
OUTLINE
100
AcDbLine
 10
36436.49214736711
 20
-23642.99360680703
 30
0.0
 11
34976.49214736698
 21
-23642.99360686425
 31
0.0
  0
LINE
  5
3C325
330
2
100
AcDbEntity
  8
OUTLINE
100
AcDbLine
 10
34976.49214736698
 20
-23642.99360686425
 30
0.0
 11
34976.49214736585
 21
-23613.99360686425
 31
0.0
  0
LINE
  5
3C326
330
2
100
AcDbEntity
  8
OUTLINE
100
AcDbLine
 10
34975.49214736698
 20
-23642.99360686429
 30
0.0
 11
34974.29214736698
 21
-23642.99360686433
 31
0.0
  0
LINE
  5
3C327
330
2
100
AcDbEntity
  8
OUTLINE
100
AcDbLine
 10
34974.29214736585
 20
-23613.99360686433
 30
0.0
 11
34974.29214736698
 21
-23642.99360686433
 31
0.0
  0
LINE
  5
3C328
330
2
100
AcDbEntity
  8
OUTLINE
100
AcDbLine
 10
34975.49214736585
 20
-23613.99360686429
 30
0.0
 11
34975.49214736698
 21
-23642.99360686429
 31
0.0
  0
ARC
  5
3C329
330
2
100
AcDbEntity
  8
OUTLINE
100
AcDbCircle
 10
34976.49214736585
 20
-23613.99360686425
 30
0.0
 40
1.000000000000085
100
AcDbArc
 50
90.0000000025013
 51
180.0
  0
ARC
  5
3C32A
330
2
100
AcDbEntity
  8
OUTLINE
100
AcDbCircle
 10
34976.49214736585
 20
-23613.99360686425
 30
0.0
 40
2.200000000000188
100
AcDbArc
 50
90.0000000025013
 51
180.0
  0
LINE
  5
3C4F7
330
2
100
AcDbEntity
  8
OUTLINE
100
AcDbLine
 10
34978.8921474448
 20
-24915.99360694628
 30
0.0
 11
34978.89214744412
 21
-24908.99360694628
 31
0.0
  0
LINE
  5
3C4F8
330
2
100
AcDbEntity
  8
OUTLINE
100
AcDbLine
 10
34978.89214744547
 20
-24922.99360694628
 30
0.0
 11
34978.8921474448
 21
-24915.99360694628
 31
0.0
  0
LINE
  5
3C4F9
330
2
100
AcDbEntity
  8
OUTLINE
100
AcDbLine
 10
34977.2921474448
 20
-24915.99360694644
 30
0.0
 11
34977.29214744547
 21
-24922.99360694643
 31
0.0
  0
LINE
  5
3C4FA
330
2
100
AcDbEntity
  8
OUTLINE
100
AcDbLine
 10
34977.29214744413
 20
-24908.99360694644
 30
0.0
 11
34977.2921474448
 21
-24915.99360694644
 31
0.0
  0
LINE
  5
3C4FB
330
2
100
AcDbEntity
  8
OUTLINE
100
AcDbLine
 10
34977.29214744547
 20
-24922.99360694643
 30
0.0
 11
34978.89214744547
 21
-24922.99360694628
 31
0.0
  0
LINE
  5
3C4FD
330
2
100
AcDbEntity
  8
OUTLINE
100
AcDbLine
 10
35038.89214744419
 20
-24908.99360694048
 30
0.0
 11
35038.89214744489
 21
-24915.99360694048
 31
0.0
  0
LINE
  5
3C4FF
330
2
100
AcDbEntity
  8
OUTLINE
100
AcDbLine
 10
35040.49214744488
 20
-24915.99360694032
 30
0.0
 11
35040.4921474442
 21
-24908.99360694033
 31
0.0
  0
LINE
  5
3C500
330
2
100
AcDbEntity
  8
OUTLINE
100
AcDbLine
 10
35040.4921474442
 20
-24908.99360694033
 30
0.0
 11
35038.89214744419
 21
-24908.99360694048
 31
0.0
  0
LINE
  5
3C501
330
2
100
AcDbEntity
  8
OUTLINE
100
AcDbLine
 10
34972.29214745204
 20
-24989.99360694692
 30
0.0
 11
34972.29214745273
 21
-24996.99360694692
 31
0.0
  0
LINE
  5
3C503
330
2
100
AcDbEntity
  8
OUTLINE
100
AcDbLine
 10
34973.89214745273
 20
-24996.99360694677
 30
0.0
 11
34973.89214745203
 21
-24989.99360694677
 31
0.0
  0
LINE
  5
3C504
330
2
100
AcDbEntity
  8
OUTLINE
100
AcDbLine
 10
34973.89214745203
 20
-24989.99360694677
 30
0.0
 11
34972.29214745204
 21
-24989.99360694692
 31
0.0
  0
LINE
  5
3C505
330
2
100
AcDbEntity
  8
OUTLINE
100
AcDbLine
 10
35040.49214745341
 20
-25003.99360694032
 30
0.0
 11
35040.49214744488
 21
-24915.99360694032
 31
0.0
  0
LINE
  5
3C506
330
2
100
AcDbEntity
  8
OUTLINE
100
AcDbLine
 10
35038.89214744489
 20
-24915.99360694048
 30
0.0
 11
35038.89214745341
 21
-25003.99360694047
 31
0.0
  0
LINE
  5
3C507
330
2
100
AcDbEntity
  8
OUTLINE
100
AcDbLine
 10
34973.89214745273
 20
-24996.99360694677
 30
0.0
 11
34973.8921474534
 21
-25003.9936069468
 31
0.0
  0
LINE
  5
3C508
330
2
100
AcDbEntity
  8
OUTLINE
100
AcDbLine
 10
34972.29214745273
 20
-24996.99360694692
 30
0.0
 11
34972.29214745341
 21
-25003.99360694696
 31
0.0
  0
ARC
  5
3C509
330
2
100
AcDbEntity
  8
OUTLINE
100
AcDbCircle
 10
34979.89214744412
 20
-24908.99360694618
 30
0.0
 40
2.600000000000389
100
AcDbArc
 50
90.00000000583636
 51
180.0
  0
ARC
  5
3C50A
330
2
100
AcDbEntity
  8
OUTLINE
100
AcDbCircle
 10
34979.89214744412
 20
-24908.99360694618
 30
0.0
 40
1.000000000000192
100
AcDbArc
 50
90.00000000583636
 51
180.0
  0
ARC
  5
3C50B
330
2
100
AcDbEntity
  8
OUTLINE
100
AcDbCircle
 10
34974.8921474534
 20
-25003.99360694667
 30
0.0
 40
1.000000000000107
100
AcDbArc
 50
180.0
 51
270.0000000058363
  0
ARC
  5
3C50C
330
2
100
AcDbEntity
  8
OUTLINE
100
AcDbCircle
 10
34974.8921474534
 20
-25003.99360694667
 30
0.0
 40
2.600000000000302
100
AcDbArc
 50
180.0
 51
270.0000000058363
  0
LINE
  5
3C50D
330
2
100
AcDbEntity
  8
OUTLINE
100
AcDbLine
 10
34974.89214745365
 20
-25006.59360694667
 30
0.0
 11
35037.89214745371
 21
-25006.59360694057
 31
0.0
  0
LINE
  5
3C50E
330
2
100
AcDbEntity
  8
OUTLINE
100
AcDbLine
 10
34974.8921474535
 20
-25004.99360694667
 30
0.0
 11
35037.89214745355
 21
-25004.99360694057
 31
0.0
  0
ARC
  5
3C50F
330
2
100
AcDbEntity
  8
OUTLINE
100
AcDbCircle
 10
35037.89214745342
 20
-25003.99360694057
 30
0.0
 40
1.000000000000115
100
AcDbArc
 50
270.0000000075038
 51
0.0
  0
ARC
  5
3C510
330
2
100
AcDbEntity
  8
OUTLINE
100
AcDbCircle
 10
35037.89214745342
 20
-25003.99360694057
 30
0.0
 40
2.600000000000303
100
AcDbArc
 50
270.0000000066701
 51
0.0
  0
LINE
  5
3C512
330
2
100
AcDbEntity
  8
OUTLINE
100
AcDbLine
 10
35037.89214744403
 20
-24907.99360694057
 30
0.0
 11
34979.89214744403
 21
-24907.99360694619
 31
0.0
  0
ARC
  5
3C513
330
2
100
AcDbEntity
  8
OUTLINE
100
AcDbCircle
 10
35037.89214744413
 20
-24908.99360694057
 30
0.0
 40
1.000000000000126
100
AcDbArc
 50
0.0
 51
90.00000000583636
  0
LINE
  5
3C533
330
2
100
AcDbEntity
  8
OUTLINE
100
AcDbLine
 10
35043.92132599404
 20
-25006.59360693997
 30
0.0
 11
35043.09214745357
 21
-25006.59360694007
 31
0.0
  0
LINE
  5
3C536
330
2
100
AcDbEntity
  8
OUTLINE
100
AcDbLine
 10
35043.09214745357
 20
-25006.59360694008
 30
0.0
 11
35043.09214745341
 21
-25004.99360694007
 31
0.0
  0
LINE
  5
3C5A9
330
2
100
AcDbEntity
  8
OUTLINE
100
AcDbLine
 10
35043.09214745327
 20
-25003.99360694006
 30
0.0
 11
35043.09214745335
 21
-25004.99360694005
 31
0.0
  0
LINE
  5
3C5AC
330
2
100
AcDbEntity
  8
OUTLINE
100
AcDbLine
 10
35043.09214744401
 20
-24907.99360694007
 30
0.0
 11
35043.09214744387
 21
-24906.39360694006
 31
0.0
  0
LINE
  5
3C620
330
2
100
AcDbEntity
  8
OUTLINE
100
AcDbLine
 10
35043.09214744405
 20
-24908.99360694006
 30
0.0
 11
35043.09214744395
 21
-24907.99360694006
 31
0.0
  0
LINE
  5
3C6D3
330
2
100
AcDbEntity
  8
OUTLINE
100
AcDbLine
 10
35040.49214745341
 20
-25003.99360694032
 30
0.0
 11
35042.0921474534
 21
-25003.99360694016
 31
0.0
  0
LINE
  5
3C6D8
330
2
100
AcDbEntity
  8
OUTLINE
100
AcDbLine
 10
35040.4921474442
 20
-24908.99360694032
 30
0.0
 11
35040.49214744488
 21
-24915.99360694032
 31
0.0
  0
LINE
  5
3C6D9
330
2
100
AcDbEntity
  8
OUTLINE
100
AcDbLine
 10
35042.09214744419
 20
-24908.99360694017
 30
0.0
 11
35040.4921474442
 21
-24908.99360694032
 31
0.0
  0
LINE
  5
3C6E2
330
2
100
AcDbEntity
  8
OUTLINE
100
AcDbLine
 10
35040.49214744488
 20
-24915.99360694032
 30
0.0
 11
35040.49214745274
 21
-24996.99360694032
 31
0.0
  0
LINE
  5
3C6E7
330
2
100
AcDbEntity
  8
OUTLINE
100
AcDbLine
 10
35043.09214744405
 20
-24908.99360694006
 30
0.0
 11
35042.09214744406
 21
-24908.99360694016
 31
0.0
  0
LINE
  5
3C6E8
330
2
100
AcDbEntity
  8
OUTLINE
100
AcDbLine
 10
35043.09214745327
 20
-25003.99360694006
 30
0.0
 11
35042.09214745327
 21
-25003.99360694015
 31
0.0
  0
LINE
  5
3C6E9
330
2
100
AcDbEntity
  8
OUTLINE
100
AcDbLine
 10
35043.92132599404
 20
-25006.59360693997
 30
0.0
 11
36369.06296891329
 21
-25006.59360681165
 31
0.0
  0
ELLIPSE
  5
3C6EA
330
2
100
AcDbEntity
  8
OUTLINE
100
AcDbEllipse
 10
35600.04214740681
 20
-24804.88636572769
 30
0.0
 11
-15.99999999998862
 21
-0.0000000015520783
 31
0.0
210
0.0
220
0.0
230
1.0
 40
0.9998527340797219
 41
0.0
 42
6.283185307179586
  0
ELLIPSE
  5
3C6EB
330
2
100
AcDbEntity
  8
OUTLINE
100
AcDbEllipse
 10
35600.04214740681
 20
-24804.86577216996
 30
0.0
 11
-15.99999999998862
 21
-0.0000000085605926
 31
0.0
210
0.0
220
0.0
230
1.0
 40
0.9998527340797217
 41
0.0006436430466157
 42
3.140949009615781
  0
LINE
  5
3C6F8
330
2
100
AcDbEntity
  8
DIM
100
AcDbLine
 10
34974.29214736585
 20
-23585.1299705007
 30
0.0
 11
34974.29214736585
 21
-23375.74678811887
 31
0.0
  0
LINE
  5
3C6F9
330
2
100
AcDbEntity
  8
DIM
100
AcDbLine
 10
35030.17765795233
 20
-23471.7088151309
 30
0.0
 11
35030.17765795233
 21
-23375.74678811887
 31
0.0
  0
LINE
  5
3C6FA
330
2
100
AcDbEntity
  8
DIM
100
AcDbLine
 10
34928.83760191131
 20
-23433.47406084614
 30
0.0
 11
34883.38305645676
 21
-23433.47406084614
 31
0.0
  0
LINE
  5
3C6FB
330
2
100
AcDbEntity
  8
DIM
100
AcDbLine
 10
35075.63220340687
 20
-23433.47406084614
 30
0.0
 11
35172.52256395571
 21
-23433.47406084614
 31
0.0
  0
SOLID
  5
3C6FC
330
2
100
AcDbEntity
  8
DIM
100
AcDbTrace
 10
34928.83760191131
 20
-23425.89830327038
 30
0.0
 11
34928.83760191131
 21
-23441.04981842189
 31
0.0
 12
34974.29214736585
 22
-23433.47406084614
 32
0.0
 13
34974.29214736585
 23
-23433.47406084614
 33
0.0
  0
SOLID
  5
3C6FD
330
2
100
AcDbEntity
  8
DIM
100
AcDbTrace
 10
35075.63220340687
 20
-23425.89830327038
 30
0.0
 11
35075.63220340687
 21
-23441.04981842189
 31
0.0
 12
35030.17765795233
 22
-23433.47406084614
 32
0.0
 13
35030.17765795233
 23
-23433.47406084614
 33
0.0
  0
MTEXT
  5
3C6FE
330
2
100
AcDbEntity
  8
DIM
100
AcDbMText
 10
35187.06801850115
 20
-23404.49954377271
 30
0.0
 40
55.41818358681419
 41
0.0
 71
     1
 72
     1
  1
\A1;57
  7
Note Text (ANSI)
 73
     1
 44
1.0
  0
LINE
  5
3C707
330
2
100
AcDbEntity
  8
DIM
100
AcDbLine
 10
35932.83460075364
 20
-23474.75514357739
 30
0.0
 11
35932.83460075363
 21
-23244.65841209357
 31
0.0
  0
LINE
  5
3C708
330
2
100
AcDbEntity
  8
DIM
100
AcDbLine
 10
35496.24652022469
 20
-23302.38568482084
 30
0.0
 11
35558.91128346084
 21
-23302.38568482084
 31
0.0
  0
LINE
  5
3C709
330
2
100
AcDbEntity
  8
DIM
100
AcDbLine
 10
35887.38005529909
 20
-23302.38568482084
 30
0.0
 11
35801.90445277098
 21
-23302.38568482084
 31
0.0
  0
SOLID
  5
3C70A
330
2
100
AcDbEntity
  8
DIM
100
AcDbTrace
 10
35496.24652022469
 20
-23294.80992724509
 30
0.0
 11
35496.24652022469
 21
-23309.9614423966
 31
0.0
 12
35450.79197477014
 22
-23302.38568482084
 32
0.0
 13
35450.79197477014
 23
-23302.38568482084
 33
0.0
  0
SOLID
  5
3C70B
330
2
100
AcDbEntity
  8
DIM
100
AcDbTrace
 10
35887.38005529909
 20
-23294.80992724509
 30
0.0
 11
35887.38005529909
 21
-23309.9614423966
 31
0.0
 12
35932.83460075363
 22
-23302.38568482084
 32
0.0
 13
35932.83460075363
 23
-23302.38568482084
 33
0.0
  0
MTEXT
  5
3C70C
330
2
100
AcDbEntity
  8
DIM
100
AcDbMText
 10
35623.10379602018
 20
-23273.54143211448
 30
0.0
 40
55.41818358681419
 41
0.0
 71
     1
 72
     1
  1
\A1;482
  7
Note Text (ANSI)
 73
     1
 44
1.0
  0
MTEXT
  5
3C88C
330
2
100
AcDbEntity
  8
DIM
100
AcDbMText
 10
37025.48084533095
 20
-21615.15276101839
 30
0.0
 40
55.41818250309337
 41
690.2572458440608
 71
     8
 72
     1
  1
{\H1x;\LPLAN VIEW}
  7
Note Text (ANSI)
 73
     2
 44
0.9878841638565063
  0
INSERT
  5
3C88D
330
2
100
AcDbEntity
  8
OUTLINE
100
AcDbBlockReference
  2
AIR FLOW ARROW
 10
36872.92811333647
 20
-21221.81186635254
 30
0.0
 41
18.18181818181818
 42
18.18181818181818
 43
18.18181818181818
 50
270.0
  0
MTEXT
  5
3C88E
330
2
100
AcDbEntity
  8
DIM
100
AcDbMText
 10
36887.74255326265
 20
-20997.99669096163
 30
0.0
 40
55.41818250309337
 41
200.295860117132
 71
     2
 72
     1
  1
{AIR\PFLOW}
  7
Note Text (ANSI)
 73
     2
 44
0.9878841638565063
  0
LINE
  5
3C8AA
330
2
100
AcDbEntity
  8
OUTLINE
100
AcDbLine
 10
34904.48809179099
 20
-22385.06675446028
 30
0.0
 11
34904.48809179193
 21
-20919.86675446013
 31
0.0
  0
LINE
  5
3CAF7
330
2
100
AcDbEntity
  8
OUTLINE
100
AcDbLine
 10
36635.88809179661
 20
-21009.56102750851
 30
0.0
 11
36575.90809179661
 21
-21009.56102750786
 31
0.0
  0
LINE
  5
3CAF9
330
2
100
AcDbEntity
  8
OUTLINE
100
AcDbLine
 10
36635.88809179661
 20
-21009.56102750851
 30
0.0
 11
36635.8880917966
 21
-21010.77102750844
 31
0.0
  0
LINE
  5
3CAFA
330
2
100
AcDbEntity
  8
OUTLINE
100
AcDbLine
 10
36635.8980917966
 20
-21010.78102750844
 30
0.0
 11
36635.8880917966
 21
-21010.78102750844
 31
0.0
  0
LINE
  5
3CAFD
330
2
100
AcDbEntity
  8
OUTLINE
100
AcDbLine
 10
36635.8880917966
 20
-21010.78102750844
 30
0.0
 11
36635.8880917966
 21
-21010.77102750844
 31
0.0
  0
LINE
  5
3CAFF
330
2
100
AcDbEntity
  8
OUTLINE
100
AcDbLine
 10
36635.8980917966
 20
-21010.78102750844
 30
0.0
 11
36635.89809179202
 21
-21431.95116410205
 31
0.0
  0
LINE
  5
3CB06
330
2
100
AcDbEntity
  8
OUTLINE
100
AcDbLine
 10
36635.89809179202
 20
-21431.95116410205
 30
0.0
 11
36635.89809179201
 21
-21433.16116410213
 31
0.0
  0
LINE
  5
3CB08
330
2
100
AcDbEntity
  8
OUTLINE
100
AcDbLine
 10
36635.898091792
 20
-21433.16116410213
 30
0.0
 11
36575.89809179201
 21
-21433.16116410148
 31
0.0
  0
LINE
  5
3CB0D
330
2
100
AcDbEntity
  8
OUTLINE
100
AcDbLine
 10
36575.90809179196
 20
-21434.36116414446
 30
0.0
 11
36635.88809179197
 21
-21434.36116414511
 31
0.0
  0
LINE
  5
3CB0E
330
2
100
AcDbEntity
  8
OUTLINE
100
AcDbLine
 10
36635.88809179198
 20
-21433.16116414511
 30
0.0
 11
36635.88809179197
 21
-21434.36116414511
 31
0.0
  0
LINE
  5
3CB10
330
2
100
AcDbEntity
  8
OUTLINE
100
AcDbLine
 10
36635.89809179661
 20
-21010.76102750894
 30
0.0
 11
36635.89809179661
 21
-21010.78102750848
 31
0.0
  0
LINE
  5
3CB13
330
2
100
AcDbEntity
  8
OUTLINE
100
AcDbLine
 10
36635.89809179661
 20
-21010.76102750894
 30
0.0
 11
36635.8880917966
 21
-21010.76102750894
 31
0.0
  0
CIRCLE
  5
3D897
330
2
100
AcDbEntity
  8
OUTLINE
100
AcDbCircle
 10
34881.08809179103
 20
-22353.06675446112
 30
0.0
 40
8.000000000000932
  0
CIRCLE
  5
3D898
330
2
100
AcDbEntity
  8
OUTLINE
100
AcDbCircle
 10
36598.08809179103
 20
-22353.06675446214
 30
0.0
 40
8.000000000000932
  0
LINE
  5
3D89A
330
2
100
AcDbEntity
  8
OUTLINE
100
AcDbLine
 10
36630.08809179106
 20
-22320.0667544571
 30
0.0
 11
36630.08809179106
 21
-22318.4667544571
 31
0.0
  0
LINE
  5
3D8AD
330
2
100
AcDbEntity
  8
OUTLINE
100
AcDbLine
 10
34849.088091791
 20
-22385.06675446025
 30
0.0
 11
36630.08809179101
 21
-22385.06675446134
 31
0.0
  0
LINE
  5
3D8AF
330
2
100
AcDbEntity
  8
OUTLINE
100
AcDbLine
 10
34849.088091791
 20
-22386.66675446026
 30
0.0
 11
36630.08809179101
 21
-22386.66675446134
 31
0.0
  0
LINE
  5
3D8B4
330
2
100
AcDbEntity
  8
OUTLINE
100
AcDbLine
 10
34849.08809179106
 20
-22316.86675445561
 30
0.0
 11
34849.08809179101
 21
-22386.66675446065
 31
0.0
  0
LINE
  5
3D8B5
330
2
100
AcDbEntity
  8
OUTLINE
100
AcDbLine
 10
36630.08809179101
 20
-22386.66675446134
 30
0.0
 11
36630.08809179105
 21
-22321.06675446215
 31
0.0
  0
LINE
  5
3D8B6
330
2
100
AcDbEntity
  8
OUTLINE
100
AcDbLine
 10
36630.08809179105
 20
-22320.06675446213
 30
0.0
 11
36630.08809179105
 21
-22321.06675446215
 31
0.0
  0
CIRCLE
  5
3D8B8
330
2
100
AcDbEntity
  8
OUTLINE
100
AcDbCircle
 10
36598.08809179196
 20
-20951.86675446202
 30
0.0
 40
8.000000000000916
  0
CIRCLE
  5
3D8B9
330
2
100
AcDbEntity
  8
OUTLINE
100
AcDbCircle
 10
34881.0880917919
 20
-20951.86675446101
 30
0.0
 40
8.000000000000916
  0
LINE
  5
3D8BB
330
2
100
AcDbEntity
  8
OUTLINE
100
AcDbLine
 10
34849.08809179188
 20
-20984.86675445586
 30
0.0
 11
34849.08809179188
 21
-20986.46675445586
 31
0.0
  0
LINE
  5
3D8C4
330
2
100
AcDbEntity
  8
OUTLINE
100
AcDbLine
 10
36623.08809179199
 20
-20919.86675446118
 30
0.0
 11
36630.08809179199
 21
-20919.86675446158
 31
0.0
  0
LINE
  5
3D8C5
330
2
100
AcDbEntity
  8
OUTLINE
100
AcDbLine
 10
36630.08809179199
 20
-20918.26675446158
 30
0.0
 11
36623.08809179199
 21
-20918.26675446118
 31
0.0
  0
LINE
  5
3D8C6
330
2
100
AcDbEntity
  8
OUTLINE
100
AcDbLine
 10
36630.08809179199
 20
-20919.86675446158
 30
0.0
 11
36630.08809179199
 21
-20918.26675446158
 31
0.0
  0
LINE
  5
3D8CE
330
2
100
AcDbEntity
  8
OUTLINE
100
AcDbLine
 10
36623.08809179199
 20
-20919.86675446118
 30
0.0
 11
34849.08809179191
 21
-20919.86675446009
 31
0.0
  0
LINE
  5
3D8CF
330
2
100
AcDbEntity
  8
OUTLINE
100
AcDbLine
 10
36623.08809179199
 20
-20918.26675446118
 30
0.0
 11
34849.08809179191
 21
-20918.26675446009
 31
0.0
  0
LINE
  5
3D8D2
330
2
100
AcDbEntity
  8
OUTLINE
100
AcDbLine
 10
36630.08809179199
 20
-20920.86675446204
 30
0.0
 11
36630.08809179199
 21
-20919.86675446198
 31
0.0
  0
LINE
  5
3D8D3
330
2
100
AcDbEntity
  8
OUTLINE
100
AcDbLine
 10
36630.08809179193
 20
-20988.06675445653
 30
0.0
 11
36630.08809179199
 21
-20920.86675446204
 31
0.0
  0
LINE
  5
3D8D4
330
2
100
AcDbEntity
  8
OUTLINE
100
AcDbLine
 10
34849.08809179191
 20
-20918.26675446009
 30
0.0
 11
34849.08809179188
 21
-20983.866754461
 31
0.0
  0
LINE
  5
3D8D5
330
2
100
AcDbEntity
  8
OUTLINE
100
AcDbLine
 10
34849.08809179188
 20
-20984.8667544609
 30
0.0
 11
34849.08809179188
 21
-20983.866754461
 31
0.0
  0
LINE
  5
3D8D7
330
2
100
AcDbEntity
  8
OUTLINE
100
AcDbLine
 10
36630.08809179106
 20
-22318.4667544571
 30
0.0
 11
36630.08809179107
 21
-22316.8667544571
 31
0.0
  0
LINE
  5
3D8D8
330
2
100
AcDbEntity
  8
OUTLINE
100
AcDbLine
 10
36630.08809179107
 20
-22316.8667544571
 30
0.0
 11
36623.08809179107
 21
-22316.86675445669
 31
0.0
  0
LINE
  5
3D8DF
330
2
100
AcDbEntity
  8
OUTLINE
100
AcDbLine
 10
36574.68809176768
 20
-22316.86675445666
 30
0.0
 11
36623.08809179107
 21
-22316.86675445669
 31
0.0
  0
LINE
  5
3D8E2
330
2
100
AcDbEntity
  8
OUTLINE
100
AcDbLine
 10
36630.08809179193
 20
-20988.06675445653
 30
0.0
 11
36575.88809179685
 21
-20988.0667544565
 31
0.0
  0
LINE
  5
3D8E3
330
2
100
AcDbEntity
  8
OUTLINE
100
AcDbLine
 10
34849.08809179188
 20
-20986.46675445586
 30
0.0
 11
34849.08809179188
 21
-20988.06675445586
 31
0.0
  0
LINE
  5
3D8E4
330
2
100
AcDbEntity
  8
OUTLINE
100
AcDbLine
 10
34849.08809179188
 20
-20988.06675445586
 30
0.0
 11
34856.08809179189
 21
-20988.06675445547
 31
0.0
  0
LINE
  5
3D8EB
330
2
100
AcDbEntity
  8
OUTLINE
100
AcDbLine
 10
34903.28809179189
 20
-20988.0667544555
 30
0.0
 11
34856.08809179189
 21
-20988.06675445547
 31
0.0
  0
LINE
  5
3D8EE
330
2
100
AcDbEntity
  8
OUTLINE
100
AcDbLine
 10
34849.08809179105
 20
-22316.86675445561
 30
0.0
 11
34903.28809179118
 21
-22316.86675445564
 31
0.0
  0
LINE
  5
3DA18
330
2
100
AcDbEntity
  8
DIM
100
AcDbLine
 10
34645.72531694036
 20
-22386.31613637712
 30
0.0
 11
34820.25332507183
 21
-22386.31613637712
 31
0.0
  0
LINE
  5
3DA19
330
2
100
AcDbEntity
  8
DIM
100
AcDbLine
 10
34645.72531694036
 20
-20918.26675446158
 30
0.0
 11
34820.25332507183
 21
-20918.26675446158
 31
0.0
  0
LINE
  5
3DA1A
330
2
100
AcDbEntity
  8
DIM
100
AcDbLine
 10
34739.57938415199
 20
-22340.86159092257
 30
0.0
 11
34739.57938415199
 21
-21768.8597456449
 31
0.0
  0
LINE
  5
3DA1B
330
2
100
AcDbEntity
  8
DIM
100
AcDbLine
 10
34739.57938415199
 20
-20963.72129991613
 30
0.0
 11
34739.57938415199
 21
-21575.37786796459
 31
0.0
  0
SOLID
  5
3DA1C
330
2
100
AcDbEntity
  8
DIM
100
AcDbTrace
 10
34732.00362657623
 20
-22340.86159092257
 30
0.0
 11
34747.15514172775
 21
-22340.86159092257
 31
0.0
 12
34739.57938415199
 22
-22386.31613637712
 32
0.0
 13
34739.57938415199
 23
-22386.31613637712
 33
0.0
  0
SOLID
  5
3DA1D
330
2
100
AcDbEntity
  8
DIM
100
AcDbTrace
 10
34732.00362657623
 20
-20963.72129991613
 30
0.0
 11
34747.15514172775
 21
-20963.72129991613
 31
0.0
 12
34739.57938415199
 22
-20918.26675446158
 32
0.0
 13
34739.57938415199
 23
-20918.26675446158
 33
0.0
  0
MTEXT
  5
3DA1E
330
2
100
AcDbEntity
  8
DIM
100
AcDbMText
 10
34704.59409699847
 20
-21748.03923087353
 30
0.0
 40
55.41818358681419
 41
0.0
 71
     1
 72
     1
  1
\A1;1490 
  7
Note Text (ANSI)
 11
0.0000000000000001
 21
1.0
 31
0.0
 73
     1
 44
1.0
  0
INSERT
  5
3DA24
330
2
100
AcDbEntity
  8
OUTLINE
100
AcDbBlockReference
  2
AIR FLOW ARROW
 10
36892.18179433818
 20
-22101.99811428665
 30
0.0
 41
-18.18181818181818
 42
18.18181818181818
 43
18.18181818181818
 50
90.0
  0
MTEXT
  5
3DA25
330
2
100
AcDbEntity
  8
DIM
100
AcDbMText
 10
36887.74255326265
 20
-22325.81328967756
 30
0.0
 40
55.41818250309337
 41
200.295860117132
 71
     8
 72
     1
  1
{AIR\PFLOW}
  7
Note Text (ANSI)
 73
     2
 44
0.9878841638565063
  0
LINE
  5
3DA26
330
2
100
AcDbEntity
  8
OUTLINE
100
AcDbLine
 10
36635.88809179661
 20
-22314.24892314686
 30
0.0
 11
36575.90809179661
 21
-22314.24892314751
 31
0.0
  0
LINE
  5
3DA28
330
2
100
AcDbEntity
  8
OUTLINE
100
AcDbLine
 10
36635.88809179661
 20
-22314.24892314686
 30
0.0
 11
36635.8880917966
 21
-22313.03892314693
 31
0.0
  0
LINE
  5
3DA29
330
2
100
AcDbEntity
  8
OUTLINE
100
AcDbLine
 10
36635.8980917966
 20
-22313.02892314693
 30
0.0
 11
36635.8880917966
 21
-22313.02892314693
 31
0.0
  0
LINE
  5
3DA2C
330
2
100
AcDbEntity
  8
OUTLINE
100
AcDbLine
 10
36635.8880917966
 20
-22313.02892314693
 30
0.0
 11
36635.8880917966
 21
-22313.03892314693
 31
0.0
  0
LINE
  5
3DA2E
330
2
100
AcDbEntity
  8
OUTLINE
100
AcDbLine
 10
36635.8980917966
 20
-22313.02892314693
 30
0.0
 11
36635.89809179202
 21
-21891.85878655331
 31
0.0
  0
LINE
  5
3DA30
330
2
100
AcDbEntity
  8
OUTLINE
100
AcDbLine
 10
36575.88809178145
 20
-20919.86675446114
 30
0.0
 11
36575.88809179739
 21
-22385.06675446131
 31
0.0
  0
LINE
  5
3DA33
330
2
100
AcDbEntity
  8
OUTLINE
100
AcDbLine
 10
36635.89809179202
 20
-21891.85878655331
 30
0.0
 11
36635.89809179201
 21
-21890.64878655324
 31
0.0
  0
LINE
  5
3DA3A
330
2
100
AcDbEntity
  8
OUTLINE
100
AcDbLine
 10
36575.90809179196
 20
-21889.44878651091
 30
0.0
 11
36635.88809179197
 21
-21889.44878651026
 31
0.0
  0
LINE
  5
3DA3B
330
2
100
AcDbEntity
  8
OUTLINE
100
AcDbLine
 10
36635.88809179198
 20
-21890.64878651026
 30
0.0
 11
36635.88809179197
 21
-21889.44878651026
 31
0.0
  0
LINE
  5
3DA3D
330
2
100
AcDbEntity
  8
OUTLINE
100
AcDbLine
 10
36635.89809179661
 20
-22313.04892314642
 30
0.0
 11
36635.89809179661
 21
-22313.02892314688
 31
0.0
  0
LINE
  5
3DA3E
330
2
100
AcDbEntity
  8
OUTLINE
100
AcDbLine
 10
36635.89809179661
 20
-22313.04892314642
 30
0.0
 11
36635.8880917966
 21
-22313.04892314642
 31
0.0
  0
LINE
  5
3DD2C
330
2
100
AcDbEntity
  8
DIM
100
AcDbLine
 10
34903.19003610936
 20
-20673.50393816715
 30
0.0
 11
34903.19003610936
 21
-20848.03194629862
 31
0.0
  0
LINE
  5
3DD2D
330
2
100
AcDbEntity
  8
DIM
100
AcDbLine
 10
36574.86810386334
 20
-20673.50393816715
 30
0.0
 11
36574.86810386334
 21
-20848.03194629862
 31
0.0
  0
LINE
  5
3DD2E
330
2
100
AcDbEntity
  8
DIM
100
AcDbLine
 10
34948.6445815639
 20
-20759.2395066214
 30
0.0
 11
35596.74494044842
 21
-20759.2395066214
 31
0.0
  0
LINE
  5
3DD2F
330
2
100
AcDbEntity
  8
DIM
100
AcDbLine
 10
36529.4135584088
 20
-20759.2395066214
 30
0.0
 11
35783.21624591889
 21
-20759.2395066214
 31
0.0
  0
SOLID
  5
3DD30
330
2
100
AcDbEntity
  8
DIM
100
AcDbTrace
 10
34948.6445815639
 20
-20751.66374904564
 30
0.0
 11
34948.6445815639
 21
-20766.81526419716
 31
0.0
 12
34903.19003610936
 22
-20759.2395066214
 32
0.0
 13
34903.19003610936
 23
-20759.2395066214
 33
0.0
  0
SOLID
  5
3DD31
330
2
100
AcDbEntity
  8
DIM
100
AcDbTrace
 10
36529.4135584088
 20
-20751.66374904564
 30
0.0
 11
36529.4135584088
 21
-20766.81526419716
 31
0.0
 12
36574.86810386334
 22
-20759.2395066214
 32
0.0
 13
36574.86810386334
 23
-20759.2395066214
 33
0.0
  0
MTEXT
  5
3DD32
330
2
100
AcDbEntity
  8
DIM
100
AcDbMText
 10
35615.13390948929
 20
-20724.25421946787
 30
0.0
 40
55.41818358681419
 41
0.0
 71
     1
 72
     1
  1
\A1;1670 
  7
Note Text (ANSI)
 73
     1
 44
1.0
  0
LINE
  5
3DE53
330
2
100
AcDbEntity
  8
DIM
100
AcDbLine
 10
34803.63354633737
 20
-20759.2395066214
 30
0.0
 11
34716.78096246589
 21
-20759.2395066214
 31
0.0
  0
SOLID
  5
3DE54
330
2
100
AcDbEntity
  8
DIM
100
AcDbTrace
 10
34803.63354633737
 20
-20751.66374904564
 30
0.0
 11
34803.63354633737
 21
-20766.81526419716
 31
0.0
 12
34849.08809179191
 22
-20759.2395066214
 32
0.0
 13
34849.08809179191
 23
-20759.2395066214
 33
0.0
  0
MTEXT
  5
3DE55
330
2
100
AcDbEntity
  8
DIM
100
AcDbMText
 10
34696.75335613173
 20
-20724.25421946787
 30
0.0
 40
55.41818358681419
 41
0.0
 71
     3
 72
     1
  1
\A1;55 
  7
Note Text (ANSI)
 73
     1
 44
1.0
  0
LINE
  5
3DE56
330
2
100
AcDbEntity
  8
DIM
100
AcDbLine
 10
34849.08809179191
 20
-20673.50393816715
 30
0.0
 11
34849.08809179191
 21
-20848.03194629862
 31
0.0
  0
LINE
  5
3DE59
330
2
100
AcDbEntity
  8
DIM
100
AcDbLine
 10
36674.42459363534
 20
-20759.2395066214
 30
0.0
 11
36761.27717750683
 21
-20759.2395066214
 31
0.0
  0
SOLID
  5
3DE5A
330
2
100
AcDbEntity
  8
DIM
100
AcDbTrace
 10
36674.42459363534
 20
-20751.66374904564
 30
0.0
 11
36674.42459363534
 21
-20766.81526419716
 31
0.0
 12
36628.9700481808
 22
-20759.2395066214
 32
0.0
 13
36628.9700481808
 23
-20759.2395066214
 33
0.0
  0
MTEXT
  5
3DE5B
330
2
100
AcDbEntity
  8
DIM
100
AcDbMText
 10
36781.30478384098
 20
-20724.25421946787
 30
0.0
 40
55.41818358681419
 41
0.0
 71
     1
 72
     1
  1
\A1;55 
  7
Note Text (ANSI)
 73
     1
 44
1.0
  0
LINE
  5
3DE5C
330
2
100
AcDbEntity
  8
DIM
100
AcDbLine
 10
36628.9700481808
 20
-20673.50393816715
 30
0.0
 11
36628.9700481808
 21
-20848.03194629862
 31
0.0
  0
LINE
  5
3DF79
330
2
100
AcDbEntity
  8
DIM
100
AcDbLine
 10
39683.74017142707
 20
-25006.59360694667
 30
0.0
 11
39886.09600601703
 21
-25006.59360694667
 31
0.0
  0
LINE
  5
3DF7A
330
2
100
AcDbEntity
  8
DIM
100
AcDbLine
 10
39683.74017142707
 20
-23504.91919599099
 30
0.0
 11
39886.09600601703
 21
-23504.919195991
 31
0.0
  0
LINE
  5
3DF8C
330
2
100
AcDbEntity
  8
DIM
100
AcDbLine
 10
39798.74123229431
 20
-24961.13906149212
 30
0.0
 11
39798.74123229431
 21
-24360.94051557843
 31
0.0
  0
LINE
  5
3DF8D
330
2
100
AcDbEntity
  8
DIM
100
AcDbLine
 10
39798.74123229431
 20
-23550.37374144554
 30
0.0
 11
39798.74123229431
 21
-24160.45639411926
 31
0.0
  0
SOLID
  5
3DF8E
330
2
100
AcDbEntity
  8
DIM
100
AcDbTrace
 10
39791.16547471855
 20
-24961.13906149212
 30
0.0
 11
39806.31698987007
 21
-24961.13906149212
 31
0.0
 12
39798.74123229431
 22
-25006.59360694667
 32
0.0
 13
39798.74123229431
 23
-25006.59360694667
 33
0.0
  0
SOLID
  5
3DF8F
330
2
100
AcDbEntity
  8
DIM
100
AcDbTrace
 10
39791.16547471855
 20
-23550.37374144554
 30
0.0
 11
39806.31698987007
 21
-23550.37374144554
 31
0.0
 12
39798.74123229431
 22
-23504.919195991
 32
0.0
 13
39798.74123229431
 23
-23504.919195991
 33
0.0
  0
MTEXT
  5
3DF90
330
2
100
AcDbEntity
  8
DIM
100
AcDbMText
 10
39763.75594514078
 20
-24336.66466098656
 30
0.0
 40
55.41818358681419
 41
0.0
 71
     1
 72
     1
  1
\A1;1500
  7
Note Text (ANSI)
 11
0.0000000000000001
 21
1.0
 31
0.0
 73
     1
 44
1.0
  0
LINE
  5
3E0BD
330
2
100
AcDbEntity
  8
DIM
100
AcDbLine
 10
37932.48412045943
 20
-25054.37749334686
 30
0.0
 11
37932.48412045943
 21
-25195.56018578878
 31
0.0
  0
LINE
  5
3E0BE
330
2
100
AcDbEntity
  8
DIM
100
AcDbLine
 10
39537.80762666852
 20
-25054.37749334686
 30
0.0
 11
39537.80762666852
 21
-25195.56018578878
 31
0.0
  0
LINE
  5
3E0BF
330
2
100
AcDbEntity
  8
DIM
100
AcDbLine
 10
37977.93866591397
 20
-25140.1130618011
 30
0.0
 11
38452.87822133967
 21
-25140.1130618011
 31
0.0
  0
LINE
  5
3E0C0
330
2
100
AcDbEntity
  8
DIM
100
AcDbLine
 10
39537.48412045944
 20
-25140.1130618011
 30
0.0
 11
39025.7933724983
 21
-25140.1130618011
 31
0.0
  0
SOLID
  5
3E0C1
330
2
100
AcDbEntity
  8
DIM
100
AcDbTrace
 10
37977.93866591397
 20
-25132.53730422534
 30
0.0
 11
37977.93866591397
 21
-25147.68881937686
 31
0.0
 12
37932.48412045943
 22
-25140.1130618011
 32
0.0
 13
37932.48412045943
 23
-25140.1130618011
 33
0.0
  0
SOLID
  5
3E0C2
330
2
100
AcDbEntity
  8
DIM
100
AcDbTrace
 10
39492.35308121398
 20
-25132.53730422534
 30
0.0
 11
39492.35308121398
 21
-25147.68881937686
 31
0.0
 12
39537.80762666852
 22
-25140.1130618011
 32
0.0
 13
39537.80762666852
 23
-25140.1130618011
 33
0.0
  0
MTEXT
  5
3E0C3
330
2
100
AcDbEntity
  8
DIM
100
AcDbMText
 10
38472.87714816057
 20
-25105.12777464758
 30
0.0
 40
55.41818358681419
 41
0.0
 71
     1
 72
     1
  1
\A1;1605 MTG CTRS 
  7
Note Text (ANSI)
 73
     1
 44
1.0
  0
LINE
  5
3E0E2
330
2
100
AcDbEntity
  8
DIM
100
AcDbLine
 10
37844.48412045949
 20
-25217.27057765013
 30
0.0
 11
37844.48412045948
 21
-25374.78986836692
 31
0.0
  0
LINE
  5
3E0E3
330
2
100
AcDbEntity
  8
DIM
100
AcDbLine
 10
39623.7274962294
 20
-25217.27057765013
 30
0.0
 11
39623.7274962294
 21
-25374.78986836692
 31
0.0
  0
LINE
  5
3E0E4
330
2
100
AcDbEntity
  8
DIM
100
AcDbLine
 10
37889.93866591402
 20
-25285.9974286897
 30
0.0
 11
38512.06142367626
 21
-25285.9974286897
 31
0.0
  0
LINE
  5
3E0E5
330
2
100
AcDbEntity
  8
DIM
100
AcDbLine
 10
39623.40399002032
 20
-25285.9974286897
 30
0.0
 11
38904.62813048628
 21
-25285.9974286897
 31
0.0
  0
SOLID
  5
3E0E6
330
2
100
AcDbEntity
  8
DIM
100
AcDbTrace
 10
37889.93866591402
 20
-25278.42167111394
 30
0.0
 11
37889.93866591402
 21
-25293.57318626546
 31
0.0
 12
37844.48412045948
 22
-25285.9974286897
 32
0.0
 13
37844.48412045948
 23
-25285.9974286897
 33
0.0
  0
SOLID
  5
3E0E7
330
2
100
AcDbEntity
  8
DIM
100
AcDbTrace
 10
39578.27295077485
 20
-25278.42167111394
 30
0.0
 11
39578.27295077485
 21
-25293.57318626546
 31
0.0
 12
39623.7274962294
 22
-25285.9974286897
 32
0.0
 13
39623.7274962294
 23
-25285.9974286897
 33
0.0
  0
MTEXT
  5
3E0E8
330
2
100
AcDbEntity
  8
DIM
100
AcDbMText
 10
38559.30883864234
 20
-25251.01214153617
 30
0.0
 40
55.41818358681419
 41
0.0
 71
     1
 72
     1
  1
\A1;1780 O/A 
  7
Note Text (ANSI)
 73
     1
 44
1.0
  0
LINE
  5
3E213
330
2
100
AcDbEntity
  8
DIM
100
AcDbLine
 10
37932.48412045944
 20
-25039.86503551508
 30
0.0
 11
37932.48412045944
 21
-25119.55966737702
 31
0.0
  0
LINE
  5
3E214
330
2
100
AcDbEntity
  8
DIM
100
AcDbLine
 10
37844.48412045942
 20
-25013.06503551838
 30
0.0
 11
37844.48412045942
 21
-25119.55966737702
 31
0.0
  0
LINE
  5
3E21B
330
2
100
AcDbEntity
  8
DIM
100
AcDbLine
 10
37844.48412045948
 20
-25013.0650355119
 30
0.0
 11
37844.48412045948
 21
-25202.24425682092
 31
0.0
  0
LINE
  5
3E226
330
2
100
AcDbEntity
  8
DIM
100
AcDbLine
 10
37799.02957500494
 20
-25140.1130618011
 30
0.0
 11
37725.85157137361
 21
-25140.1130618011
 31
0.0
  0
SOLID
  5
3E227
330
2
100
AcDbEntity
  8
DIM
100
AcDbTrace
 10
37799.02957500494
 20
-25132.53730422534
 30
0.0
 11
37799.02957500494
 21
-25147.68881937686
 31
0.0
 12
37844.48412045949
 22
-25140.1130618011
 32
0.0
 13
37844.48412045949
 23
-25140.1130618011
 33
0.0
  0
MTEXT
  5
3E228
330
2
100
AcDbEntity
  8
DIM
100
AcDbMText
 10
37712.7774673289
 20
-25105.12777464758
 30
0.0
 40
55.41818358681419
 41
0.0
 71
     3
 72
     1
  1
\A1;88 
  7
Note Text (ANSI)
 73
     1
 44
1.0
  0
LINE
  5
3E473
330
2
100
AcDbEntity
  8
DIM
100
AcDbLine
 10
35005.76424534203
 20
-25061.57413807175
 30
0.0
 11
35005.76424534203
 21
-25141.26876993369
 31
0.0
  0
LINE
  5
3E474
330
2
100
AcDbEntity
  8
DIM
100
AcDbLine
 10
34972.40286737596
 20
-25034.77413807505
 30
0.0
 11
34972.40286737596
 21
-25141.26876993369
 31
0.0
  0
LINE
  5
3E475
330
2
100
AcDbEntity
  8
DIM
100
AcDbLine
 10
34972.40286737603
 20
-25034.77413806856
 30
0.0
 11
34972.40286737603
 21
-25223.95335937759
 31
0.0
  0
LINE
  5
3E476
330
2
100
AcDbEntity
  8
DIM
100
AcDbLine
 10
35005.76424534201
 20
-25076.08659590353
 30
0.0
 11
35005.76424534201
 21
-25217.26928834545
 31
0.0
  0
LINE
  5
3E477
330
2
100
AcDbEntity
  8
DIM
100
AcDbLine
 10
36406.80721893605
 20
-25076.08659590353
 30
0.0
 11
36406.80721893605
 21
-25217.26928834545
 31
0.0
  0
LINE
  5
3E478
330
2
100
AcDbEntity
  8
DIM
100
AcDbLine
 10
35051.21879079656
 20
-25161.82216435777
 30
0.0
 11
35423.95702789773
 21
-25161.82216435777
 31
0.0
  0
LINE
  5
3E479
330
2
100
AcDbEntity
  8
DIM
100
AcDbLine
 10
36406.48371272697
 20
-25161.82216435777
 30
0.0
 11
35999.70089227076
 21
-25161.82216435777
 31
0.0
  0
SOLID
  5
3E47A
330
2
100
AcDbEntity
  8
DIM
100
AcDbTrace
 10
35051.21879079656
 20
-25154.24640678201
 30
0.0
 11
35051.21879079656
 21
-25169.39792193353
 31
0.0
 12
35005.76424534201
 22
-25161.82216435777
 32
0.0
 13
35005.76424534201
 23
-25161.82216435777
 33
0.0
  0
SOLID
  5
3E47B
330
2
100
AcDbEntity
  8
DIM
100
AcDbTrace
 10
36361.35267348151
 20
-25154.24640678201
 30
0.0
 11
36361.35267348151
 21
-25169.39792193353
 31
0.0
 12
36406.80721893605
 22
-25161.82216435777
 32
0.0
 13
36406.80721893605
 23
-25161.82216435777
 33
0.0
  0
MTEXT
  5
3E47C
330
2
100
AcDbEntity
  8
DIM
100
AcDbMText
 10
35442.53473391735
 20
-25126.83687720424
 30
0.0
 40
55.41818358681419
 41
0.0
 71
     1
 72
     1
  1
\A1;1402 MTG CTRS 
  7
Note Text (ANSI)
 73
     1
 44
1.0
  0
LINE
  5
3E47D
330
2
100
AcDbEntity
  8
DIM
100
AcDbLine
 10
34926.94832192149
 20
-25161.82216435777
 30
0.0
 11
34853.77031829016
 21
-25161.82216435776
 31
0.0
  0
SOLID
  5
3E47E
330
2
100
AcDbEntity
  8
DIM
100
AcDbTrace
 10
34926.94832192149
 20
-25154.24640678201
 30
0.0
 11
34926.94832192149
 21
-25169.39792193353
 31
0.0
 12
34972.40286737604
 22
-25161.82216435777
 32
0.0
 13
34972.40286737604
 23
-25161.82216435777
 33
0.0
  0
MTEXT
  5
3E47F
330
2
100
AcDbEntity
  8
DIM
100
AcDbMText
 10
34840.69621424545
 20
-25126.83687720424
 30
0.0
 40
55.41818358681419
 41
0.0
 71
     3
 72
     1
  1
\A1;35 
  7
Note Text (ANSI)
 73
     1
 44
1.0
  0
LINE
  5
3E481
330
2
100
AcDbEntity
  8
DIM
100
AcDbLine
 10
36440.80536429856
 20
-25034.77413807505
 30
0.0
 11
36440.80536429856
 21
-25141.26876993369
 31
0.0
  0
LINE
  5
3E482
330
2
100
AcDbEntity
  8
DIM
100
AcDbLine
 10
36440.8053642985
 20
-25034.77413806856
 30
0.0
 11
36440.8053642985
 21
-25223.95335937759
 31
0.0
  0
LINE
  5
3E483
330
2
100
AcDbEntity
  8
DIM
100
AcDbLine
 10
36486.25990975304
 20
-25161.82216435777
 30
0.0
 11
36559.43791338436
 21
-25161.82216435776
 31
0.0
  0
SOLID
  5
3E484
330
2
100
AcDbEntity
  8
DIM
100
AcDbTrace
 10
36486.25990975304
 20
-25154.24640678201
 30
0.0
 11
36486.25990975304
 21
-25169.39792193353
 31
0.0
 12
36440.80536429849
 22
-25161.82216435777
 32
0.0
 13
36440.80536429849
 23
-25161.82216435777
 33
0.0
  0
MTEXT
  5
3E485
330
2
100
AcDbEntity
  8
DIM
100
AcDbMText
 10
36572.51201742908
 20
-25126.83687720424
 30
0.0
 40
55.41818358681419
 41
0.0
 71
     1
 72
     1
  1
\A1;35 
  7
Note Text (ANSI)
 73
     1
 44
1.0
  0
LINE
  5
3E6C4
330
2
100
AcDbEntity
  8
DIM
100
AcDbLine
 10
35978.28914620817
 20
-23302.38568482084
 30
0.0
 11
36045.49042175101
 21
-23302.38568482084
 31
0.0
  0
LINE
  5
3E6C5
330
2
100
AcDbEntity
  8
DIM
100
AcDbLine
 10
36308.00858966884
 20
-23302.38568482084
 30
0.0
 11
36218.28471198485
 21
-23302.38568482084
 31
0.0
  0
SOLID
  5
3E6C6
330
2
100
AcDbEntity
  8
DIM
100
AcDbTrace
 10
35978.28914620817
 20
-23294.80992724509
 30
0.0
 11
35978.28914620817
 21
-23309.9614423966
 31
0.0
 12
35932.83460075363
 22
-23302.38568482084
 32
0.0
 13
35932.83460075363
 23
-23302.38568482084
 33
0.0
  0
SOLID
  5
3E6C7
330
2
100
AcDbEntity
  8
DIM
100
AcDbTrace
 10
36308.00858966884
 20
-23294.80992724509
 30
0.0
 11
36308.00858966884
 21
-23309.9614423966
 31
0.0
 12
36353.46313512338
 22
-23302.38568482084
 32
0.0
 13
36353.46313512338
 23
-23302.38568482084
 33
0.0
  0
MTEXT
  5
3E6C8
330
2
100
AcDbEntity
  8
DIM
100
AcDbMText
 10
36071.62795792648
 20
-23273.52282291918
 30
0.0
 40
55.41818358681419
 41
0.0
 71
     1
 72
     1
  1
\A1;420
  7
Note Text (ANSI)
 73
     1
 44
1.0
  0
LINE
  5
3E6C9
330
2
100
AcDbEntity
  8
DIM
100
AcDbLine
 10
36353.46313512338
 20
-23474.75514357739
 30
0.0
 11
36353.46313512338
 21
-23247.70474054006
 31
0.0
  0
LINE
  5
3E6EA
330
2
100
AcDbEntity
  8
DIM
100
AcDbLine
 10
35030.16344040039
 20
-23471.7088151309
 30
0.0
 11
35030.16344040039
 21
-23244.65841209357
 31
0.0
  0
LINE
  5
3E6EB
330
2
100
AcDbEntity
  8
DIM
100
AcDbLine
 10
35075.61798585493
 20
-23302.38568482084
 30
0.0
 11
35142.81926139776
 21
-23302.38568482084
 31
0.0
  0
LINE
  5
3E6EC
330
2
100
AcDbEntity
  8
DIM
100
AcDbLine
 10
35405.3374293156
 20
-23302.38568482084
 30
0.0
 11
35315.61355163161
 21
-23302.38568482084
 31
0.0
  0
SOLID
  5
3E6ED
330
2
100
AcDbEntity
  8
DIM
100
AcDbTrace
 10
35075.61798585493
 20
-23294.80992724509
 30
0.0
 11
35075.61798585493
 21
-23309.9614423966
 31
0.0
 12
35030.16344040039
 22
-23302.38568482084
 32
0.0
 13
35030.16344040039
 23
-23302.38568482084
 33
0.0
  0
SOLID
  5
3E6EE
330
2
100
AcDbEntity
  8
DIM
100
AcDbTrace
 10
35405.3374293156
 20
-23294.80992724509
 30
0.0
 11
35405.3374293156
 21
-23309.9614423966
 31
0.0
 12
35450.79197477014
 22
-23302.38568482084
 32
0.0
 13
35450.79197477014
 23
-23302.38568482084
 33
0.0
  0
MTEXT
  5
3E6EF
330
2
100
AcDbEntity
  8
DIM
100
AcDbMText
 10
35168.95679757324
 20
-23273.52282291918
 30
0.0
 40
55.41818358681419
 41
0.0
 71
     1
 72
     1
  1
\A1;420
  7
Note Text (ANSI)
 73
     1
 44
1.0
  0
LINE
  5
3E6F0
330
2
100
AcDbEntity
  8
DIM
100
AcDbLine
 10
35450.79197477014
 20
-23474.75514357739
 30
0.0
 11
35450.79197477014
 21
-23247.70474054006
 31
0.0
  0
LINE
  5
3E826
330
2
100
AcDbEntity
  8
DIM
100
AcDbLine
 10
36438.69214736825
 20
-23585.1299705007
 30
0.0
 11
36438.69214736825
 21
-23375.74678811887
 31
0.0
  0
LINE
  5
3E827
330
2
100
AcDbEntity
  8
DIM
100
AcDbLine
 10
36484.14669282279
 20
-23433.47406084614
 30
0.0
 11
36529.60123827734
 21
-23433.47406084614
 31
0.0
  0
LINE
  5
3E828
330
2
100
AcDbEntity
  8
DIM
100
AcDbLine
 10
36308.27215988613
 20
-23433.47406084614
 30
0.0
 11
36211.38179933729
 21
-23433.47406084614
 31
0.0
  0
SOLID
  5
3E829
330
2
100
AcDbEntity
  8
DIM
100
AcDbTrace
 10
36484.14669282279
 20
-23425.89830327038
 30
0.0
 11
36484.14669282279
 21
-23441.04981842189
 31
0.0
 12
36438.69214736825
 22
-23433.47406084614
 32
0.0
 13
36438.69214736825
 23
-23433.47406084614
 33
0.0
  0
SOLID
  5
3E82A
330
2
100
AcDbEntity
  8
DIM
100
AcDbTrace
 10
36308.27215988613
 20
-23425.89830327038
 30
0.0
 11
36308.27215988613
 21
-23441.04981842189
 31
0.0
 12
36353.72670534067
 22
-23433.47406084614
 32
0.0
 13
36353.72670534067
 23
-23433.47406084614
 33
0.0
  0
MTEXT
  5
3E82B
330
2
100
AcDbEntity
  8
DIM
100
AcDbMText
 10
36196.83634479185
 20
-23404.49954377271
 30
0.0
 40
55.41818358681419
 41
0.0
 71
     3
 72
     1
  1
\A1;85
  7
Note Text (ANSI)
 73
     1
 44
1.0
  0
LINE
  5
3EA6F
330
2
100
AcDbEntity
  8
DIM
100
AcDbLine
 10
34541.85882940913
 20
-24643.54018704575
 30
0.0
 11
34793.39928639531
 21
-24643.54018704575
 31
0.0
  0
LINE
  5
3EA70
330
2
100
AcDbEntity
  8
DIM
100
AcDbLine
 10
34541.85882940912
 20
-23872.63189320282
 30
0.0
 11
34793.39928639531
 21
-23872.63189320282
 31
0.0
  0
LINE
  5
3EA71
330
2
100
AcDbEntity
  8
DIM
100
AcDbLine
 10
34687.03965743871
 20
-24643.54018704575
 30
0.0
 11
34687.03965743871
 21
-24344.66181447521
 31
0.0
  0
LINE
  5
3EA72
330
2
100
AcDbEntity
  8
DIM
100
AcDbLine
 10
34687.03965743871
 20
-23872.63189320283
 30
0.0
 11
34687.03965743871
 21
-24144.17769301605
 31
0.0
  0
SOLID
  5
3EA73
330
2
100
AcDbEntity
  8
DIM
100
AcDbTrace
 10
34679.46389986295
 20
-24598.0856415912
 30
0.0
 11
34694.61541501447
 21
-24598.0856415912
 31
0.0
 12
34687.03965743871
 22
-24643.54018704575
 32
0.0
 13
34687.03965743871
 23
-24643.54018704575
 33
0.0
  0
SOLID
  5
3EA74
330
2
100
AcDbEntity
  8
DIM
100
AcDbTrace
 10
34679.46389986295
 20
-23918.08643865737
 30
0.0
 11
34694.61541501447
 21
-23918.08643865737
 31
0.0
 12
34687.03965743871
 22
-23872.63189320282
 32
0.0
 13
34687.03965743871
 23
-23872.63189320282
 33
0.0
  0
MTEXT
  5
3EA75
330
2
100
AcDbEntity
  8
DIM
100
AcDbMText
 10
34652.05437028518
 20
-24303.03041950588
 30
0.0
 40
55.41818358681419
 41
0.0
 71
     1
 72
     1
  1
\A1;770
  7
Note Text (ANSI)
 11
0.0000000000000001
 21
1.0
 31
0.0
 73
     1
 44
1.0
  0
LINE
  5
3EA78
330
2
100
AcDbEntity
  8
DIM
100
AcDbLine
 10
34541.85882940913
 20
-24907.54018704575
 30
0.0
 11
34793.39928639531
 21
-24907.54018704575
 31
0.0
  0
SOLID
  5
3EA82
330
2
100
AcDbEntity
  8
DIM
100
AcDbTrace
 10
34679.46389986295
 20
-24862.08564159121
 30
0.0
 11
34694.61541501447
 21
-24862.08564159121
 31
0.0
 12
34687.03965743871
 22
-24907.54018704575
 32
0.0
 13
34687.03965743871
 23
-24907.54018704575
 33
0.0
  0
SOLID
  5
3EA8B
330
2
100
AcDbEntity
  8
DIM
100
AcDbTrace
 10
34679.46389986295
 20
-24688.99473250029
 30
0.0
 11
34694.61541501447
 21
-24688.99473250029
 31
0.0
 12
34687.03965743871
 22
-24643.54018704575
 32
0.0
 13
34687.03965743871
 23
-24643.54018704575
 33
0.0
  0
MTEXT
  5
3EA94
330
2
100
AcDbEntity
  8
DIM
100
AcDbMText
 10
34658.9807956958
 20
-25075.92366799163
 30
0.0
 40
55.41818358681419
 41
0.0
 71
     1
 72
     1
  1
\A1;264
  7
Note Text (ANSI)
 11
0.0000000000000001
 21
1.0
 31
0.0
 73
     1
 44
1.0
  0
LINE
  5
3EA9D
330
2
100
AcDbEntity
  8
DIM
100
AcDbLine
 10
34687.03965743871
 20
-24942.41855961629
 30
0.0
 11
34687.03965743871
 21
-24643.54018704575
 31
0.0
  0
LINE
  5
3F024
330
2
100
AcDbEntity
  8
DIM
  6
HIDDEN
100
AcDbLine
 10
39139.54995543123
 20
-21504.90625232733
 30
0.0
 11
39571.43233341481
 21
-21504.90625232734
 31
0.0
  0
LINE
  5
3F025
330
2
100
AcDbEntity
  8
DIM
  6
HIDDEN
100
AcDbLine
 10
39139.54995543123
 20
-21504.90625232733
 30
0.0
 11
37900.56559017881
 21
-21504.90625232734
 31
0.0
  0
LINE
  5
3F026
330
2
100
AcDbEntity
  8
DIM
  6
HIDDEN
100
AcDbLine
 10
37900.56559017881
 20
-21504.90625232733
 30
0.0
 11
37900.56559017881
 21
-23441.20092478077
 31
0.0
  0
LINE
  5
3F027
330
2
100
AcDbEntity
  8
DIM
  6
HIDDEN
100
AcDbLine
 10
39571.4323334148
 20
-21504.90625232733
 30
0.0
 11
39571.43233341481
 21
-23441.20092478077
 31
0.0
  0
MTEXT
  5
3F030
330
2
100
AcDbEntity
  8
DIM
100
AcDbMText
 10
38792.66616414073
 20
-21471.56337844137
 30
0.0
 40
55.41818250309337
 41
1027.20628900697
 71
     8
 72
     1
  1
2000 MIN CLEARANCE
  7
Note Text (ANSI)
 73
     2
 44
0.9878841638565063
  0
LINE
  5
3F0F5
330
2
100
AcDbEntity
  8
DIM
  6
HIDDEN
100
AcDbLine
 10
36628.58283135575
 20
-20418.57154887988
 30
0.0
 11
34848.35208850475
 21
-20418.57154887988
 31
0.0
  0
LINE
  5
3F0F6
330
2
100
AcDbEntity
  8
DIM
  6
HIDDEN
100
AcDbLine
 10
34848.35208850474
 20
-20418.57154887988
 30
0.0
 11
34848.35208850473
 21
-20608.95459762164
 31
0.0
  0
LINE
  5
3F0F7
330
2
100
AcDbEntity
  8
DIM
  6
HIDDEN
100
AcDbLine
 10
36628.58283135575
 20
-20418.57154887988
 30
0.0
 11
36628.58283135575
 21
-20608.95459762164
 31
0.0
  0
MTEXT
  5
3F0F8
330
2
100
AcDbEntity
  8
DIM
100
AcDbMText
 10
35728.77673761257
 20
-20526.26527911389
 30
0.0
 40
55.41818250309337
 41
1027.20628900697
 71
     8
 72
     1
  1
500 MIN CLEARANCE
  7
Note Text (ANSI)
 73
     2
 44
0.9878841638565063
  0
LINE
  5
3F0F9
330
2
100
AcDbEntity
  8
DIM
  6
HIDDEN
100
AcDbLine
 10
34849.67045522659
 20
-22502.14102786976
 30
0.0
 11
34849.67045522659
 21
-22886.43698809814
 31
0.0
  0
LINE
  5
3F0FA
330
2
100
AcDbEntity
  8
DIM
  6
HIDDEN
100
AcDbLine
 10
34849.67045522659
 20
-22886.43698809814
 30
0.0
 11
36629.05875424267
 21
-22886.43698809814
 31
0.0
  0
LINE
  5
3F0FB
330
2
100
AcDbEntity
  8
DIM
  6
HIDDEN
100
AcDbLine
 10
36629.05875424267
 20
-22502.14102786976
 30
0.0
 11
36629.05875424267
 21
-22886.43698809814
 31
0.0
  0
MTEXT
  5
3F104
330
2
100
AcDbEntity
  8
DIM
100
AcDbMText
 10
35719.24472013498
 20
-22866.72275515881
 30
0.0
 40
55.41818250309337
 41
1027.20628900697
 71
     8
 72
     1
  1
500 MIN CLEARANCE
  7
Note Text (ANSI)
 73
     2
 44
0.9878841638565063
  0
LINE
  5
3F105
330
2
100
AcDbEntity
  8
DIM
  6
HIDDEN
100
AcDbLine
 10
34609.39804658741
 20
-20920.39595671585
 30
0.0
 11
34402.47912651702
 21
-20920.39595671585
 31
0.0
  0
LINE
  5
3F106
330
2
100
AcDbEntity
  8
DIM
  6
HIDDEN
100
AcDbLine
 10
34402.47912651702
 20
-20920.39595671585
 30
0.0
 11
34402.47912651702
 21
-22386.37589402212
 31
0.0
  0
LINE
  5
3F107
330
2
100
AcDbEntity
  8
DIM
  6
HIDDEN
100
AcDbLine
 10
34609.39804658741
 20
-22386.37589402212
 30
0.0
 11
34402.47912651702
 21
-22386.37589402212
 31
0.0
  0
MTEXT
  5
3F110
330
2
100
AcDbEntity
  8
DIM
100
AcDbMText
 10
34384.89028938403
 20
-21607.88453833164
 30
0.0
 40
55.41818250309337
 41
1027.20628900697
 71
     8
 72
     1
  1
500 MIN CLEARANCE
  7
Note Text (ANSI)
 11
0.0000000000000001
 21
1.0
 31
0.0
 73
     2
 44
0.9878841638565063
  0
LINE
  5
3F27D
330
2
100
AcDbEntity
  8
OUTLINE
  6
HIDDEN
100
AcDbLine
 10
36436.89214749479
 20
-24643.90574340744
 30
0.0
 11
37036.89214749479
 21
-24643.90574340744
 31
0.0
  0
LINE
  5
3F27E
330
2
100
AcDbEntity
  8
OUTLINE
  6
HIDDEN
100
AcDbLine
 10
37036.89214749479
 20
-24643.90574340744
 30
0.0
 11
37036.89214749479
 21
-24460.90957850414
 31
0.0
  0
LINE
  5
3F27F
330
2
100
AcDbEntity
  8
OUTLINE
  6
HIDDEN
100
AcDbLine
 10
37036.89214749479
 20
-24460.90957850414
 30
0.0
 11
36436.89214741993
 21
-23872.70560681379
 31
0.0
  0
MTEXT
  5
3F288
330
2
100
AcDbEntity
  8
DIM
100
AcDbMText
 10
37114.50187501312
 20
-23929.8544685258
 30
0.0
 40
55.41818250309337
 41
200.295860117132
 71
     8
 72
     1
  1
OPTIONAL WEATHER\PHOOD
  7
Note Text (ANSI)
 73
     2
 44
0.9878841638565063
  0
LINE
  5
3F292
330
2
100
AcDbEntity
  8
DIM
100
AcDbLine
 10
36729.40805277614
 20
-24140.5841441939
 30
0.0
 11
36922.25044969599
 21
-23883.32289598895
 31
0.0
  0
SOLID
  5
3F293
330
2
100
AcDbEntity
  8
DIM
100
AcDbTrace
 10
36750.60963392357
 20
-24099.66958978872
 30
0.0
 11
36762.73318772269
 21
-24108.75737580439
 31
0.0
 12
36729.40805277614
 22
-24140.5841441939
 32
0.0
 13
36729.40805277614
 23
-24140.5841441939
 33
0.0
  0
LINE
  5
3F294
330
2
100
AcDbEntity
  8
DIM
100
AcDbLine
 10
36922.25044969598
 20
-23883.32289598895
 30
0.0
 11
36989.33508658301
 21
-23883.32289598895
 31
0.0
  0
CIRCLE
  5
3F4BD
330
2
100
AcDbEntity
  8
OUTLINE
100
AcDbCircle
 10
35335.15719999851
 20
-21317.0167559116
 30
0.0
 40
329.5313426111022
  0
CIRCLE
  5
3F4BE
330
2
100
AcDbEntity
  8
OUTLINE
100
AcDbCircle
 10
35335.15719999851
 20
-21317.01675591241
 30
0.0
 40
76.24866183691835
  0
CIRCLE
  5
3F4E0
330
2
100
AcDbEntity
  8
OUTLINE
100
AcDbCircle
 10
35335.15719999813
 20
-21987.0167559108
 30
0.0
 40
329.5313426111022
  0
CIRCLE
  5
3F4E1
330
2
100
AcDbEntity
  8
OUTLINE
100
AcDbCircle
 10
35335.15719999813
 20
-21987.0167559116
 30
0.0
 40
76.24866183691835
  0
LINE
  5
3F502
330
2
100
AcDbEntity
  8
OUTLINE
100
AcDbLine
 10
35073.45463471927
 20
-23524.81919186911
 30
0.0
 11
35038.86253785633
 21
-23611.79360684876
 31
0.0
  0
LINE
  5
3F503
330
2
100
AcDbEntity
  8
OUTLINE
100
AcDbLine
 10
35073.45463471927
 20
-23524.81919186911
 30
0.0
 11
35298.59312743917
 21
-23504.90625231193
 31
0.0
  0
LINE
  5
3F504
330
2
100
AcDbEntity
  8
OUTLINE
100
AcDbLine
 10
35670.15977046811
 20
-23524.81919186911
 30
0.0
 11
35704.75186733105
 21
-23611.79360684876
 31
0.0
  0
LINE
  5
3F505
330
2
100
AcDbEntity
  8
OUTLINE
100
AcDbLine
 10
35670.15977046811
 20
-23524.81919186911
 30
0.0
 11
35445.02127774821
 21
-23504.90625231193
 31
0.0
  0
LINE
  5
3F506
330
2
100
AcDbEntity
  8
OUTLINE
100
AcDbLine
 10
35298.59312743917
 20
-23504.90625231193
 30
0.0
 11
35445.02127774821
 21
-23504.90625231193
 31
0.0
  0
LINE
  5
3F513
330
2
100
AcDbEntity
  8
OUTLINE
100
AcDbLine
 10
35743.45463471927
 20
-23524.81919184286
 30
0.0
 11
35708.86253785632
 21
-23611.7936068225
 31
0.0
  0
LINE
  5
3F514
330
2
100
AcDbEntity
  8
OUTLINE
100
AcDbLine
 10
35743.45463471927
 20
-23524.81919184286
 30
0.0
 11
35968.59312743916
 21
-23504.90625228568
 31
0.0
  0
LINE
  5
3F515
330
2
100
AcDbEntity
  8
OUTLINE
100
AcDbLine
 10
36340.15977046811
 20
-23524.81919184286
 30
0.0
 11
36374.75186733105
 21
-23611.7936068225
 31
0.0
  0
LINE
  5
3F516
330
2
100
AcDbEntity
  8
OUTLINE
100
AcDbLine
 10
36340.15977046811
 20
-23524.81919184286
 30
0.0
 11
36115.02127774821
 21
-23504.90625228568
 31
0.0
  0
LINE
  5
3F517
330
2
100
AcDbEntity
  8
OUTLINE
100
AcDbLine
 10
35968.59312743916
 20
-23504.90625228568
 30
0.0
 11
36115.02127774821
 21
-23504.90625228568
 31
0.0
  0
LINE
  5
3F525
330
2
100
AcDbEntity
  8
OUTLINE
100
AcDbLine
 10
38841.19738755681
 20
-23524.81919188452
 30
0.0
 11
38806.60529069387
 21
-23611.79360686415
 31
0.0
  0
LINE
  5
3F526
330
2
100
AcDbEntity
  8
OUTLINE
100
AcDbLine
 10
38841.19738755681
 20
-23524.81919188451
 30
0.0
 11
39066.3358802767
 21
-23504.90625232733
 31
0.0
  0
LINE
  5
3F527
330
2
100
AcDbEntity
  8
OUTLINE
100
AcDbLine
 10
39437.90252330565
 20
-23524.81919188452
 30
0.0
 11
39472.49462016859
 21
-23611.79360686415
 31
0.0
  0
LINE
  5
3F528
330
2
100
AcDbEntity
  8
OUTLINE
100
AcDbLine
 10
39437.90252330565
 20
-23524.81919188451
 30
0.0
 11
39212.76403058575
 21
-23504.90625232733
 31
0.0
  0
LINE
  5
3F529
330
2
100
AcDbEntity
  8
OUTLINE
100
AcDbLine
 10
39066.3358802767
 20
-23504.90625232733
 30
0.0
 11
39212.76403058575
 21
-23504.90625232733
 31
0.0
  0
ARC
  5
3F643
330
2
100
AcDbEntity
  8
OUTLINE
100
AcDbCircle
 10
36433.49214746058
 20
-24904.19360680425
 30
0.0
 40
2.200000000000217
100
AcDbArc
 50
269.9999999941637
 51
0.0
  0
LINE
  5
3F644
330
2
100
AcDbEntity
  8
OUTLINE
100
AcDbLine
 10
36433.49214746036
 20
-24906.39360680425
 30
0.0
 11
36433.09214746051
 21
-24906.39360680421
 31
0.0
  0
LINE
  5
3F645
330
2
100
AcDbEntity
  8
OUTLINE
100
AcDbLine
 10
36434.69214721335
 20
-24904.19360680437
 30
0.0
 11
36436.89214721328
 21
-24904.19360680458
 31
0.0
  0
LINE
  5
3F646
330
2
100
AcDbEntity
  8
OUTLINE
100
AcDbLine
 10
36434.09214745944
 20
-24915.99360680409
 30
0.0
 11
36434.09214746012
 21
-24908.9936068041
 31
0.0
  0
LINE
  5
3F647
330
2
100
AcDbEntity
  8
OUTLINE
100
AcDbLine
 10
36434.09214745877
 20
-24922.99360680409
 30
0.0
 11
36434.09214745944
 21
-24915.99360680409
 31
0.0
  0
LINE
  5
3F648
330
2
100
AcDbEntity
  8
OUTLINE
100
AcDbLine
 10
36435.69214745944
 20
-24915.99360680425
 30
0.0
 11
36435.69214745877
 21
-24922.99360680425
 31
0.0
  0
LINE
  5
3F649
330
2
100
AcDbEntity
  8
OUTLINE
100
AcDbLine
 10
36435.69214746011
 20
-24908.99360680425
 30
0.0
 11
36435.69214745944
 21
-24915.99360680425
 31
0.0
  0
LINE
  5
3F64A
330
2
100
AcDbEntity
  8
OUTLINE
100
AcDbLine
 10
36435.69214745877
 20
-24922.99360680425
 30
0.0
 11
36434.09214745877
 21
-24922.99360680409
 31
0.0
  0
LINE
  5
3F64B
330
2
100
AcDbEntity
  8
OUTLINE
100
AcDbLine
 10
36374.09214746005
 20
-24908.99360679829
 30
0.0
 11
36374.09214745935
 21
-24915.99360679829
 31
0.0
  0
LINE
  5
3F64C
330
2
100
AcDbEntity
  8
OUTLINE
100
AcDbLine
 10
36372.49214745936
 20
-24915.99360679814
 30
0.0
 11
36372.49214746004
 21
-24908.99360679814
 31
0.0
  0
LINE
  5
3F64D
330
2
100
AcDbEntity
  8
OUTLINE
100
AcDbLine
 10
36372.49214746004
 20
-24908.99360679814
 30
0.0
 11
36374.09214746005
 21
-24908.99360679829
 31
0.0
  0
LINE
  5
3F64E
330
2
100
AcDbEntity
  8
OUTLINE
100
AcDbLine
 10
36440.6921474522
 20
-24989.99360680473
 30
0.0
 11
36440.69214745151
 21
-24996.99360680473
 31
0.0
  0
LINE
  5
3F64F
330
2
100
AcDbEntity
  8
OUTLINE
100
AcDbLine
 10
36439.09214745151
 20
-24996.99360680458
 30
0.0
 11
36439.09214745221
 21
-24989.99360680458
 31
0.0
  0
LINE
  5
3F650
330
2
100
AcDbEntity
  8
OUTLINE
100
AcDbLine
 10
36439.09214745221
 20
-24989.99360680458
 30
0.0
 11
36440.6921474522
 21
-24989.99360680473
 31
0.0
  0
LINE
  5
3F651
330
2
100
AcDbEntity
  8
OUTLINE
100
AcDbLine
 10
36372.49214745083
 20
-25003.99360679813
 30
0.0
 11
36372.49214745936
 21
-24915.99360679813
 31
0.0
  0
LINE
  5
3F652
330
2
100
AcDbEntity
  8
OUTLINE
100
AcDbLine
 10
36374.09214745935
 20
-24915.99360679829
 30
0.0
 11
36374.09214745082
 21
-25003.99360679828
 31
0.0
  0
LINE
  5
3F653
330
2
100
AcDbEntity
  8
OUTLINE
100
AcDbLine
 10
36439.09214745151
 20
-24996.99360680458
 30
0.0
 11
36439.09214745084
 21
-25003.99360680462
 31
0.0
  0
LINE
  5
3F654
330
2
100
AcDbEntity
  8
OUTLINE
100
AcDbLine
 10
36440.69214745151
 20
-24996.99360680473
 30
0.0
 11
36440.69214745083
 21
-25003.99360680477
 31
0.0
  0
ARC
  5
3F655
330
2
100
AcDbEntity
  8
OUTLINE
100
AcDbCircle
 10
36433.09214746012
 20
-24908.993606804
 30
0.0
 40
2.600000000000389
100
AcDbArc
 50
0.0
 51
89.99999999416365
  0
ARC
  5
3F656
330
2
100
AcDbEntity
  8
OUTLINE
100
AcDbCircle
 10
36433.09214746012
 20
-24908.993606804
 30
0.0
 40
1.000000000000192
100
AcDbArc
 50
0.0
 51
89.99999999416365
  0
ARC
  5
3F657
330
2
100
AcDbEntity
  8
OUTLINE
100
AcDbCircle
 10
36438.09214745084
 20
-25003.99360680448
 30
0.0
 40
1.000000000000107
100
AcDbArc
 50
269.9999999941637
 51
0.0
  0
ARC
  5
3F658
330
2
100
AcDbEntity
  8
OUTLINE
100
AcDbCircle
 10
36438.09214745084
 20
-25003.99360680448
 30
0.0
 40
2.600000000000302
100
AcDbArc
 50
269.9999999941637
 51
0.0
  0
LINE
  5
3F659
330
2
100
AcDbEntity
  8
OUTLINE
100
AcDbLine
 10
36438.09214745059
 20
-25006.59360680448
 30
0.0
 11
36375.09214745053
 21
-25006.59360679838
 31
0.0
  0
LINE
  5
3F65A
330
2
100
AcDbEntity
  8
OUTLINE
100
AcDbLine
 10
36438.09214745074
 20
-25004.99360680448
 30
0.0
 11
36375.09214745069
 21
-25004.99360679838
 31
0.0
  0
ARC
  5
3F65B
330
2
100
AcDbEntity
  8
OUTLINE
100
AcDbCircle
 10
36375.09214745082
 20
-25003.99360679838
 30
0.0
 40
1.000000000000115
100
AcDbArc
 50
180.0
 51
269.9999999924961
  0
ARC
  5
3F65C
330
2
100
AcDbEntity
  8
OUTLINE
100
AcDbCircle
 10
36375.09214745082
 20
-25003.99360679838
 30
0.0
 40
2.600000000000303
100
AcDbArc
 50
180.0
 51
269.9999999933299
  0
LINE
  5
3F65D
330
2
100
AcDbEntity
  8
OUTLINE
100
AcDbLine
 10
36375.09214746021
 20
-24907.99360679838
 30
0.0
 11
36433.09214746021
 21
-24907.993606804
 31
0.0
  0
ARC
  5
3F65E
330
2
100
AcDbEntity
  8
OUTLINE
100
AcDbCircle
 10
36375.09214746011
 20
-24908.99360679838
 30
0.0
 40
1.000000000000126
100
AcDbArc
 50
89.99999999416365
 51
180.0
  0
LINE
  5
3F65F
330
2
100
AcDbEntity
  8
OUTLINE
100
AcDbLine
 10
36369.06296891019
 20
-25006.59360679778
 30
0.0
 11
36369.89214745066
 21
-25006.59360679788
 31
0.0
  0
LINE
  5
3F660
330
2
100
AcDbEntity
  8
OUTLINE
100
AcDbLine
 10
36369.89214745066
 20
-25006.59360679789
 30
0.0
 11
36369.89214745082
 21
-25004.99360679789
 31
0.0
  0
LINE
  5
3F661
330
2
100
AcDbEntity
  8
OUTLINE
100
AcDbLine
 10
36369.89214745097
 20
-25003.99360679787
 30
0.0
 11
36369.89214745089
 21
-25004.99360679787
 31
0.0
  0
LINE
  5
3F662
330
2
100
AcDbEntity
  8
OUTLINE
100
AcDbLine
 10
36369.89214746022
 20
-24907.99360679788
 30
0.0
 11
36369.89214746037
 21
-24906.39360679788
 31
0.0
  0
LINE
  5
3F663
330
2
100
AcDbEntity
  8
OUTLINE
100
AcDbLine
 10
36369.89214746018
 20
-24908.99360679787
 30
0.0
 11
36369.89214746028
 21
-24907.99360679787
 31
0.0
  0
LINE
  5
3F664
330
2
100
AcDbEntity
  8
OUTLINE
100
AcDbLine
 10
36372.49214745083
 20
-25003.99360679813
 30
0.0
 11
36370.89214745084
 21
-25003.99360679797
 31
0.0
  0
LINE
  5
3F665
330
2
100
AcDbEntity
  8
OUTLINE
100
AcDbLine
 10
36372.49214746004
 20
-24908.99360679813
 30
0.0
 11
36372.49214745936
 21
-24915.99360679813
 31
0.0
  0
LINE
  5
3F666
330
2
100
AcDbEntity
  8
OUTLINE
100
AcDbLine
 10
36370.89214746005
 20
-24908.99360679798
 30
0.0
 11
36372.49214746004
 21
-24908.99360679813
 31
0.0
  0
LINE
  5
3F667
330
2
100
AcDbEntity
  8
OUTLINE
100
AcDbLine
 10
36372.49214745936
 20
-24915.99360679813
 30
0.0
 11
36372.4921474515
 21
-24996.99360679813
 31
0.0
  0
LINE
  5
3F668
330
2
100
AcDbEntity
  8
OUTLINE
100
AcDbLine
 10
36369.89214746018
 20
-24908.99360679787
 30
0.0
 11
36370.89214746018
 21
-24908.99360679797
 31
0.0
  0
LINE
  5
3F669
330
2
100
AcDbEntity
  8
OUTLINE
100
AcDbLine
 10
36369.89214745097
 20
-25003.99360679787
 30
0.0
 11
36370.89214745097
 21
-25003.99360679796
 31
0.0
  0
LINE
  5
3F931
330
2
100
AcDbEntity
  8
OUTLINE
100
AcDbLine
 10
35000.17765795233
 20
-24642.63189320282
 30
0.0
 11
35480.17765795233
 21
-24642.63189320282
 31
0.0
1001
GENIUS_GENREC_14
1002
{
1000
PYDIR
1011
35030.17765795233
1021
-23872.63189320282
1031
0.0
1002
}
1002
{
1000
PXDIR
1011
35450.17765795233
1021
-24642.63189320282
1031
0.0
1002
}
1002
{
1000
PORI
1011
35030.17765795233
1021
-24642.63189320282
1031
0.0
1002
}
1002
{
1000
PINS
1011
35030.17765795233
1021
-24642.63189320282
1031
0.0
1002
}
1002
{
1000
PINS2
1011
35450.17765795233
1021
-23872.63189320282
1031
0.0
1002
}
1002
{
1000
C
1070
     1
1002
}
1001
GENIUS_GENODEF_13
1002
{
1000
HIER
1070
     0
1002
}
1002
{
1000
MANEDIT
1070
     0
1002
}
1002
{
1000
NOSEL
1070
     0
1002
}
1002
{
1000
BEHIND
1070
     0
1002
}
1002
{
1000
OTHER
1070
     0
1002
}
1002
{
1000
REACTOR
1002
}
1001
GENIUS_GENOBJ-N-REC_13
1002
{
1000
OWNER
1000
GEN
1002
}
  0
LINE
  5
3F932
330
2
100
AcDbEntity
  8
OUTLINE
100
AcDbLine
 10
35450.17765795233
 20
-24672.63189320282
 30
0.0
 11
35450.17765795233
 21
-23842.63189320282
 31
0.0
1001
GENIUS_GENREC_14
1002
{
1000
PYDIR
1011
35030.17765795233
1021
-23872.63189320282
1031
0.0
1002
}
1002
{
1000
PXDIR
1011
35450.17765795233
1021
-24642.63189320282
1031
0.0
1002
}
1002
{
1000
PORI
1011
35030.17765795233
1021
-24642.63189320282
1031
0.0
1002
}
1002
{
1000
PINS
1011
35030.17765795233
1021
-24642.63189320282
1031
0.0
1002
}
1002
{
1000
PINS2
1011
35450.17765795233
1021
-23872.63189320282
1031
0.0
1002
}
1002
{
1000
C
1070
     1
1002
}
1001
GENIUS_GENODEF_13
1002
{
1000
HIER
1070
     0
1002
}
1002
{
1000
MANEDIT
1070
     0
1002
}
1002
{
1000
NOSEL
1070
     0
1002
}
1002
{
1000
BEHIND
1070
     0
1002
}
1002
{
1000
OTHER
1070
     0
1002
}
1002
{
1000
REACTOR
1002
}
1001
GENIUS_GENOBJ-N-REC_13
1002
{
1000
OWNER
1000
GEN
1002
}
  0
LINE
  5
3F933
330
2
100
AcDbEntity
  8
OUTLINE
100
AcDbLine
 10
35480.17765795233
 20
-23872.63189320282
 30
0.0
 11
35000.17765795233
 21
-23872.63189320282
 31
0.0
1001
GENIUS_GENREC_14
1002
{
1000
PYDIR
1011
35030.17765795233
1021
-23872.63189320282
1031
0.0
1002
}
1002
{
1000
PXDIR
1011
35450.17765795233
1021
-24642.63189320282
1031
0.0
1002
}
1002
{
1000
PORI
1011
35030.17765795233
1021
-24642.63189320282
1031
0.0
1002
}
1002
{
1000
PINS
1011
35030.17765795233
1021
-24642.63189320282
1031
0.0
1002
}
1002
{
1000
PINS2
1011
35450.17765795233
1021
-23872.63189320282
1031
0.0
1002
}
1002
{
1000
C
1070
     1
1002
}
1001
GENIUS_GENODEF_13
1002
{
1000
HIER
1070
     0
1002
}
1002
{
1000
MANEDIT
1070
     0
1002
}
1002
{
1000
NOSEL
1070
     0
1002
}
1002
{
1000
BEHIND
1070
     0
1002
}
1002
{
1000
OTHER
1070
     0
1002
}
1002
{
1000
REACTOR
1002
}
1001
GENIUS_GENOBJ-N-REC_13
1002
{
1000
OWNER
1000
GEN
1002
}
  0
LINE
  5
3F934
330
2
100
AcDbEntity
  8
OUTLINE
100
AcDbLine
 10
35030.17765795233
 20
-23842.63189320282
 30
0.0
 11
35030.17765795233
 21
-24672.63189320282
 31
0.0
1001
GENIUS_GENREC_14
1002
{
1000
PYDIR
1011
35030.17765795233
1021
-23872.63189320282
1031
0.0
1002
}
1002
{
1000
PXDIR
1011
35450.17765795233
1021
-24642.63189320282
1031
0.0
1002
}
1002
{
1000
PORI
1011
35030.17765795233
1021
-24642.63189320282
1031
0.0
1002
}
1002
{
1000
PINS
1011
35030.17765795233
1021
-24642.63189320282
1031
0.0
1002
}
1002
{
1000
PINS2
1011
35450.17765795233
1021
-23872.63189320282
1031
0.0
1002
}
1002
{
1000
C
1070
     1
1002
}
1001
GENIUS_GENODEF_13
1002
{
1000
HIER
1070
     0
1002
}
1002
{
1000
MANEDIT
1070
     0
1002
}
1002
{
1000
NOSEL
1070
     0
1002
}
1002
{
1000
BEHIND
1070
     0
1002
}
1002
{
1000
OTHER
1070
     0
1002
}
1002
{
1000
REACTOR
1002
}
1001
GENIUS_GENOBJ-N-REC_13
1002
{
1000
OWNER
1000
GEN
1002
}
  0
LWPOLYLINE
  5
3F935
330
2
100
AcDbEntity
  8
OUTLINE
100
AcDbPolyline
 90
        2
 70
     0
 43
0.0
 10
35000.17765795233
 20
-23872.63189320282
 10
35000.17765795233
 20
-24642.63189320282
1001
GENIUS_GENREC_14
1002
{
1000
PYDIR
1011
35030.17765795233
1021
-23872.63189320282
1031
0.0
1002
}
1002
{
1000
PXDIR
1011
35450.17765795233
1021
-24642.63189320282
1031
0.0
1002
}
1002
{
1000
PORI
1011
35030.17765795233
1021
-24642.63189320282
1031
0.0
1002
}
1002
{
1000
PINS
1011
35030.17765795233
1021
-24642.63189320282
1031
0.0
1002
}
1002
{
1000
PINS2
1011
35450.17765795233
1021
-23872.63189320282
1031
0.0
1002
}
1002
{
1000
C
1070
     1
1002
}
1001
GENIUS_GENODEF_13
1002
{
1000
HIER
1070
     0
1002
}
1002
{
1000
MANEDIT
1070
     0
1002
}
1002
{
1000
NOSEL
1070
     0
1002
}
1002
{
1000
BEHIND
1070
     0
1002
}
1002
{
1000
OTHER
1070
     0
1002
}
1002
{
1000
REACTOR
1002
}
1001
GENIUS_GENOBJ-N-REC_13
1002
{
1000
OWNER
1000
GEN
1002
}
  0
LWPOLYLINE
  5
3F936
330
2
100
AcDbEntity
  8
OUTLINE
100
AcDbPolyline
 90
        2
 70
     0
 43
0.0
 10
35480.17765795233
 20
-24642.63189320282
 10
35480.17765795233
 20
-23872.63189320282
1001
GENIUS_GENREC_14
1002
{
1000
PYDIR
1011
35030.17765795233
1021
-23872.63189320282
1031
0.0
1002
}
1002
{
1000
PXDIR
1011
35450.17765795233
1021
-24642.63189320282
1031
0.0
1002
}
1002
{
1000
PORI
1011
35030.17765795233
1021
-24642.63189320282
1031
0.0
1002
}
1002
{
1000
PINS
1011
35030.17765795233
1021
-24642.63189320282
1031
0.0
1002
}
1002
{
1000
PINS2
1011
35450.17765795233
1021
-23872.63189320282
1031
0.0
1002
}
1002
{
1000
C
1070
     1
1002
}
1001
GENIUS_GENODEF_13
1002
{
1000
HIER
1070
     0
1002
}
1002
{
1000
MANEDIT
1070
     0
1002
}
1002
{
1000
NOSEL
1070
     0
1002
}
1002
{
1000
BEHIND
1070
     0
1002
}
1002
{
1000
OTHER
1070
     0
1002
}
1002
{
1000
REACTOR
1002
}
1001
GENIUS_GENOBJ-N-REC_13
1002
{
1000
OWNER
1000
GEN
1002
}
  0
LWPOLYLINE
  5
3F937
330
2
100
AcDbEntity
  8
OUTLINE
100
AcDbPolyline
 90
        2
 70
     0
 43
0.0
 10
35450.17765795233
 20
-23842.63189320282
 10
35030.17765795233
 20
-23842.63189320282
1001
GENIUS_GENREC_14
1002
{
1000
PYDIR
1011
35030.17765795233
1021
-23872.63189320282
1031
0.0
1002
}
1002
{
1000
PXDIR
1011
35450.17765795233
1021
-24642.63189320282
1031
0.0
1002
}
1002
{
1000
PORI
1011
35030.17765795233
1021
-24642.63189320282
1031
0.0
1002
}
1002
{
1000
PINS
1011
35030.17765795233
1021
-24642.63189320282
1031
0.0
1002
}
1002
{
1000
PINS2
1011
35450.17765795233
1021
-23872.63189320282
1031
0.0
1002
}
1002
{
1000
C
1070
     1
1002
}
1001
GENIUS_GENODEF_13
1002
{
1000
HIER
1070
     0
1002
}
1002
{
1000
MANEDIT
1070
     0
1002
}
1002
{
1000
NOSEL
1070
     0
1002
}
1002
{
1000
BEHIND
1070
     0
1002
}
1002
{
1000
OTHER
1070
     0
1002
}
1002
{
1000
REACTOR
1002
}
1001
GENIUS_GENOBJ-N-REC_13
1002
{
1000
OWNER
1000
GEN
1002
}
  0
LINE
  5
3F938
330
2
100
AcDbEntity
  8
OUTLINE
100
AcDbLine
 10
35030.17765795233
 20
-24672.63189320282
 30
0.0
 11
35450.17765795233
 21
-24672.63189320282
 31
0.0
  0
LINE
  5
3F948
330
2
100
AcDbEntity
  8
OUTLINE
100
AcDbLine
 10
35902.83460075364
 20
-24642.63189320282
 30
0.0
 11
36382.83460075364
 21
-24642.63189320282
 31
0.0
1001
GENIUS_GENREC_14
1002
{
1000
PYDIR
1011
35932.83460075364
1021
-23872.63189320282
1031
0.0
1002
}
1002
{
1000
PXDIR
1011
36352.83460075364
1021
-24642.63189320282
1031
0.0
1002
}
1002
{
1000
PORI
1011
35932.83460075364
1021
-24642.63189320282
1031
0.0
1002
}
1002
{
1000
PINS
1011
35932.83460075364
1021
-24642.63189320282
1031
0.0
1002
}
1002
{
1000
PINS2
1011
36352.83460075364
1021
-23872.63189320282
1031
0.0
1002
}
1002
{
1000
C
1070
     1
1002
}
1001
GENIUS_GENODEF_13
1002
{
1000
HIER
1070
     0
1002
}
1002
{
1000
MANEDIT
1070
     0
1002
}
1002
{
1000
NOSEL
1070
     0
1002
}
1002
{
1000
BEHIND
1070
     0
1002
}
1002
{
1000
OTHER
1070
     0
1002
}
1002
{
1000
REACTOR
1002
}
1001
GENIUS_GENOBJ-N-REC_13
1002
{
1000
OWNER
1000
GEN
1002
}
  0
LINE
  5
3F949
330
2
100
AcDbEntity
  8
OUTLINE
100
AcDbLine
 10
36352.83460075364
 20
-24672.63189320282
 30
0.0
 11
36352.83460075364
 21
-23842.63189320282
 31
0.0
1001
GENIUS_GENREC_14
1002
{
1000
PYDIR
1011
35932.83460075364
1021
-23872.63189320282
1031
0.0
1002
}
1002
{
1000
PXDIR
1011
36352.83460075364
1021
-24642.63189320282
1031
0.0
1002
}
1002
{
1000
PORI
1011
35932.83460075364
1021
-24642.63189320282
1031
0.0
1002
}
1002
{
1000
PINS
1011
35932.83460075364
1021
-24642.63189320282
1031
0.0
1002
}
1002
{
1000
PINS2
1011
36352.83460075364
1021
-23872.63189320282
1031
0.0
1002
}
1002
{
1000
C
1070
     1
1002
}
1001
GENIUS_GENODEF_13
1002
{
1000
HIER
1070
     0
1002
}
1002
{
1000
MANEDIT
1070
     0
1002
}
1002
{
1000
NOSEL
1070
     0
1002
}
1002
{
1000
BEHIND
1070
     0
1002
}
1002
{
1000
OTHER
1070
     0
1002
}
1002
{
1000
REACTOR
1002
}
1001
GENIUS_GENOBJ-N-REC_13
1002
{
1000
OWNER
1000
GEN
1002
}
  0
LINE
  5
3F94A
330
2
100
AcDbEntity
  8
OUTLINE
100
AcDbLine
 10
36382.83460075364
 20
-23872.63189320282
 30
0.0
 11
35902.83460075364
 21
-23872.63189320282
 31
0.0
1001
GENIUS_GENREC_14
1002
{
1000
PYDIR
1011
35932.83460075364
1021
-23872.63189320282
1031
0.0
1002
}
1002
{
1000
PXDIR
1011
36352.83460075364
1021
-24642.63189320282
1031
0.0
1002
}
1002
{
1000
PORI
1011
35932.83460075364
1021
-24642.63189320282
1031
0.0
1002
}
1002
{
1000
PINS
1011
35932.83460075364
1021
-24642.63189320282
1031
0.0
1002
}
1002
{
1000
PINS2
1011
36352.83460075364
1021
-23872.63189320282
1031
0.0
1002
}
1002
{
1000
C
1070
     1
1002
}
1001
GENIUS_GENODEF_13
1002
{
1000
HIER
1070
     0
1002
}
1002
{
1000
MANEDIT
1070
     0
1002
}
1002
{
1000
NOSEL
1070
     0
1002
}
1002
{
1000
BEHIND
1070
     0
1002
}
1002
{
1000
OTHER
1070
     0
1002
}
1002
{
1000
REACTOR
1002
}
1001
GENIUS_GENOBJ-N-REC_13
1002
{
1000
OWNER
1000
GEN
1002
}
  0
LINE
  5
3F94B
330
2
100
AcDbEntity
  8
OUTLINE
100
AcDbLine
 10
35932.83460075364
 20
-23842.63189320282
 30
0.0
 11
35932.83460075364
 21
-24672.63189320282
 31
0.0
1001
GENIUS_GENREC_14
1002
{
1000
PYDIR
1011
35932.83460075364
1021
-23872.63189320282
1031
0.0
1002
}
1002
{
1000
PXDIR
1011
36352.83460075364
1021
-24642.63189320282
1031
0.0
1002
}
1002
{
1000
PORI
1011
35932.83460075364
1021
-24642.63189320282
1031
0.0
1002
}
1002
{
1000
PINS
1011
35932.83460075364
1021
-24642.63189320282
1031
0.0
1002
}
1002
{
1000
PINS2
1011
36352.83460075364
1021
-23872.63189320282
1031
0.0
1002
}
1002
{
1000
C
1070
     1
1002
}
1001
GENIUS_GENODEF_13
1002
{
1000
HIER
1070
     0
1002
}
1002
{
1000
MANEDIT
1070
     0
1002
}
1002
{
1000
NOSEL
1070
     0
1002
}
1002
{
1000
BEHIND
1070
     0
1002
}
1002
{
1000
OTHER
1070
     0
1002
}
1002
{
1000
REACTOR
1002
}
1001
GENIUS_GENOBJ-N-REC_13
1002
{
1000
OWNER
1000
GEN
1002
}
  0
LWPOLYLINE
  5
3F94C
330
2
100
AcDbEntity
  8
OUTLINE
100
AcDbPolyline
 90
        2
 70
     0
 43
0.0
 10
35902.83460075364
 20
-23872.63189320282
 10
35902.83460075364
 20
-24642.63189320282
1001
GENIUS_GENREC_14
1002
{
1000
PYDIR
1011
35932.83460075364
1021
-23872.63189320282
1031
0.0
1002
}
1002
{
1000
PXDIR
1011
36352.83460075364
1021
-24642.63189320282
1031
0.0
1002
}
1002
{
1000
PORI
1011
35932.83460075364
1021
-24642.63189320282
1031
0.0
1002
}
1002
{
1000
PINS
1011
35932.83460075364
1021
-24642.63189320282
1031
0.0
1002
}
1002
{
1000
PINS2
1011
36352.83460075364
1021
-23872.63189320282
1031
0.0
1002
}
1002
{
1000
C
1070
     1
1002
}
1001
GENIUS_GENODEF_13
1002
{
1000
HIER
1070
     0
1002
}
1002
{
1000
MANEDIT
1070
     0
1002
}
1002
{
1000
NOSEL
1070
     0
1002
}
1002
{
1000
BEHIND
1070
     0
1002
}
1002
{
1000
OTHER
1070
     0
1002
}
1002
{
1000
REACTOR
1002
}
1001
GENIUS_GENOBJ-N-REC_13
1002
{
1000
OWNER
1000
GEN
1002
}
  0
LWPOLYLINE
  5
3F94D
330
2
100
AcDbEntity
  8
OUTLINE
100
AcDbPolyline
 90
        2
 70
     0
 43
0.0
 10
36382.83460075364
 20
-24642.63189320282
 10
36382.83460075364
 20
-23872.63189320282
1001
GENIUS_GENREC_14
1002
{
1000
PYDIR
1011
35932.83460075364
1021
-23872.63189320282
1031
0.0
1002
}
1002
{
1000
PXDIR
1011
36352.83460075364
1021
-24642.63189320282
1031
0.0
1002
}
1002
{
1000
PORI
1011
35932.83460075364
1021
-24642.63189320282
1031
0.0
1002
}
1002
{
1000
PINS
1011
35932.83460075364
1021
-24642.63189320282
1031
0.0
1002
}
1002
{
1000
PINS2
1011
36352.83460075364
1021
-23872.63189320282
1031
0.0
1002
}
1002
{
1000
C
1070
     1
1002
}
1001
GENIUS_GENODEF_13
1002
{
1000
HIER
1070
     0
1002
}
1002
{
1000
MANEDIT
1070
     0
1002
}
1002
{
1000
NOSEL
1070
     0
1002
}
1002
{
1000
BEHIND
1070
     0
1002
}
1002
{
1000
OTHER
1070
     0
1002
}
1002
{
1000
REACTOR
1002
}
1001
GENIUS_GENOBJ-N-REC_13
1002
{
1000
OWNER
1000
GEN
1002
}
  0
LWPOLYLINE
  5
3F94E
330
2
100
AcDbEntity
  8
OUTLINE
100
AcDbPolyline
 90
        2
 70
     0
 43
0.0
 10
36352.83460075364
 20
-23842.63189320282
 10
35932.83460075364
 20
-23842.63189320282
1001
GENIUS_GENREC_14
1002
{
1000
PYDIR
1011
35932.83460075364
1021
-23872.63189320282
1031
0.0
1002
}
1002
{
1000
PXDIR
1011
36352.83460075364
1021
-24642.63189320282
1031
0.0
1002
}
1002
{
1000
PORI
1011
35932.83460075364
1021
-24642.63189320282
1031
0.0
1002
}
1002
{
1000
PINS
1011
35932.83460075364
1021
-24642.63189320282
1031
0.0
1002
}
1002
{
1000
PINS2
1011
36352.83460075364
1021
-23872.63189320282
1031
0.0
1002
}
1002
{
1000
C
1070
     1
1002
}
1001
GENIUS_GENODEF_13
1002
{
1000
HIER
1070
     0
1002
}
1002
{
1000
MANEDIT
1070
     0
1002
}
1002
{
1000
NOSEL
1070
     0
1002
}
1002
{
1000
BEHIND
1070
     0
1002
}
1002
{
1000
OTHER
1070
     0
1002
}
1002
{
1000
REACTOR
1002
}
1001
GENIUS_GENOBJ-N-REC_13
1002
{
1000
OWNER
1000
GEN
1002
}
  0
LINE
  5
3F94F
330
2
100
AcDbEntity
  8
OUTLINE
100
AcDbLine
 10
35932.83460075364
 20
-24672.63189320282
 30
0.0
 11
36352.83460075364
 21
-24672.63189320282
 31
0.0
  0
MTEXT
  5
3F9BA
330
2
100
AcDbEntity
  8
DIM
100
AcDbMText
 10
39926.34634688302
 20
-25710.53915098752
 30
0.0
 40
55.41818250309337
 41
1757.076797123043
 71
     8
 72
     1
  1
temperzone OPA296RKTFH-P\PFOOT MTD HORIZ DISCHARGE
  7
Note Text (ANSI)
 73
     2
 44
0.9878841638565063
  0
MTEXT
  5
3FA26
330
2
100
AcDbEntity
  8
DIM
100
AcDbMText
 10
39555.18107993573
 20
-25778.04319386818
 30
0.0
 40
27.70909125154669
 41
468.7036350189691
 71
     8
 72
     1
  1
Date: 26/03/2013
  7
Note Text (ANSI)
 73
     2
 44
0.9878841638565063
  0
MTEXT
  5
3FA91
330
2
100
AcDbEntity
  8
DIM
100
AcDbMText
 10
39454.56602343659
 20
-25835.42916681472
 30
0.0
 40
27.70909125154669
 41
468.7036350189691
 71
     8
 72
     1
  1
Scale: 
  7
Note Text (ANSI)
 73
     2
 44
0.9878841638565063
  0
LINE
  5
3FA92
330
2
100
AcDbEntity
  8
Border (ISO)
100
AcDbLine
 10
39381.24882235375
 20
-25843.09513814807
 30
0.0
 11
39381.24882235375
 21
-25528.51406641032
 31
0.0
  0
LINE
  5
3FA93
330
2
100
AcDbEntity
  8
Border (ISO)
100
AcDbLine
 10
39381.24882235375
 20
-25528.51406641032
 30
0.0
 11
40468.73676424793
 21
-25528.51406641032
 31
0.0
  0
LINE
  5
3FA94
330
2
100
AcDbEntity
  8
Border (ISO)
100
AcDbLine
 10
40468.73676424793
 20
-25528.51406641032
 30
0.0
 11
40468.73676424793
 21
-25843.09513814807
 31
0.0
  0
LINE
  5
3FA95
330
2
100
AcDbEntity
  8
Border (ISO)
100
AcDbLine
 10
39381.24882235375
 20
-25843.09513814807
 30
0.0
 11
40468.73676424794
 21
-25843.09513814807
 31
0.0
  0
LINE
  5
3FAF5
330
2
100
AcDbEntity
  8
Border (ISO)
100
AcDbLine
 10
39381.24882235376
 20
-25783.09513814807
 30
0.0
 11
39725.15517820006
 21
-25783.09513814807
 31
0.0
  0
LINE
  5
3FAF6
330
2
100
AcDbEntity
  8
Border (ISO)
100
AcDbLine
 10
39381.24882235376
 20
-25723.09513814807
 30
0.0
 11
40468.73676424793
 21
-25723.09513814807
 31
0.0
  0
LINE
  5
3FAF7
330
2
100
AcDbEntity
  8
Border (ISO)
100
AcDbLine
 10
39725.15517820006
 20
-25843.09513814807
 30
0.0
 11
39725.15517820006
 21
-25723.09513814807
 31
0.0
  0
MTEXT
  5
3FB00
330
2
100
AcDbEntity
  8
DIM
100
AcDbMText
 10
40385.66108211505
 20
-25778.27566245287
 30
0.0
 40
27.70909125154669
 41
468.7036350189691
 71
     8
 72
     1
  1
Revision 
  7
Note Text (ANSI)
 73
     2
 44
0.9878841638565063
  0
LINE
  5
3FB01
330
2
100
AcDbEntity
  8
Border (ISO)
100
AcDbLine
 10
40306.39632061173
 20
-25843.09513814807
 30
0.0
 11
40306.39632061172
 21
-25723.09513814807
 31
0.0
  0
MTEXT
  5
3FB12
330
2
100
AcDbEntity
  8
DIM
100
AcDbMText
 10
39951.56913077091
 20
-25778.04319386818
 30
0.0
 40
27.70909125154669
 41
468.7036350189691
 71
     8
 72
     1
  1
Drawing No:
  7
Note Text (ANSI)
 73
     2
 44
0.9878841638565063
  0
MTEXT
  5
3FB13
330
2
100
AcDbEntity
  8
DIM
100
AcDbMText
 10
39989.64972216715
 20
-25835.42916681472
 30
0.0
 40
27.70909125154669
 41
468.7036350189691
 71
     8
 72
     1
  1
OPA296RKTFH-P 
  7
Note Text (ANSI)
 73
     2
 44
0.9878841638565063
  0
LINE
  5
3FB14
330
2
100
AcDbEntity
  8
Border (ISO)
100
AcDbLine
 10
40306.39632061173
 20
-25783.09513814807
 30
0.0
 11
40468.73676424793
 21
-25783.09513814807
 31
0.0
  0
MTEXT
  5
3FB1D
330
2
100
AcDbEntity
  8
DIM
100
AcDbMText
 10
40246.39273583813
 20
-25481.43162650347
 30
0.0
 40
27.70909125154669
 41
468.7036350189691
 71
     8
 72
     1
  1
NOTE:\PThe manufacturer reserves\Pthe right to change        \Pspecifications at any time\Pwithout notice or obligation.\Pcertified dimensions\Pavailable on request.
  7
Note Text (ANSI)
 73
     2
 44
0.9878841638565063
  0
ENDSEC
  0
SECTION
  2
OBJECTS
  0
DICTIONARY
  5
27F
330
0
100
AcDbDictionary
281
     1
  3
ACAD_2007HEADERVARS_RT
350
3FD84
  3
ACAD_CIP_PREVIOUS_PRODUCT_INFO
350
33F22
  3
ACAD_COLOR
350
4A0F
  3
ACAD_DETAILVIEWSTYLE
350
33F14
  3
ACAD_GROUP
350
27D
  3
ACAD_LAYOUT
350
29E
  3
ACAD_MATERIAL
350
4A0E
  3
ACAD_MLEADERSTYLE
350
4A63
  3
ACAD_MLINESTYLE
350
27E
  3
ACAD_PLOTSETTINGS
350
29F
  3
ACAD_PLOTSTYLENAME
350
29C
  3
ACAD_SCALELIST
350
4A41
  3
ACAD_SECTIONVIEWSTYLE
350
33F12
  3
ACAD_TABLESTYLE
350
4A10
  3
ACAD_VISUALSTYLE
350
4A30
  3
AcadDim
350
29C46
  3
ACDB_RECOMPOSE_DATA
350
3FD83
  3
AcDbVariableDictionary
350
2A7
  3
AcDsDecomposeData
350
3FD8F
  3
AcmDictionary
350
F5EF
  3
AEC_PROPERTY_SET_DEFS
350
29588
  3
AMG
350
F598
  3
AMGSNAPSETTINGS
350
F633
  0
DICTIONARY
  5
3EFBD
330
277
100
AcDbDictionary
280
     1
281
     1
  0
DICTIONARY
  5
5406
330
26F
100
AcDbDictionary
280
     1
281
     1
  3
ACAD_LAYERSTATES
360
5407
  0
DICTIONARY
  5
4C83
330
268
100
AcDbDictionary
280
     1
281
     1
  3
ADSK_XREC_LAYER_RECONCILED
360
4C84
  0
DICTIONARY
  5
4C85
330
52
100
AcDbDictionary
280
     1
281
     1
  3
ADSK_XREC_LAYER_RECONCILED
360
4C86
  0
DICTIONARY
  5
4C8D
330
E45
100
AcDbDictionary
280
     1
281
     1
  3
ADSK_XREC_LAYER_RECONCILED
360
4C8E
  0
DICTIONARY
  5
4C95
330
1AA2
100
AcDbDictionary
280
     1
281
     1
  3
ADSK_XREC_LAYER_RECONCILED
360
4C96
  0
DICTIONARY
  5
4C99
330
1B55
100
AcDbDictionary
280
     1
281
     1
  3
ADSK_XREC_LAYER_RECONCILED
360
4C9A
  0
DICTIONARY
  5
4CA3
330
2466
100
AcDbDictionary
280
     1
281
     1
  3
ADSK_XREC_LAYER_RECONCILED
360
4CA4
  0
DICTIONARY
  5
4CA9
330
4C2C
100
AcDbDictionary
280
     1
281
     1
  3
ADSK_XREC_LAYER_RECONCILED
360
4CAA
  0
DICTIONARY
  5
27C4F
330
27C4E
100
AcDbDictionary
280
     1
281
     1
  0
DICTIONARY
  5
4CC0
330
2
100
AcDbDictionary
280
     1
281
     1
  3
ACAD_SORTENTS
360
4CC1
  0
DICTIONARY
  5
3FD84
102
{ACAD_REACTORS
330
27F
102
}
330
27F
100
AcDbDictionary
281
     1
  3
DIMARCSYM
350
3FD85
  3
DIMLTEX1
350
3FD87
  3
DIMLTEX2
350
3FD88
  3
DIMLTYPE
350
3FD86
  3
INTERFEREVPVS
350
3FD89
  0
XRECORD
  5
33F22
102
{ACAD_REACTORS
330
27F
102
}
330
27F
100
AcDbXrecord
280
     1
300
AMECH_PP
300
2013
300
85963PDSU_2013_0F
  0
DICTIONARY
  5
4A0F
102
{ACAD_REACTORS
330
27F
102
}
330
27F
100
AcDbDictionary
281
     1
  0
DICTIONARY
  5
33F14
102
{ACAD_REACTORS
330
27F
102
}
330
27F
100
AcDbDictionary
281
     1
  3
Imperial24
350
33F15
  0
DICTIONARY
  5
27D
102
{ACAD_REACTORS
330
27F
102
}
330
27F
100
AcDbDictionary
281
     1
  0
DICTIONARY
  5
29E
102
{ACAD_REACTORS
330
27F
102
}
330
27F
100
AcDbDictionary
281
     1
  3
Layout1
350
2A1
  3
Model
350
2A0
  0
DICTIONARY
  5
4A0E
102
{ACAD_REACTORS
330
27F
102
}
330
27F
100
AcDbDictionary
281
     1
  3
ByBlock
350
4A20
  3
ByLayer
350
4A18
  3
Global
350
4A28
  0
DICTIONARY
  5
4A63
102
{ACAD_REACTORS
330
27F
102
}
330
27F
100
AcDbDictionary
281
     1
  3
Standard
350
4A64
  0
DICTIONARY
  5
27E
102
{ACAD_REACTORS
330
27F
102
}
330
27F
100
AcDbDictionary
281
     1
  3
STANDARD
350
280
  0
DICTIONARY
  5
29F
102
{ACAD_REACTORS
330
27F
102
}
330
27F
100
AcDbDictionary
281
     1
  3
10to1a3
350
2A5
  3
20to1a3
350
373
  3
5to1a3
350
2D85
  0
ACDBDICTIONARYWDFLT
  5
29C
102
{ACAD_REACTORS
330
27F
102
}
330
27F
100
AcDbDictionary
281
     1
  3
Normal
350
29D
100
AcDbDictionaryWithDefault
340
29D
  0
DICTIONARY
  5
4A41
102
{ACAD_REACTORS
330
27F
102
}
330
27F
100
AcDbDictionary
281
     1
  3
A0
350
4A42
  3
A1
350
4A43
  3
A2
350
4A44
  3
A3
350
4A45
  3
A4
350
4A46
  3
A5
350
4A47
  3
A6
350
4A48
  3
A7
350
4A49
  3
A8
350
4A4A
  3
A9
350
4A4B
  3
B0
350
4A4C
  3
B1
350
4A4D
  3
B2
350
4A4E
  3
B3
350
4A4F
  3
B4
350
4A50
  3
B5
350
4A51
  3
B6
350
4A52
  3
B7
350
4A53
  3
B8
350
4A54
  3
B9
350
4A55
  3
C0
350
4A56
  3
C1
350
4A57
  3
C2
350
4A58
  3
C3
350
4A59
  3
C4
350
4A5A
  3
C5
350
4A5B
  3
C6
350
4A5C
  3
C7
350
4A5D
  3
C8
350
4A5E
  3
C9
350
4A5F
  3
D0
350
4A60
  3
D1
350
4A61
  3
D2
350
4A62
  0
DICTIONARY
  5
33F12
102
{ACAD_REACTORS
330
27F
102
}
330
27F
100
AcDbDictionary
281
     1
  3
Imperial24
350
33F13
  0
DICTIONARY
  5
4A10
102
{ACAD_REACTORS
330
27F
102
}
330
27F
100
AcDbDictionary
281
     1
  3
Standard
350
4A11
  0
DICTIONARY
  5
4A30
102
{ACAD_REACTORS
330
27F
102
}
330
27F
100
AcDbDictionary
281
     1
  3
2dWireframe
350
4A36
  3
3D Hidden
350
4A38
  3
3dWireframe
350
4A37
  3
Basic
350
4A35
  3
Brighten
350
4A3C
  3
ColorChange
350
4A40
  3
Conceptual
350
4A39
  3
Dim
350
4A3B
  3
EdgeColorOff
350
F591
  3
Facepattern
350
4A3F
  3
Flat
350
4A31
  3
FlatWithEdges
350
4A32
  3
Gouraud
350
4A33
  3
GouraudWithEdges
350
4A34
  3
Hidden
350
24E20
  3
JitterOff
350
F58F
  3
Linepattern
350
4A3E
  3
OverhangOff
350
F590
  3
Realistic
350
4A3A
  3
Shaded
350
24E25
  3
Shaded with edges
350
24E24
  3
Shades of Gray
350
24E21
  3
Sketchy
350
24E22
  3
Thicken
350
4A3D
  3
Wireframe
350
24E1F
  3
X-Ray
350
24E23
  0
XRECORD
  5
29C46
102
{ACAD_REACTORS
330
27F
102
}
330
27F
100
AcDbXrecord
280
     1
 90
   990106
  3

 60
     0
 61
     0
 62
     1
 63
     3
 64
     0
 65
     0
 66
     0
 67
     3
 68
     1
 69
     0
 70
     0
 71
     0
 72
     0
 40
0.9442999023303855
170
     0
340
33249
  0
XRECORD
  5
3FD83
102
{ACAD_REACTORS
330
27F
102
}
330
27F
100
AcDbXrecord
280
     1
 90
        1
330
4A11
  0
DICTIONARY
  5
2A7
102
{ACAD_REACTORS
330
27F
102
}
330
27F
100
AcDbDictionary
281
     1
  3
CANNOSCALE
350
53F5
  3
CMLEADERSTYLE
350
53F3
  3
CTABLESTYLE
350
4A16
  3
CVIEWDETAILSTYLE
350
3EFFB
  3
CVIEWSECTIONSTYLE
350
3EFFC
  3
DIMASSOC
350
2A8
  3
LAYEREVAL
350
118F4
  3
LAYERNOTIFY
350
118F5
  3
LIGHTINGUNITS
350
53F6
  3
MSLTSCALE
350
53F4
  3
SOLIDHIST
350
3EFFD
  0
DICTIONARY
  5
3FD8F
102
{ACAD_REACTORS
330
27F
102
}
330
27F
100
AcDbDictionary
281
     1
  3
AcDsRecords
350
3FD91
  3
AcDsSchemas
350
3FD90
1001
ACAD
1070
     2
  0
DICTIONARY
  5
F5EF
102
{ACAD_REACTORS
330
27F
102
}
330
27F
100
AcDbDictionary
281
     1
  3
AcmStdDictionary
350
F5FB
  3
AMDTSECTSYM_ARROWCOLOR
350
3F012
  0
DICTIONARY
  5
29588
102
{ACAD_REACTORS
330
27F
102
}
330
27F
100
AcDbDictionary
281
     1
  0
DICTIONARY
  5
F598
102
{ACAD_REACTORS
330
27F
102
}
330
27F
100
AcDbDictionary
281
     1
  0
DICTIONARY
  5
F633
102
{ACAD_REACTORS
330
27F
102
}
330
27F
100
AcDbDictionary
281
     1
  0
DICTIONARY
  5
5407
102
{ACAD_REACTORS
330
5406
102
}
330
5406
100
AcDbDictionary
281
     1
  0
XRECORD
  5
4C84
102
{ACAD_REACTORS
330
4C83
102
}
330
4C83
100
AcDbXrecord
280
     1
290
     1
  0
XRECORD
  5
4C86
102
{ACAD_REACTORS
330
4C85
102
}
330
4C85
100
AcDbXrecord
280
     1
290
     1
  0
XRECORD
  5
4C8E
102
{ACAD_REACTORS
330
4C8D
102
}
330
4C8D
100
AcDbXrecord
280
     1
290
     1
  0
XRECORD
  5
4C96
102
{ACAD_REACTORS
330
4C95
102
}
330
4C95
100
AcDbXrecord
280
     1
290
     1
  0
XRECORD
  5
4C9A
102
{ACAD_REACTORS
330
4C99
102
}
330
4C99
100
AcDbXrecord
280
     1
290
     1
  0
XRECORD
  5
4CA4
102
{ACAD_REACTORS
330
4CA3
102
}
330
4CA3
100
AcDbXrecord
280
     1
290
     1
  0
XRECORD
  5
4CAA
102
{ACAD_REACTORS
330
4CA9
102
}
330
4CA9
100
AcDbXrecord
280
     1
290
     1
  0
SORTENTSTABLE
  5
4CC1
102
{ACAD_REACTORS
330
4CC0
102
}
330
4CC0
100
AcDbSortentsTable
330
2
331
3C328
  5
3C40D
331
3AD1F
  5
3AD34
331
3BB1D
  5
3BB32
331
3F65A
  5
3F65E
331
3F664
  5
3F668
331
3F647
  5
3F64B
331
3C620
  5
3C6D1
331
3F651
  5
3F655
331
3780F
  5
3780F
331
3E827
  5
3EA70
331
3789D
  5
3789D
331
378BA
  5
378BA
331
3CB0E
  5
3CBC2
331
3E6EC
  5
3E826
331
3C70B
  5
3C721
331
378A7
  5
378A7
331
3DD2F
  5
3E0BF
331
3EA73
  5
3EA9D
331
3C6D3
  5
3C6E8
331
3C6F8
  5
3C70D
331
378B1
  5
378B1
331
3E828
  5
3EA71
331
3793F
  5
3793F
331
37A5E
  5
37A5E
331
3DE5B
  5
3E0E7
331
3DA29
  5
3DD32
331
A7C4
  5
ECB2
331
3F9BA
  5
3FA93
331
3F293
  5
3F4E0
331
3F106
  5
3F27E
331
3DD30
  5
3E0C0
331
3E484
  5
3E6C7
331
3DA33
  5
3DF7B
331
3E227
  5
3E476
331
37A72
  5
37A72
331
3C50B
  5
3C520
331
3E6C6
  5
3E6EB
331
A7BB
  5
ECAD
331
3E0BF
  5
3E21A
331
3E214
  5
3ACE9
331
3C4F8
  5
3C50D
331
3E47B
  5
3E481
331
3DF8C
  5
3E213
331
3E228
  5
3E477
331
3F502
  5
3F506
331
3FA92
  5
3FAF5
331
3E0C0
  5
3E21B
331
37661
  5
37661
331
3D8D3
  5
3D8EE
331
3D8B6
  5
3D8CF
331
37EB4
  5
37EB4
331
37ED1
  5
37ED1
331
3F527
  5
3F644
331
3D8AD
  5
3D8C5
331
3AD24
  5
3AD39
331
37EAB
  5
37EAB
331
3F514
  5
3F525
331
3D89A
  5
3D8C3
331
3F65F
  5
3F663
331
3C324
  5
3C409
331
3F669
  5
3F934
331
3F64C
  5
3F650
331
3F935
  5
3F948
331
3F656
  5
3F65A
331
3F660
  5
3F664
331
3F643
  5
3F647
331
378BF
  5
378BF
331
3EA8B
  5
3F025
331
3C6EB
  5
3C700
331
3C6FD
  5
3C713
331
3C6D8
  5
3C6ED
331
3DE56
  5
3E0E4
331
3C88C
  5
3C8A2
331
3EA82
  5
3F024
331
3C6E2
  5
3C6F7
331
129D6
  5
129D6
331
378C0
  5
378C0
331
3CAF7
  5
3CB0F
331
3DA2E
  5
3DE5C
331
3DA1B
  5
3DA3A
331
3F27D
  5
3F292
331
3F0F8
  5
3F104
331
3E476
  5
3E47B
331
3DA25
  5
3DA42
331
3F025
  5
3F0F5
331
3C4FD
  5
3C512
331
3E0E6
  5
3E228
331
3F94C
  5
3F9BA
331
3C507
  5
3C51C
331
37A51
  5
37A51
331
37E78
  5
37E78
331
37A4E
  5
37A4E
331
3F4E1
  5
3F505
331
37ED6
  5
37ED6
331
3D8E2
  5
3D904
331
3D8C5
  5
3D8E4
331
3D8CF
  5
3D8E9
331
3FB13
  5
3FCAA
331
3FAF6
  5
3FB13
331
3BB57
  5
3BB6C
331
3FB00
  5
3FB1D
331
3C31F
  5
3C39C
331
37EBA
  5
37EBA
331
3C329
  5
3C40E
331
3990E
  5
3990E
331
3BB1E
  5
3BB33
331
3F65B
  5
3F65F
331
3C320
  5
3C39D
331
3F665
  5
3F669
331
3F648
  5
3F64C
331
3F931
  5
3F935
331
3F652
  5
3F656
331
3BB73
  5
3BB88
331
37810
  5
37810
331
3789E
  5
3789E
331
378BB
  5
378BB
331
3E6ED
  5
3E827
331
3C6E7
  5
3C6FC
331
3C70C
  5
3C722
331
378A8
  5
378A8
331
3EA74
  5
3EC76
331
3C6F9
  5
3C70F
331
37895
  5
37895
331
378B2
  5
378B2
331
3CB06
  5
3CB1E
331
3DA3D
  5
3DF8E
331
3E829
  5
3EA72
331
37940
  5
37940
331
3CB10
  5
3CC13
331
3DE5C
  5
3E0E8
331
3F294
  5
3F4E1
331
3F107
  5
3F27F
331
3E485
  5
3E6C8
331
3DD31
  5
3E0C1
331
3C50C
  5
3C521
331
37A73
  5
37A73
331
3E6C7
  5
3E6EC
331
3C4F9
  5
3C50E
331
3C533
  5
3C5CA
331
3E47C
  5
3E482
331
3E0E2
  5
3E21F
331
3DF8D
  5
3E214
331
3F948
  5
3F94C
331
3C503
  5
3C518
331
3F503
  5
3F513
331
3FA93
  5
3FAF6
331
37E87
  5
37E87
331
3E0C1
  5
3E21C
331
33249
  5
3324E
331
3D8D4
  5
3D8F5
331
37EB5
  5
37EB5
331
37ED2
  5
37ED2
331
3F528
  5
3F645
331
3F515
  5
3F526
331
3D8B8
  5
3D8D1
331
3BB23
  5
3BB38
331
3C31B
  5
3C34A
331
3C325
  5
3C40A
331
3AD1C
  5
3AD31
331
3F64D
  5
3F651
331
3F936
  5
3F949
331
3F657
  5
3F65B
331
3F661
  5
3F665
331
3F644
  5
3F648
331
3C707
  5
3C71D
331
9148
  5
9205
331
3EA6F
  5
3EA75
331
3C6D9
  5
3C6EE
331
3C6FE
  5
3C71C
331
3789A
  5
3789A
331
378B7
  5
378B7
331
3C88D
  5
3C8A3
331
3C708
  5
3C71E
331
378A4
  5
378A4
331
378C1
  5
378C1
331
3DD2C
  5
3DF90
331
3EA70
  5
3EA82
331
3DA1C
  5
3DA3B
331
3F27E
  5
3F293
331
3E6C8
  5
3E6ED
331
3F0F9
  5
3F105
331
3793C
  5
3793C
331
37A5B
  5
37A5B
331
3E477
  5
3E47C
331
3DA26
  5
3DD2D
331
3F026
  5
3F0F6
331
37A65
  5
37A65
331
3E481
  5
3E6C4
331
3DA30
  5
3DF7A
331
3E0E7
  5
3E473
331
3F94D
  5
3FA26
331
3C508
  5
3C51D
331
A7B8
  5
ECAC
331
3C512
  5
3C527
331
3E478
  5
3E47D
331
3E21B
  5
3AD10
331
37E79
  5
37E79
331
3E0E8
  5
3E474
331
3765E
  5
3765E
331
3FB1D
  5
3FCAB
331
37ED7
  5
37ED7
331
3D8E3
  5
3DA33
331
3D8C6
  5
3D8E5
331
37EA7
  5
37EA7
331
3FAF7
  5
3FB14
331
3FB14
  5
3FB12
331
37ECE
  5
37ECE
331
3FB01
  5
3FCA8
331
37EBB
  5
37EBB
331
37ED8
  5
37ED8
331
3C32A
  5
3C40F
331
3990F
  5
3990F
331
37EA8
  5
37EA8
331
3F65C
  5
3F660
331
3C321
  5
3C3B8
331
3F666
  5
3F931
331
3F649
  5
3F64D
331
3F932
  5
3F936
331
3F653
  5
3F657
331
3BB74
  5
3BB89
331
1BD59
  5
1BF33
331
3789F
  5
3789F
331
378BC
  5
378BC
331
3E6EE
  5
3E829
331
3C6E8
  5
3C6FD
331
378A9
  5
378A9
331
3CAFD
  5
3CB15
331
3EA75
  5
3EC77
331
3C6FA
  5
3C710
331
378B3
  5
378B3
331
37896
  5
37896
331
3DE53
  5
3E0C3
331
3DA3E
  5
3DF8F
331
3E82A
  5
3EA73
331
378A0
  5
378A0
331
37941
  5
37941
331
3F110
  5
3F288
331
3DD32
  5
3E0C2
331
3DA18
  5
3DA37
331
3F0F5
  5
3F0F9
331
37A57
  5
37A57
331
3C50D
  5
3C522
331
37A74
  5
37A74
331
3E473
  5
3E478
331
3C4FA
  5
3C50F
331
3E47D
  5
3E483
331
3E0E3
  5
3E220
331
3DF8E
  5
3E215
331
3F949
  5
3F94D
331
3C504
  5
3C519
331
3F504
  5
3F514
331
3FA94
  5
3FAF7
331
3E0C2
  5
3E21D
331
3D8D5
  5
3D8F8
331
37EB6
  5
37EB6
331
37ED3
  5
37ED3
331
3D8DF
  5
3D901
331
3F529
  5
3F646
331
3D8AF
  5
3D8CA
331
37E90
  5
37E90
331
3F516
  5
3F527
331
3D8B9
  5
3D8DA
331
3C31C
  5
3C34B
331
3C5AC
  5
3C65D
331
3C326
  5
3C40B
331
2BB47
  5
2BB47
331
3990B
  5
3990B
331
3F64E
  5
3F652
331
3BB1B
  5
3BB30
331
3F937
  5
3F94A
331
3F658
  5
3F65C
331
3F662
  5
3F666
331
3F645
  5
3F649
331
3789B
  5
3789B
331
378B8
  5
378B8
331
3C88E
  5
3C8A4
331
3E6EA
  5
3E6EF
331
3C709
  5
3C71F
331
3CAF9
  5
3CB10
331
3DD2D
  5
3E0BD
331
3EA71
  5
3EA8B
331
37A6F
  5
37A6F
331
3DA3A
  5
3DF8C
331
3DA1D
  5
3DA3C
331
3F27F
  5
3F294
331
3E6C9
  5
3E6EE
331
3F0FA
  5
3F106
331
3793D
  5
3793D
331
37A5C
  5
37A5C
331
3DE59
  5
3E0E5
331
3F104
  5
3F110
331
3F027
  5
3F0F7
331
3C4FF
  5
3C514
331
3E482
  5
3E6C5
331
3F94E
  5
3FA91
331
3C509
  5
3C51E
331
3E6C4
  5
3E6C9
331
3E0BD
  5
3E218
331
3C513
  5
3C528
331
3E479
  5
3E47E
331
37E7A
  5
37E7A
331
3C500
  5
3C515
331
3C8AA
  5
3C8C0
331
3DF79
  5
3AD16
331
3765F
  5
3765F
331
3F4BD
  5
3F502
331
3D8E4
  5
3DA34
331
3D8EE
  5
3DA36
331
3D8B4
  5
3D8CC
331
3D897
  5
3D8AE
331
37ECF
  5
37ECF
331
37ED9
  5
37ED9
331
3F525
  5
3F529
331
37EA9
  5
37EA9
331
3D898
  5
3D8B0
331
3BB20
  5
3BB35
331
3F65D
  5
3F661
331
3C322
  5
3C3D3
331
3F667
  5
3F932
331
3F64A
  5
3F64E
331
3F933
  5
3F937
331
3F654
  5
3F658
331
2B042
  5
2B042
331
378BD
  5
378BD
331
3E6EF
  5
3E82A
331
3C6E9
  5
3C6FE
331
378AA
  5
378AA
331
3C6FB
  5
3C711
331
3CB08
  5
3CB71
331
3DE54
  5
3E0E2
331
3E82B
  5
3EA74
331
378A1
  5
378A1
331
3DA2C
  5
3DE5B
331
3E6F0
  5
3E82B
331
3DA19
  5
3DA38
331
A77C
  5
EC87
331
3F0F6
  5
3F0FA
331
3C50E
  5
3C523
331
37A75
  5
37A75
331
3E474
  5
3E479
331
3C4FB
  5
3C510
331
3E47E
  5
3E484
331
3E0E4
  5
3E226
331
3DF8F
  5
3E216
331
3F94A
  5
3F94E
331
3C505
  5
3C51A
331
3F505
  5
3F515
331
3FA95
  5
3FB00
331
3E0C3
  5
3E21E
331
37E76
  5
37E76
331
3DF90
  5
3E217
331
37EB7
  5
37EB7
331
37ED4
  5
37ED4
331
37E91
  5
37E91
331
3F517
  5
3F528
331
3C31D
  5
3C366
331
37EB8
  5
37EB8
331
3C327
  5
3C40C
331
3990C
  5
3990C
331
37E88
  5
37E88
331
3F64F
  5
3F653
331
3BB1C
  5
3BB31
331
3F938
  5
3F94B
331
3F659
  5
3F65D
331
3F663
  5
3F667
331
3F646
  5
3F64A
331
3F650
  5
3F654
331
1BD5F
  5
1BF34
331
914A
  5
9208
331
3E826
  5
3EA6F
331
3789C
  5
3789C
331
378B9
  5
378B9
331
3CB0D
  5
3CB8C
331
3E6EB
  5
3E6F0
331
3C70A
  5
3C720
331
378A6
  5
378A6
331
3CAFA
  5
3CB13
331
3DD2E
  5
3E0BE
331
3EA72
  5
3EA94
331
3AFBC
  5
3AFD1
331
3DA3B
  5
3DF8D
331
3DA1E
  5
3DA3E
331
3F288
  5
3F4BD
331
3F0FB
  5
3F107
331
3793E
  5
3793E
331
37A7A
  5
37A7A
331
3DE5A
  5
3E0E6
331
3DA28
  5
3DD2F
331
3F292
  5
3F4BE
331
3F105
  5
3F27D
331
3F030
  5
3F0F8
331
3E483
  5
3E6C6
331
3E226
  5
3E475
331
3F94F
  5
3FA92
331
37A54
  5
37A54
331
3C50A
  5
3C51F
331
3E6C5
  5
3E6EA
331
3E0BE
  5
3E219
331
3E213
  5
39919
331
37A47
  5
37A47
331
3C4F7
  5
3C50C
331
3E47A
  5
3E47F
331
37E7B
  5
37E7B
331
3C501
  5
3C516
331
3FA91
  5
3FA95
331
37660
  5
37660
331
3DF7A
  5
3AD17
331
37A48
  5
37A48
331
3F4BE
  5
3F503
331
3D8D2
  5
3D8ED
331
3D8B5
  5
3D8CE
331
37ED0
  5
37ED0
331
37EDA
  5
37EDA
331
3F526
  5
3F643
331
37EAA
  5
37EAA
331
3F513
  5
3F517
331
3C5A9
  5
3C65A
331
3F65E
  5
3F662
331
3C323
  5
3C3EE
331
3F668
  5
3F933
331
3F64B
  5
3F64F
331
29C49
  5
29CA2
331
3F934
  5
3F938
331
3F655
  5
3F659
331
3BB76
  5
3BB8B
331
3EA9D
  5
3F027
331
378BE
  5
378BE
331
3C6EA
  5
3C6FF
331
3CAFF
  5
3CB1C
331
3EA94
  5
3F026
331
3C6FC
  5
3C712
331
3DE55
  5
3E0E3
331
378A2
  5
378A2
331
3CB13
  5
3D8AD
331
3DA1A
  5
3DA39
331
3F0F7
  5
3F0FB
331
37A76
  5
37A76
331
3C50F
  5
3C524
331
3DA24
  5
3DA3F
331
3E475
  5
3E47A
331
A7BF
  5
ECAE
331
3F024
  5
3F030
331
3C536
  5
3C5E7
331
3E47F
  5
3E485
331
3E0E5
  5
3E227
331
3FA26
  5
3FA94
331
3F94B
  5
3F94F
331
3C506
  5
3C51B
331
3F506
  5
3F516
331
3C510
  5
3C525
331
37E77
  5
37E77
331
3F4E0
  5
3F504
331
3D8D7
  5
3D8F9
331
37ED5
  5
37ED5
331
3D8C4
  5
3D8DC
331
3D8EB
  5
3DA35
331
3D8CE
  5
3D8E8
331
3FB12
  5
3FCA9
331
3FAF5
  5
3FB01
331
3D8D8
  5
3D8FA
331
3D8BB
  5
3D8DB
331
3C31E
  5
3C381
331
37EB9
  5
37EB9
  0
XRECORD
  5
3FD85
102
{ACAD_REACTORS
330
3FD84
102
}
330
3FD84
100
AcDbXrecord
280
     1
 70
     1
  0
XRECORD
  5
3FD87
102
{ACAD_REACTORS
330
3FD84
102
}
330
3FD84
100
AcDbXrecord
280
     1
340
273
  0
XRECORD
  5
3FD88
102
{ACAD_REACTORS
330
3FD84
102
}
330
3FD84
100
AcDbXrecord
280
     1
340
273
  0
XRECORD
  5
3FD86
102
{ACAD_REACTORS
330
3FD84
102
}
330
3FD84
100
AcDbXrecord
280
     1
340
273
  0
XRECORD
  5
3FD89
102
{ACAD_REACTORS
330
3FD84
102
}
330
3FD84
100
AcDbXrecord
280
     1
340
4A37
  0
ACDBDETAILVIEWSTYLE
  5
33F15
102
{ACAD_REACTORS
330
33F14
102
}
330
33F14
100
AcDbModelDocViewStyle
 70
     0
  3
Imperial24
290
     0
100
AcDbDetailViewStyle
 70
     0
 71
     0
 90
        3
 71
     1
340
271
 62
   256
 40
0.24
340
0
 62
   256
 40
0.24
300

 40
0.36
280
     3
 71
     2
340
5
 90
       25
 62
   256
 71
     3
340
271
 62
   256
 40
0.24
 90
        1
 40
0.75
 90
        1
300
%<\AcVar ViewType \f "%tc1">% %<\AcVar ViewDetailId>%\PSCALE %<\AcVar ViewScale \f "%sn">%
 71
     4
340
5
 90
       25
 62
   256
340
5
 90
       25
 62
   256
280
     0
  0
LAYOUT
  5
2A1
102
{ACAD_REACTORS
330
29E
102
}
330
29E
100
AcDbPlotSettings
  1

  2
\\FILESERVER\HP4V
  4

  6

 40
0.0
 41
0.0
 42
0.0
 43
0.0
 44
0.0
 45
0.0
 46
0.0
 47
0.0
 48
0.0
 49
0.0
140
0.0
141
0.0
142
1.0
143
1.0
 70
   688
 72
     0
 73
     0
 74
     5
  7
monochrome.ctb
 75
    16
147
1.0
 76
     0
 77
     2
 78
   300
148
0.0
149
0.0
100
AcDbLayout
  1
Layout1
 70
     0
 71
     1
 10
0.0
 20
0.0
 11
12.0
 21
9.0
 12
0.0
 22
0.0
 32
0.0
 14
1.000000000000000E+20
 24
1.000000000000000E+20
 34
1.000000000000000E+20
 15
-1.000000000000000E+20
 25
-1.000000000000000E+20
 35
-1.000000000000000E+20
146
0.0
 13
0.0
 23
0.0
 33
0.0
 16
1.0
 26
0.0
 36
0.0
 17
0.0
 27
1.0
 37
0.0
 76
     0
330
26C
  0
LAYOUT
  5
2A0
102
{ACAD_XDICTIONARY
360
102C6
102
}
102
{ACAD_REACTORS
330
29E
102
}
330
29E
100
AcDbPlotSettings
  1

  2
\\FILESERVER\HP4V
  4
A3
  6

 40
7.143749713897705
 41
5.873767375946044
 42
7.143768310546875
 43
7.14373779296875
 44
296.9259948730469
 45
420.1159973144531
 46
5.0
 47
15.0
 48
0.0
 49
0.0
140
0.0
141
0.0
142
1.0
143
10.0
 70
 11952
 72
     1
 73
     1
 74
     1
  7
monochrome.ctb
 75
    20
147
0.1
 76
     0
 77
     2
 78
   300
148
0.1187043219324551
149
0.0811705646119663
100
AcDbLayout
  1
Model
 70
     1
 71
     0
 10
0.0
 20
0.0
 11
12.0
 21
9.0
 12
0.0
 22
0.0
 32
0.0
 14
0.0
 24
0.0
 34
0.0
 15
0.0
 25
0.0
 35
0.0
146
0.0
 13
0.0
 23
0.0
 33
0.0
 16
1.0
 26
0.0
 36
0.0
 17
0.0
 27
1.0
 37
0.0
 76
     0
330
2
331
4A15
  0
MATERIAL
  5
4A20
102
{ACAD_XDICTIONARY
360
4A21
102
}
102
{ACAD_REACTORS
330
4A0E
102
}
330
4A0E
100
AcDbMaterial
  1
ByBlock
 72
     0
 43
0.0208333333333333
 43
0.0
 43
0.0
 43
0.0
 43
0.0
 43
0.0208333333333333
 43
0.0
 43
0.0
 43
0.0
 43
0.0
 43
1.0
 43
0.0
 43
0.0
 43
0.0
 43
0.0
 43
1.0
 77
     0
 47
0.0208333333333333
 47
0.0
 47
0.0
 47
0.0
 47
0.0
 47
0.0208333333333333
 47
0.0
 47
0.0
 47
0.0
 47
0.0
 47
1.0
 47
0.0
 47
0.0
 47
0.0
 47
0.0
 47
1.0
171
     0
 49
0.0208333333333333
 49
0.0
 49
0.0
 49
0.0
 49
0.0
 49
0.0208333333333333
 49
0.0
 49
0.0
 49
0.0
 49
0.0
 49
1.0
 49
0.0
 49
0.0
 49
0.0
 49
0.0
 49
1.0
175
     0
142
0.0208333333333333
142
0.0
142
0.0
142
0.0
142
0.0
142
0.0208333333333333
142
0.0
142
0.0
142
0.0
142
0.0
142
1.0
142
0.0
142
0.0
142
0.0
142
0.0
142
1.0
179
     0
144
0.0208333333333333
144
0.0
144
0.0
144
0.0
144
0.0
144
0.0208333333333333
144
0.0
144
0.0
144
0.0
144
0.0
144
1.0
144
0.0
144
0.0
144
0.0
144
0.0
144
1.0
147
0.0208333333333333
147
0.0
147
0.0
147
0.0
147
0.0
147
0.0208333333333333
147
0.0
147
0.0
147
0.0
147
0.0
147
1.0
147
0.0
147
0.0
147
0.0
147
0.0
147
1.0
  0
MATERIAL
  5
4A18
102
{ACAD_XDICTIONARY
360
4A19
102
}
102
{ACAD_REACTORS
330
4A0E
102
}
330
4A0E
100
AcDbMaterial
  1
ByLayer
 72
     0
 43
0.0208333333333333
 43
0.0
 43
0.0
 43
0.0
 43
0.0
 43
0.0208333333333333
 43
0.0
 43
0.0
 43
0.0
 43
0.0
 43
1.0
 43
0.0
 43
0.0
 43
0.0
 43
0.0
 43
1.0
 77
     0
 47
0.0208333333333333
 47
0.0
 47
0.0
 47
0.0
 47
0.0
 47
0.0208333333333333
 47
0.0
 47
0.0
 47
0.0
 47
0.0
 47
1.0
 47
0.0
 47
0.0
 47
0.0
 47
0.0
 47
1.0
171
     0
 49
0.0208333333333333
 49
0.0
 49
0.0
 49
0.0
 49
0.0
 49
0.0208333333333333
 49
0.0
 49
0.0
 49
0.0
 49
0.0
 49
1.0
 49
0.0
 49
0.0
 49
0.0
 49
0.0
 49
1.0
175
     0
142
0.0208333333333333
142
0.0
142
0.0
142
0.0
142
0.0
142
0.0208333333333333
142
0.0
142
0.0
142
0.0
142
0.0
142
1.0
142
0.0
142
0.0
142
0.0
142
0.0
142
1.0
179
     0
144
0.0208333333333333
144
0.0
144
0.0
144
0.0
144
0.0
144
0.0208333333333333
144
0.0
144
0.0
144
0.0
144
0.0
144
1.0
144
0.0
144
0.0
144
0.0
144
0.0
144
1.0
147
0.0208333333333333
147
0.0
147
0.0
147
0.0
147
0.0
147
0.0208333333333333
147
0.0
147
0.0
147
0.0
147
0.0
147
1.0
147
0.0
147
0.0
147
0.0
147
0.0
147
1.0
  0
MATERIAL
  5
4A28
102
{ACAD_XDICTIONARY
360
4A29
102
}
102
{ACAD_REACTORS
330
4A0E
102
}
330
4A0E
100
AcDbMaterial
  1
Global
 72
     0
 43
0.0208333333333333
 43
0.0
 43
0.0
 43
0.0
 43
0.0
 43
0.0208333333333333
 43
0.0
 43
0.0
 43
0.0
 43
0.0
 43
1.0
 43
0.0
 43
0.0
 43
0.0
 43
0.0
 43
1.0
 77
     0
 47
0.0208333333333333
 47
0.0
 47
0.0
 47
0.0
 47
0.0
 47
0.0208333333333333
 47
0.0
 47
0.0
 47
0.0
 47
0.0
 47
1.0
 47
0.0
 47
0.0
 47
0.0
 47
0.0
 47
1.0
171
     0
 49
0.0208333333333333
 49
0.0
 49
0.0
 49
0.0
 49
0.0
 49
0.0208333333333333
 49
0.0
 49
0.0
 49
0.0
 49
0.0
 49
1.0
 49
0.0
 49
0.0
 49
0.0
 49
0.0
 49
1.0
175
     0
142
0.0208333333333333
142
0.0
142
0.0
142
0.0
142
0.0
142
0.0208333333333333
142
0.0
142
0.0
142
0.0
142
0.0
142
1.0
142
0.0
142
0.0
142
0.0
142
0.0
142
1.0
179
     0
144
0.0208333333333333
144
0.0
144
0.0
144
0.0
144
0.0
144
0.0208333333333333
144
0.0
144
0.0
144
0.0
144
0.0
144
1.0
144
0.0
144
0.0
144
0.0
144
0.0
144
1.0
147
0.0208333333333333
147
0.0
147
0.0
147
0.0
147
0.0
147
0.0208333333333333
147
0.0
147
0.0
147
0.0
147
0.0
147
1.0
147
0.0
147
0.0
147
0.0
147
0.0
147
1.0
  0
MLEADERSTYLE
  5
4A64
102
{ACAD_REACTORS
330
4A63
102
}
330
4A63
100
AcDbMLeaderStyle
170
     2
171
     1
172
     0
 90
        2
 40
0.0
 41
0.0
173
     1
 91
-1073741824
340
274
 92
       -1
290
     1
 42
0.09
291
     1
 43
0.36
  3
Standard
 44
6.33
300

342
271
174
     1
178
     6
175
     1
176
     0
 93
-1073741824
 45
29.98
292
     0
297
     0
 46
0.18
 94
-1056964608
 47
1.0
 49
1.0
140
1.0
293
     1
141
0.0
294
     1
177
     0
142
1.0
295
     0
296
     0
143
1.125
1001
ACAD_MLEADERVER
1070
     2
  0
MLINESTYLE
  5
280
102
{ACAD_REACTORS
330
27E
102
}
330
27E
100
AcDbMlineStyle
  2
STANDARD
 70
     0
  3

 62
   256
 51
90.0
 52
90.0
 71
     2
 49
0.5
 62
   256
  6
BYLAYER
 49
-0.5
 62
   256
  6
BYLAYER
  0
PLOTSETTINGS
  5
2A5
102
{ACAD_REACTORS
330
29F
102
}
330
29F
100
AcDbPlotSettings
  1
10to1a3
  2
\\FILESERVER\HP4V
  4
A3
  6

 40
7.143749713897705
 41
5.873767375946044
 42
7.143768310546875
 43
7.14373779296875
 44
296.9259948730469
 45
420.1159973144531
 46
5.0
 47
15.0
 48
0.0
 49
0.0
140
0.0
141
0.0
142
1.0
143
10.0
 70
  1712
 72
     1
 73
     1
 74
     1
  7
djh.ctb
 75
    20
147
0.1
 76
     0
 77
     2
 78
   300
148
0.1187043219324551
149
0.0811705646119663
  0
PLOTSETTINGS
  5
373
102
{ACAD_REACTORS
330
29F
102
}
330
29F
100
AcDbPlotSettings
  1
20to1a3
  2
\\FILESERVER\HP4V
  4
A3
  6

 40
7.143749713897705
 41
5.873767375946044
 42
7.143768310546875
 43
7.14373779296875
 44
296.9259948730469
 45
420.1159973144531
 46
5.0
 47
15.0
 48
0.0
 49
0.0
140
0.0
141
0.0
142
1.0
143
20.0
 70
  1712
 72
     1
 73
     1
 74
     1
  7
djh.ctb
 75
    22
147
0.05
 76
     0
 77
     2
 78
   300
148
0.1186300489716814
149
0.081119776416017
  0
PLOTSETTINGS
  5
2D85
102
{ACAD_REACTORS
330
29F
102
}
330
29F
100
AcDbPlotSettings
  1
5to1a3
  2
\\FILESERVER\HP4V
  4
A3
  6

 40
7.143749713897705
 41
5.873767375946044
 42
7.143768310546875
 43
7.14373779296875
 44
296.9259948730469
 45
420.1159973144531
 46
5.0
 47
15.0
 48
0.0
 49
0.0
140
0.0
141
0.0
142
1.0
143
5.0
 70
  1696
 72
     1
 73
     1
 74
     1
  7
djh.ctb
 75
     0
147
0.2
 76
     0
 77
     2
 78
   300
148
0.1187079445012387
149
0.0811730417408399
  0
ACDBPLACEHOLDER
  5
29D
102
{ACAD_REACTORS
330
29C
102
}
330
29C
  0
SCALE
  5
4A42
102
{ACAD_REACTORS
330
4A41
102
}
330
4A41
100
AcDbScale
 70
     0
300
1:1
140
1.0
141
1.0
290
     1
  0
SCALE
  5
4A43
102
{ACAD_REACTORS
330
4A41
102
}
330
4A41
100
AcDbScale
 70
     0
300
1:2
140
1.0
141
2.0
290
     0
  0
SCALE
  5
4A44
102
{ACAD_REACTORS
330
4A41
102
}
330
4A41
100
AcDbScale
 70
     0
300
1:4
140
1.0
141
4.0
290
     0
  0
SCALE
  5
4A45
102
{ACAD_REACTORS
330
4A41
102
}
330
4A41
100
AcDbScale
 70
     0
300
1:5
140
1.0
141
5.0
290
     0
  0
SCALE
  5
4A46
102
{ACAD_REACTORS
330
4A41
102
}
330
4A41
100
AcDbScale
 70
     0
300
1:8
140
1.0
141
8.0
290
     0
  0
SCALE
  5
4A47
102
{ACAD_REACTORS
330
4A41
102
}
330
4A41
100
AcDbScale
 70
     0
300
1:10
140
1.0
141
10.0
290
     0
  0
SCALE
  5
4A48
102
{ACAD_REACTORS
330
4A41
102
}
330
4A41
100
AcDbScale
 70
     0
300
1:16
140
1.0
141
16.0
290
     0
  0
SCALE
  5
4A49
102
{ACAD_REACTORS
330
4A41
102
}
330
4A41
100
AcDbScale
 70
     0
300
1:20
140
1.0
141
20.0
290
     0
  0
SCALE
  5
4A4A
102
{ACAD_REACTORS
330
4A41
102
}
330
4A41
100
AcDbScale
 70
     0
300
1:30
140
1.0
141
30.0
290
     0
  0
SCALE
  5
4A4B
102
{ACAD_REACTORS
330
4A41
102
}
330
4A41
100
AcDbScale
 70
     0
300
1:40
140
1.0
141
40.0
290
     0
  0
SCALE
  5
4A4C
102
{ACAD_REACTORS
330
4A41
102
}
330
4A41
100
AcDbScale
 70
     0
300
1:50
140
1.0
141
50.0
290
     0
  0
SCALE
  5
4A4D
102
{ACAD_REACTORS
330
4A41
102
}
330
4A41
100
AcDbScale
 70
     0
300
1:100
140
1.0
141
100.0
290
     0
  0
SCALE
  5
4A4E
102
{ACAD_REACTORS
330
4A41
102
}
330
4A41
100
AcDbScale
 70
     0
300
2:1
140
2.0
141
1.0
290
     0
  0
SCALE
  5
4A4F
102
{ACAD_REACTORS
330
4A41
102
}
330
4A41
100
AcDbScale
 70
     0
300
4:1
140
4.0
141
1.0
290
     0
  0
SCALE
  5
4A50
102
{ACAD_REACTORS
330
4A41
102
}
330
4A41
100
AcDbScale
 70
     0
300
8:1
140
8.0
141
1.0
290
     0
  0
SCALE
  5
4A51
102
{ACAD_REACTORS
330
4A41
102
}
330
4A41
100
AcDbScale
 70
     0
300
10:1
140
10.0
141
1.0
290
     0
  0
SCALE
  5
4A52
102
{ACAD_REACTORS
330
4A41
102
}
330
4A41
100
AcDbScale
 70
     0
300
100:1
140
100.0
141
1.0
290
     0
  0
SCALE
  5
4A53
102
{ACAD_REACTORS
330
4A41
102
}
330
4A41
100
AcDbScale
 70
     0
300
1/128" = 1'-0"
140
0.0078125
141
12.0
290
     0
  0
SCALE
  5
4A54
102
{ACAD_REACTORS
330
4A41
102
}
330
4A41
100
AcDbScale
 70
     0
300
1/64" = 1'-0"
140
0.015625
141
12.0
290
     0
  0
SCALE
  5
4A55
102
{ACAD_REACTORS
330
4A41
102
}
330
4A41
100
AcDbScale
 70
     0
300
1/32" = 1'-0"
140
0.03125
141
12.0
290
     0
  0
SCALE
  5
4A56
102
{ACAD_REACTORS
330
4A41
102
}
330
4A41
100
AcDbScale
 70
     0
300
1/16" = 1'-0"
140
0.0625
141
12.0
290
     0
  0
SCALE
  5
4A57
102
{ACAD_REACTORS
330
4A41
102
}
330
4A41
100
AcDbScale
 70
     0
300
3/32" = 1'-0"
140
0.09375
141
12.0
290
     0
  0
SCALE
  5
4A58
102
{ACAD_REACTORS
330
4A41
102
}
330
4A41
100
AcDbScale
 70
     0
300
1/8" = 1'-0"
140
0.125
141
12.0
290
     0
  0
SCALE
  5
4A59
102
{ACAD_REACTORS
330
4A41
102
}
330
4A41
100
AcDbScale
 70
     0
300
3/16" = 1'-0"
140
0.1875
141
12.0
290
     0
  0
SCALE
  5
4A5A
102
{ACAD_REACTORS
330
4A41
102
}
330
4A41
100
AcDbScale
 70
     0
300
1/4" = 1'-0"
140
0.25
141
12.0
290
     0
  0
SCALE
  5
4A5B
102
{ACAD_REACTORS
330
4A41
102
}
330
4A41
100
AcDbScale
 70
     0
300
3/8" = 1'-0"
140
0.375
141
12.0
290
     0
  0
SCALE
  5
4A5C
102
{ACAD_REACTORS
330
4A41
102
}
330
4A41
100
AcDbScale
 70
     0
300
1/2" = 1'-0"
140
0.5
141
12.0
290
     0
  0
SCALE
  5
4A5D
102
{ACAD_REACTORS
330
4A41
102
}
330
4A41
100
AcDbScale
 70
     0
300
3/4" = 1'-0"
140
0.75
141
12.0
290
     0
  0
SCALE
  5
4A5E
102
{ACAD_REACTORS
330
4A41
102
}
330
4A41
100
AcDbScale
 70
     0
300
1" = 1'-0"
140
1.0
141
12.0
290
     0
  0
SCALE
  5
4A5F
102
{ACAD_REACTORS
330
4A41
102
}
330
4A41
100
AcDbScale
 70
     0
300
1-1/2" = 1'-0"
140
1.5
141
12.0
290
     0
  0
SCALE
  5
4A60
102
{ACAD_REACTORS
330
4A41
102
}
330
4A41
100
AcDbScale
 70
     0
300
3" = 1'-0"
140
3.0
141
12.0
290
     0
  0
SCALE
  5
4A61
102
{ACAD_REACTORS
330
4A41
102
}
330
4A41
100
AcDbScale
 70
     0
300
6" = 1'-0"
140
6.0
141
12.0
290
     0
  0
SCALE
  5
4A62
102
{ACAD_REACTORS
330
4A41
102
}
330
4A41
100
AcDbScale
 70
     0
300
1'-0" = 1'-0"
140
12.0
141
12.0
290
     0
  0
ACDBSECTIONVIEWSTYLE
  5
33F13
102
{ACAD_REACTORS
330
33F12
102
}
330
33F12
100
AcDbModelDocViewStyle
 70
     0
  3
Imperial24
290
     0
100
AcDbSectionViewStyle
 70
     0
 71
     0
 90
       78
 71
     1
340
271
 62
   256
 40
0.24
340
0
340
0
 62
   256
 40
0.24
300
I, O, Q, S, X, Z
 40
0.48
 90
        3
 40
0.18
 90
        1
 71
     2
340
F5C8
 90
       25
 62
   256
340
5
 90
       50
 62
   256
 40
0.24
 40
0.0
 40
0.24
 71
     3
340
271
 62
   256
 40
0.24
 90
        1
 40
0.75
 90
        1
300
%<\AcVar ViewType \f "%tc1">% %<\AcVar ViewSectionStartId>%-%<\AcVar ViewSectionEndId>%\PSCALE %<\AcVar ViewScale \f "%sn">%
 71
     4
 62
   256
 62
   257
300
ANSI31
 40
1.0
 90
        0
290
     0
290
     0
 90
        6
 40
0.0
 40
1.570796326794896
 40
0.2617993877991494
 40
1.308996938995747
 40
-0.2617993877991494
 40
1.832595714594046
  0
TABLESTYLE
  5
4A11
102
{ACAD_XDICTIONARY
360
53F0
102
}
102
{ACAD_REACTORS
330
4A10
102
}
330
4A10
100
AcDbTableStyle
  3
Standard
 70
     0
 71
     0
 40
0.06
 41
0.06
280
     0
281
     0
  7
STANDARD
140
0.18
170
     2
 62
     0
 63
     7
283
     0
274
    -2
284
     1
 64
     0
275
    -2
285
     1
 65
     0
276
    -2
286
     1
 66
     0
277
    -2
287
     1
 67
     0
278
    -2
288
     1
 68
     0
279
    -2
289
     1
 69
     0
  7
STANDARD
140
0.25
170
     5
 62
     0
 63
     7
283
     0
274
    -2
284
     1
 64
     0
275
    -2
285
     1
 65
     0
276
    -2
286
     1
 66
     0
277
    -2
287
     1
 67
     0
278
    -2
288
     1
 68
     0
279
    -2
289
     1
 69
     0
  7
STANDARD
140
0.18
170
     5
 62
     0
 63
     7
283
     0
274
    -2
284
     1
 64
     0
275
    -2
285
     1
 65
     0
276
    -2
286
     1
 66
     0
277
    -2
287
     1
 67
     0
278
    -2
288
     1
 68
     0
279
    -2
289
     1
 69
     0
  0
VISUALSTYLE
  5
4A36
102
{ACAD_XDICTIONARY
360
3FDA0
102
}
102
{ACAD_REACTORS
330
4A30
102
}
330
4A30
100
AcDbVisualStyle
  2
2dWireframe
 70
     4
 71
     0
 72
     2
 73
     0
 90
        0
 40
-0.6
 41
-30.0
 62
     5
 63
     7
421
 16777215
 74
     1
 91
        4
 64
     7
 65
   257
 75
     1
175
     1
 42
1.0
 92
        0
 66
   257
 43
1.0
 76
     1
 77
     6
 78
     2
 67
     7
 79
     5
170
     0
171
     0
290
     0
174
     0
 93
        1
 44
0.0
173
     0
291
     0
 45
0.0
1001
ACAD
1000
AcDbSavedByObjectVersion
1070
     0
  0
VISUALSTYLE
  5
4A38
102
{ACAD_XDICTIONARY
360
3FDA4
102
}
102
{ACAD_REACTORS
330
4A30
102
}
330
4A30
100
AcDbVisualStyle
  2
3D Hidden
 70
     6
 71
     1
 72
     2
 73
     2
 90
        0
 40
-0.6
 41
-30.0
 62
     5
 63
     7
421
 16777215
 74
     2
 91
        2
 64
     7
 65
   257
 75
     2
175
     1
 42
40.0
 92
        0
 66
   257
 43
1.0
 76
     1
 77
     6
 78
     2
 67
     7
 79
     3
170
     0
171
     0
290
     0
174
     0
 93
        1
 44
0.0
173
     0
291
     0
 45
0.0
1001
ACAD
1000
AcDbSavedByObjectVersion
1070
     0
  0
VISUALSTYLE
  5
4A37
102
{ACAD_XDICTIONARY
360
3FDA2
102
}
102
{ACAD_REACTORS
330
4A30
102
}
330
4A30
100
AcDbVisualStyle
  2
3dWireframe
 70
     5
 71
     0
 72
     2
 73
     0
 90
        0
 40
-0.6
 41
-30.0
 62
     5
 63
     7
421
 16777215
 74
     1
 91
        4
 64
     7
 65
   257
 75
     1
175
     1
 42
1.0
 92
        0
 66
   257
 43
1.0
 76
     1
 77
     6
 78
     2
 67
     7
 79
     5
170
     0
171
     0
290
     0
174
     0
 93
        1
 44
0.0
173
     0
291
     0
 45
0.0
1001
ACAD
1000
AcDbSavedByObjectVersion
1070
     0
  0
VISUALSTYLE
  5
4A35
102
{ACAD_XDICTIONARY
360
3FD9E
102
}
102
{ACAD_REACTORS
330
4A30
102
}
330
4A30
100
AcDbVisualStyle
  2
Basic
 70
     7
 71
     1
 72
     0
 73
     1
 90
        0
 40
-0.6
 41
-30.0
 62
     5
 63
     7
421
 16777215
 74
     0
 91
        4
 64
     7
 65
   257
 75
     1
175
     1
 42
1.0
 92
        8
 66
     7
 43
1.0
 76
     1
 77
     6
 78
     2
 67
     7
 79
     5
170
     0
171
     0
290
     0
174
     0
 93
        1
 44
0.0
173
     0
291
     1
 45
0.0
1001
ACAD
1000
AcDbSavedByObjectVersion
1070
     0
  0
VISUALSTYLE
  5
4A3C
102
{ACAD_XDICTIONARY
360
3FDAC
102
}
102
{ACAD_REACTORS
330
4A30
102
}
330
4A30
100
AcDbVisualStyle
  2
Brighten
 70
    12
 71
     2
 72
     2
 73
     0
 90
        0
 40
-0.6
 41
-30.0
 62
     5
 63
     7
421
 16777215
 74
     1
 91
        4
 64
     7
 65
   257
 75
     1
175
     1
 42
1.0
 92
        8
 66
     7
 43
1.0
 76
     1
 77
     6
 78
     2
 67
     7
 79
     5
170
     0
171
     0
290
     0
174
     0
 93
        1
 44
50.0
173
     0
291
     1
 45
0.0
1001
ACAD
1000
AcDbSavedByObjectVersion
1070
     0
  0
VISUALSTYLE
  5
4A40
102
{ACAD_XDICTIONARY
360
3FDB4
102
}
102
{ACAD_REACTORS
330
4A30
102
}
330
4A30
100
AcDbVisualStyle
  2
ColorChange
 70
    16
 71
     2
 72
     2
 73
     3
 90
        0
 40
-0.6
 41
-30.0
 62
     5
 63
     8
421
  8421504
 74
     1
 91
        4
 64
     7
 65
   257
 75
     1
175
     1
 42
1.0
 92
        8
 66
     8
424
  8421504
 43
1.0
 76
     1
 77
     6
 78
     2
 67
     7
 79
     5
170
     0
171
     0
290
     0
174
     0
 93
        1
 44
0.0
173
     0
291
     1
 45
0.0
1001
ACAD
1000
AcDbSavedByObjectVersion
1070
     0
  0
VISUALSTYLE
  5
4A39
102
{ACAD_XDICTIONARY
360
3FDA6
102
}
102
{ACAD_REACTORS
330
4A30
102
}
330
4A30
100
AcDbVisualStyle
  2
Conceptual
 70
     9
 71
     3
 72
     2
 73
     0
 90
        0
 40
-0.6
 41
-30.0
 62
     5
 63
     7
421
 16777215
 74
     2
 91
        2
 64
     7
 65
   257
 75
     1
175
     1
 42
40.0
 92
        8
 66
     7
 43
1.0
 76
     1
 77
     6
 78
     2
 67
     7
 79
     3
170
     0
171
     0
290
     0
174
     0
 93
        1
 44
0.0
173
     0
291
     0
 45
0.0
1001
ACAD
1000
AcDbSavedByObjectVersion
1070
     0
  0
VISUALSTYLE
  5
4A3B
102
{ACAD_XDICTIONARY
360
3FDAA
102
}
102
{ACAD_REACTORS
330
4A30
102
}
330
4A30
100
AcDbVisualStyle
  2
Dim
 70
    11
 71
     2
 72
     2
 73
     0
 90
        0
 40
-0.6
 41
-30.0
 62
     5
 63
     7
421
 16777215
 74
     1
 91
        4
 64
     7
 65
   257
 75
     1
175
     1
 42
1.0
 92
        8
 66
     7
 43
1.0
 76
     1
 77
     6
 78
     2
 67
     7
 79
     5
170
     0
171
     0
290
     0
174
     0
 93
        1
 44
-50.0
173
     0
291
     1
 45
0.0
1001
ACAD
1000
AcDbSavedByObjectVersion
1070
     0
  0
VISUALSTYLE
  5
F591
102
{ACAD_XDICTIONARY
360
3FDBA
102
}
102
{ACAD_REACTORS
330
4A30
102
}
330
4A30
100
AcDbVisualStyle
  2
EdgeColorOff
 70
    22
 71
     2
 72
     2
 73
     0
 90
        0
 40
-0.6
 41
-30.0
 62
     5
 63
     7
421
 16777215
 74
     1
 91
        4
 64
     7
 65
   257
 75
     1
175
     1
 42
1.0
 92
        8
 66
     7
 43
1.0
 76
     1
 77
     6
 78
     2
 67
     7
 79
     5
170
     0
171
     0
290
     0
174
     0
 93
        1
 44
0.0
173
     0
291
     1
 45
0.0
1001
ACAD
1000
AcDbSavedByObjectVersion
1070
     0
  0
VISUALSTYLE
  5
4A3F
102
{ACAD_XDICTIONARY
360
3FDB2
102
}
102
{ACAD_REACTORS
330
4A30
102
}
330
4A30
100
AcDbVisualStyle
  2
Facepattern
 70
    15
 71
     2
 72
     2
 73
     0
 90
        0
 40
-0.6
 41
-30.0
 62
     5
 63
     7
421
 16777215
 74
     1
 91
        4
 64
     7
 65
   257
 75
     1
175
     1
 42
1.0
 92
        8
 66
     7
 43
1.0
 76
     1
 77
     6
 78
     2
 67
     7
 79
     5
170
     0
171
     0
290
     0
174
     0
 93
        1
 44
0.0
173
     0
291
     1
 45
0.0
1001
ACAD
1000
AcDbSavedByObjectVersion
1070
     0
  0
VISUALSTYLE
  5
4A31
102
{ACAD_XDICTIONARY
360
3FD96
102
}
102
{ACAD_REACTORS
330
4A30
102
}
330
4A30
100
AcDbVisualStyle
  2
Flat
 70
     0
 71
     2
 72
     1
 73
     1
 90
        2
 40
-0.6
 41
30.0
 62
     5
 63
     7
421
 16777215
 74
     0
 91
        4
 64
     7
 65
   257
 75
     1
175
     1
 42
1.0
 92
        8
 66
     7
 43
1.0
 76
     1
 77
     6
 78
     2
 67
     7
 79
     5
170
     0
171
     0
290
     0
174
     0
 93
       13
 44
0.0
173
     0
291
     1
 45
0.0
1001
ACAD
1000
AcDbSavedByObjectVersion
1070
     0
  0
VISUALSTYLE
  5
4A32
102
{ACAD_XDICTIONARY
360
3FD98
102
}
102
{ACAD_REACTORS
330
4A30
102
}
330
4A30
100
AcDbVisualStyle
  2
FlatWithEdges
 70
     1
 71
     2
 72
     1
 73
     1
 90
        2
 40
-0.6
 41
30.0
 62
     5
 63
     7
421
 16777215
 74
     1
 91
        4
 64
     7
 65
   257
 75
     1
175
     1
 42
1.0
 92
        0
 66
   257
 43
1.0
 76
     1
 77
     6
 78
     2
 67
     7
 79
     5
170
     0
171
     0
290
     0
174
     0
 93
       13
 44
0.0
173
     0
291
     1
 45
0.0
1001
ACAD
1000
AcDbSavedByObjectVersion
1070
     0
  0
VISUALSTYLE
  5
4A33
102
{ACAD_XDICTIONARY
360
3FD9A
102
}
102
{ACAD_REACTORS
330
4A30
102
}
330
4A30
100
AcDbVisualStyle
  2
Gouraud
 70
     2
 71
     2
 72
     2
 73
     1
 90
        2
 40
-0.6
 41
30.0
 62
     5
 63
     7
421
 16777215
 74
     0
 91
        4
 64
     7
 65
   257
 75
     1
175
     1
 42
1.0
 92
        0
 66
     7
 43
1.0
 76
     1
 77
     6
 78
     2
 67
     7
 79
     5
170
     0
171
     0
290
     0
174
     0
 93
       13
 44
0.0
173
     0
291
     1
 45
0.0
1001
ACAD
1000
AcDbSavedByObjectVersion
1070
     0
  0
VISUALSTYLE
  5
4A34
102
{ACAD_XDICTIONARY
360
3FD9C
102
}
102
{ACAD_REACTORS
330
4A30
102
}
330
4A30
100
AcDbVisualStyle
  2
GouraudWithEdges
 70
     3
 71
     2
 72
     2
 73
     1
 90
        2
 40
-0.6
 41
30.0
 62
     5
 63
     7
421
 16777215
 74
     1
 91
        4
 64
     7
 65
   257
 75
     1
175
     1
 42
1.0
 92
        0
 66
   257
 43
1.0
 76
     1
 77
     6
 78
     2
 67
     7
 79
     5
170
     0
171
     0
290
     0
174
     0
 93
       13
 44
0.0
173
     0
291
     1
 45
0.0
1001
ACAD
1000
AcDbSavedByObjectVersion
1070
     0
  0
VISUALSTYLE
  5
24E20
102
{ACAD_XDICTIONARY
360
3FDBE
102
}
102
{ACAD_REACTORS
330
4A30
102
}
330
4A30
100
AcDbVisualStyle
  2
Hidden
 70
     6
 71
     1
 72
     2
 73
     2
 90
        0
 40
-0.6
 41
-30.0
 62
     5
 63
     7
421
 16777215
 74
     2
 91
        2
 64
     7
 65
   257
 75
     2
175
     1
 42
40.0
 92
        0
 66
   257
 43
1.0
 76
     1
 77
     6
 78
     2
 67
     7
 79
     3
170
     0
171
     0
290
     0
174
     0
 93
        1
 44
0.0
173
     0
291
     0
 45
0.0
1001
ACAD
1000
AcDbSavedByObjectVersion
1070
     0
  0
VISUALSTYLE
  5
F58F
102
{ACAD_XDICTIONARY
360
3FDB6
102
}
102
{ACAD_REACTORS
330
4A30
102
}
330
4A30
100
AcDbVisualStyle
  2
JitterOff
 70
    20
 71
     2
 72
     2
 73
     0
 90
        0
 40
-0.6
 41
-30.0
 62
     5
 63
     7
421
 16777215
 74
     1
 91
        4
 64
     7
 65
   257
 75
     1
175
     1
 42
1.0
 92
       10
 66
     7
 43
1.0
 76
     1
 77
     6
 78
     2
 67
     7
 79
     5
170
     0
171
     0
290
     0
174
     0
 93
        1
 44
0.0
173
     0
291
     1
 45
0.0
1001
ACAD
1000
AcDbSavedByObjectVersion
1070
     0
  0
VISUALSTYLE
  5
4A3E
102
{ACAD_XDICTIONARY
360
3FDB0
102
}
102
{ACAD_REACTORS
330
4A30
102
}
330
4A30
100
AcDbVisualStyle
  2
Linepattern
 70
    14
 71
     2
 72
     2
 73
     0
 90
        0
 40
-0.6
 41
-30.0
 62
     5
 63
     7
421
 16777215
 74
     1
 91
        4
 64
     7
 65
   257
 75
     7
175
     7
 42
1.0
 92
        8
 66
     7
 43
1.0
 76
     1
 77
     6
 78
     2
 67
     7
 79
     5
170
     0
171
     0
290
     0
174
     0
 93
        1
 44
0.0
173
     0
291
     1
 45
0.0
1001
ACAD
1000
AcDbSavedByObjectVersion
1070
     0
  0
VISUALSTYLE
  5
F590
102
{ACAD_XDICTIONARY
360
3FDB8
102
}
102
{ACAD_REACTORS
330
4A30
102
}
330
4A30
100
AcDbVisualStyle
  2
OverhangOff
 70
    21
 71
     2
 72
     2
 73
     0
 90
        0
 40
-0.6
 41
-30.0
 62
     5
 63
     7
421
 16777215
 74
     1
 91
        4
 64
     7
 65
   257
 75
     1
175
     1
 42
1.0
 92
        9
 66
     7
 43
1.0
 76
     1
 77
     6
 78
     2
 67
     7
 79
     5
170
     0
171
     0
290
     0
174
     0
 93
        1
 44
0.0
173
     0
291
     1
 45
0.0
1001
ACAD
1000
AcDbSavedByObjectVersion
1070
     0
  0
VISUALSTYLE
  5
4A3A
102
{ACAD_XDICTIONARY
360
3FDA8
102
}
102
{ACAD_REACTORS
330
4A30
102
}
330
4A30
100
AcDbVisualStyle
  2
Realistic
 70
     8
 71
     2
 72
     2
 73
     0
 90
        0
 40
-0.6
 41
-30.0
 62
     5
 63
     7
421
 16777215
 74
     1
 91
        0
 64
     7
 65
   257
 75
     1
175
     1
 42
1.0
 92
        8
 66
     8
424
  7895160
 43
1.0
 76
     1
 77
     6
 78
     2
 67
     7
 79
     5
170
     0
171
     0
290
     0
174
     0
 93
       13
 44
0.0
173
     0
291
     0
 45
0.0
1001
ACAD
1000
AcDbSavedByObjectVersion
1070
     0
  0
VISUALSTYLE
  5
24E25
102
{ACAD_XDICTIONARY
360
3FDC8
102
}
102
{ACAD_REACTORS
330
4A30
102
}
330
4A30
100
AcDbVisualStyle
  2
Shaded
 70
    27
 71
     2
 72
     2
 73
     1
 90
        2
 40
-0.6
 41
30.0
 62
     5
 63
     7
421
 16777215
 74
     0
 91
        4
 64
     7
 65
   257
 75
     1
175
     1
 42
1.0
 92
        8
 66
   257
 43
1.0
 76
     1
 77
     6
 78
     2
 67
     8
425
  7895160
 79
     3
170
     0
171
     0
290
     0
174
     0
 93
        5
 44
0.0
173
     0
291
     0
 45
0.0
1001
ACAD
1000
AcDbSavedByObjectVersion
1070
     0
  0
VISUALSTYLE
  5
24E24
102
{ACAD_XDICTIONARY
360
3FDC6
102
}
102
{ACAD_REACTORS
330
4A30
102
}
330
4A30
100
AcDbVisualStyle
  2
Shaded with edges
 70
    26
 71
     2
 72
     2
 73
     1
 90
        2
 40
-0.6
 41
30.0
 62
     5
 63
     7
421
 16777215
 74
     1
 91
       10
 64
     7
 65
   257
 75
     2
175
     1
 42
1.0
 92
        8
 66
   257
 43
1.0
 76
     1
 77
     6
 78
     2
 67
     7
 79
     3
170
     0
171
     0
290
     0
174
     0
 93
        5
 44
0.0
173
     0
291
     0
 45
0.0
1001
ACAD
1000
AcDbSavedByObjectVersion
1070
     0
  0
VISUALSTYLE
  5
24E21
102
{ACAD_XDICTIONARY
360
3FDC0
102
}
102
{ACAD_REACTORS
330
4A30
102
}
330
4A30
100
AcDbVisualStyle
  2
Shades of Gray
 70
    23
 71
     2
 72
     2
 73
     3
 90
        0
 40
-0.6
 41
-30.0
 62
     5
 63
     7
421
 16777215
 74
     2
 91
        2
 64
     7
 65
     7
 75
     1
175
     1
 42
40.0
 92
        8
 66
     7
 43
1.0
 76
     1
 77
     6
 78
     2
 67
     7
 79
     3
170
     0
171
     0
290
     0
174
     0
 93
        1
 44
0.0
173
     0
291
     0
 45
0.0
1001
ACAD
1000
AcDbSavedByObjectVersion
1070
     0
  0
VISUALSTYLE
  5
24E22
102
{ACAD_XDICTIONARY
360
3FDC2
102
}
102
{ACAD_REACTORS
330
4A30
102
}
330
4A30
100
AcDbVisualStyle
  2
Sketchy
 70
    24
 71
     1
 72
     2
 73
     2
 90
        0
 40
-0.6
 41
-30.0
 62
     5
 63
     7
421
 16777215
 74
     2
 91
        2
 64
     7
 65
     7
 75
     1
175
     1
 42
40.0
 92
       11
 66
     7
 43
1.0
 76
     1
 77
     6
 78
     2
 67
     7
 79
     6
170
     0
171
     0
290
     0
174
     0
 93
        1
 44
0.0
173
     0
291
     0
 45
0.0
1001
ACAD
1000
AcDbSavedByObjectVersion
1070
     0
  0
VISUALSTYLE
  5
4A3D
102
{ACAD_XDICTIONARY
360
3FDAE
102
}
102
{ACAD_REACTORS
330
4A30
102
}
330
4A30
100
AcDbVisualStyle
  2
Thicken
 70
    13
 71
     2
 72
     2
 73
     0
 90
        0
 40
-0.6
 41
-30.0
 62
     5
 63
     7
421
 16777215
 74
     1
 91
        4
 64
     7
 65
   257
 75
     1
175
     1
 42
1.0
 92
       12
 66
     7
 43
1.0
 76
     1
 77
     6
 78
     2
 67
     7
 79
     5
170
     0
171
     0
290
     0
174
     0
 93
        1
 44
0.0
173
     0
291
     1
 45
0.0
1001
ACAD
1000
AcDbSavedByObjectVersion
1070
     0
  0
VISUALSTYLE
  5
24E1F
102
{ACAD_XDICTIONARY
360
3FDBC
102
}
102
{ACAD_REACTORS
330
4A30
102
}
330
4A30
100
AcDbVisualStyle
  2
Wireframe
 70
     5
 71
     0
 72
     2
 73
     0
 90
        0
 40
-0.6
 41
-30.0
 62
     5
 63
     7
421
 16777215
 74
     1
 91
        4
 64
     7
 65
   257
 75
     1
175
     1
 42
1.0
 92
        0
 66
   257
 43
1.0
 76
     1
 77
     6
 78
     2
 67
     7
 79
     3
170
     0
171
     0
290
     0
174
     0
 93
        1
 44
0.0
173
     0
291
     0
 45
0.0
1001
ACAD
1000
AcDbSavedByObjectVersion
1070
     0
  0
VISUALSTYLE
  5
24E23
102
{ACAD_XDICTIONARY
360
3FDC4
102
}
102
{ACAD_REACTORS
330
4A30
102
}
330
4A30
100
AcDbVisualStyle
  2
X-Ray
 70
    25
 71
     2
 72
     2
 73
     1
 90
        1
 40
0.5
 41
-30.0
 62
     5
 63
     7
421
 16777215
 74
     1
 91
        0
 64
     7
 65
   257
 75
     1
175
     1
 42
1.0
 92
        8
 66
     7
 43
1.0
 76
     1
 77
     6
 78
     2
 67
     7
 79
     3
170
     0
171
     0
290
     0
174
     0
 93
       13
 44
0.0
173
     0
291
     0
 45
0.0
1001
ACAD
1000
AcDbSavedByObjectVersion
1070
     0
  0
DICTIONARYVAR
  5
53F5
102
{ACAD_REACTORS
330
2A7
102
}
330
2A7
100
DictionaryVariables
280
     0
  1
1:1
  0
DICTIONARYVAR
  5
53F3
102
{ACAD_REACTORS
330
2A7
102
}
330
2A7
100
DictionaryVariables
280
     0
  1
STANDARD
  0
DICTIONARYVAR
  5
4A16
102
{ACAD_REACTORS
330
2A7
102
}
330
2A7
100
DictionaryVariables
280
     0
  1
STANDARD
  0
DICTIONARYVAR
  5
3EFFB
102
{ACAD_REACTORS
330
2A7
102
}
330
2A7
100
DictionaryVariables
280
     0
  1
Imperial24
  0
DICTIONARYVAR
  5
3EFFC
102
{ACAD_REACTORS
330
2A7
102
}
330
2A7
100
DictionaryVariables
280
     0
  1
Imperial24
  0
DICTIONARYVAR
  5
2A8
102
{ACAD_REACTORS
330
2A7
102
}
330
2A7
100
DictionaryVariables
280
     0
  1
0
  0
DICTIONARYVAR
  5
118F4
102
{ACAD_REACTORS
330
2A7
102
}
330
2A7
100
DictionaryVariables
280
     0
  1
1
  0
DICTIONARYVAR
  5
118F5
102
{ACAD_REACTORS
330
2A7
102
}
330
2A7
100
DictionaryVariables
280
     0
  1
15
  0
DICTIONARYVAR
  5
53F6
102
{ACAD_REACTORS
330
2A7
102
}
330
2A7
100
DictionaryVariables
280
     0
  1
0
  0
DICTIONARYVAR
  5
53F4
102
{ACAD_REACTORS
330
2A7
102
}
330
2A7
100
DictionaryVariables
280
     0
  1
0
  0
DICTIONARYVAR
  5
3EFFD
102
{ACAD_REACTORS
330
2A7
102
}
330
2A7
100
DictionaryVariables
280
     0
  1
1
  0
DICTIONARY
  5
3FD91
102
{ACAD_REACTORS
330
3FD8F
102
}
330
3FD8F
100
AcDbDictionary
281
     1
  0
DICTIONARY
  5
3FD90
102
{ACAD_REACTORS
330
3FD8F
102
}
330
3FD8F
100
AcDbDictionary
281
     1
  3
8796087867552
350
3FD8A
  3
8796087867568
350
3FD8B
  3
8796087867584
350
3FD8C
  3
8796087867600
350
3FD8D
  3
8796087867616
350
3FD8E
  0
DICTIONARY
  5
F5FB
102
{ACAD_REACTORS
330
F5EF
102
}
330
F5EF
100
AcDbDictionary
281
     1
  0
XRECORD
  5
3F012
102
{ACAD_REACTORS
330
F5EF
102
}
330
F5EF
100
AcDbXrecord
280
     1
 90
-1023410169
  0
DICTIONARY
  5
102C6
330
2A0
100
AcDbDictionary
280
     1
281
     1
  0
DICTIONARY
  5
4A21
330
4A20
100
AcDbDictionary
280
     1
281
     1
  3
ACAD_XREC_ROUNDTRIP
360
3FD94
  3
BUMPTILE
360
4A23
  3
DIFFUSETILE
360
4A22
  3
OPACITYTILE
360
4A26
  3
REFLECTIONTILE
360
4A25
  3
REFRACTIONTILE
360
4A27
  3
SPECULARTILE
360
4A24
  0
DICTIONARY
  5
4A19
330
4A18
100
AcDbDictionary
280
     1
281
     1
  3
ACAD_XREC_ROUNDTRIP
360
3FD93
  3
BUMPTILE
360
4A1B
  3
DIFFUSETILE
360
4A1A
  3
OPACITYTILE
360
4A1E
  3
REFLECTIONTILE
360
4A1D
  3
REFRACTIONTILE
360
4A1F
  3
SPECULARTILE
360
4A1C
  0
DICTIONARY
  5
4A29
330
4A28
100
AcDbDictionary
280
     1
281
     1
  3
ACAD_XREC_ROUNDTRIP
360
3FD95
  3
BUMPTILE
360
4A2B
  3
DIFFUSETILE
360
4A2A
  3
OPACITYTILE
360
4A2E
  3
REFLECTIONTILE
360
4A2D
  3
REFRACTIONTILE
360
4A2F
  3
SPECULARTILE
360
4A2C
  0
DICTIONARY
  5
53F0
330
4A11
100
AcDbDictionary
280
     1
281
     1
  3
ACAD_ROUNDTRIP_2008_TABLESTYLE_CELLSTYLEMAP
360
3FD82
  3
ACAD_XREC_ROUNDTRIP
360
3FD92
  0
DICTIONARY
  5
3FDA0
330
4A36
100
AcDbDictionary
280
     1
281
     1
  3
ACAD_XREC_ROUNDTRIP
360
3FDA1
  0
DICTIONARY
  5
3FDA4
330
4A38
100
AcDbDictionary
280
     1
281
     1
  3
ACAD_XREC_ROUNDTRIP
360
3FDA5
  0
DICTIONARY
  5
3FDA2
330
4A37
100
AcDbDictionary
280
     1
281
     1
  3
ACAD_XREC_ROUNDTRIP
360
3FDA3
  0
DICTIONARY
  5
3FD9E
330
4A35
100
AcDbDictionary
280
     1
281
     1
  3
ACAD_XREC_ROUNDTRIP
360
3FD9F
  0
DICTIONARY
  5
3FDAC
330
4A3C
100
AcDbDictionary
280
     1
281
     1
  3
ACAD_XREC_ROUNDTRIP
360
3FDAD
  0
DICTIONARY
  5
3FDB4
330
4A40
100
AcDbDictionary
280
     1
281
     1
  3
ACAD_XREC_ROUNDTRIP
360
3FDB5
  0
DICTIONARY
  5
3FDA6
330
4A39
100
AcDbDictionary
280
     1
281
     1
  3
ACAD_XREC_ROUNDTRIP
360
3FDA7
  0
DICTIONARY
  5
3FDAA
330
4A3B
100
AcDbDictionary
280
     1
281
     1
  3
ACAD_XREC_ROUNDTRIP
360
3FDAB
  0
DICTIONARY
  5
3FDBA
330
F591
100
AcDbDictionary
280
     1
281
     1
  3
ACAD_XREC_ROUNDTRIP
360
3FDBB
  0
DICTIONARY
  5
3FDB2
330
4A3F
100
AcDbDictionary
280
     1
281
     1
  3
ACAD_XREC_ROUNDTRIP
360
3FDB3
  0
DICTIONARY
  5
3FD96
330
4A31
100
AcDbDictionary
280
     1
281
     1
  3
ACAD_XREC_ROUNDTRIP
360
3FD97
  0
DICTIONARY
  5
3FD98
330
4A32
100
AcDbDictionary
280
     1
281
     1
  3
ACAD_XREC_ROUNDTRIP
360
3FD99
  0
DICTIONARY
  5
3FD9A
330
4A33
100
AcDbDictionary
280
     1
281
     1
  3
ACAD_XREC_ROUNDTRIP
360
3FD9B
  0
DICTIONARY
  5
3FD9C
330
4A34
100
AcDbDictionary
280
     1
281
     1
  3
ACAD_XREC_ROUNDTRIP
360
3FD9D
  0
DICTIONARY
  5
3FDBE
330
24E20
100
AcDbDictionary
280
     1
281
     1
  3
ACAD_XREC_ROUNDTRIP
360
3FDBF
  0
DICTIONARY
  5
3FDB6
330
F58F
100
AcDbDictionary
280
     1
281
     1
  3
ACAD_XREC_ROUNDTRIP
360
3FDB7
  0
DICTIONARY
  5
3FDB0
330
4A3E
100
AcDbDictionary
280
     1
281
     1
  3
ACAD_XREC_ROUNDTRIP
360
3FDB1
  0
DICTIONARY
  5
3FDB8
330
F590
100
AcDbDictionary
280
     1
281
     1
  3
ACAD_XREC_ROUNDTRIP
360
3FDB9
  0
DICTIONARY
  5
3FDA8
330
4A3A
100
AcDbDictionary
280
     1
281
     1
  3
ACAD_XREC_ROUNDTRIP
360
3FDA9
  0
DICTIONARY
  5
3FDC8
330
24E25
100
AcDbDictionary
280
     1
281
     1
  3
ACAD_XREC_ROUNDTRIP
360
3FDC9
  0
DICTIONARY
  5
3FDC6
330
24E24
100
AcDbDictionary
280
     1
281
     1
  3
ACAD_XREC_ROUNDTRIP
360
3FDC7
  0
DICTIONARY
  5
3FDC0
330
24E21
100
AcDbDictionary
280
     1
281
     1
  3
ACAD_XREC_ROUNDTRIP
360
3FDC1
  0
DICTIONARY
  5
3FDC2
330
24E22
100
AcDbDictionary
280
     1
281
     1
  3
ACAD_XREC_ROUNDTRIP
360
3FDC3
  0
DICTIONARY
  5
3FDAE
330
4A3D
100
AcDbDictionary
280
     1
281
     1
  3
ACAD_XREC_ROUNDTRIP
360
3FDAF
  0
DICTIONARY
  5
3FDBC
330
24E1F
100
AcDbDictionary
280
     1
281
     1
  3
ACAD_XREC_ROUNDTRIP
360
3FDBD
  0
DICTIONARY
  5
3FDC4
330
24E23
100
AcDbDictionary
280
     1
281
     1
  3
ACAD_XREC_ROUNDTRIP
360
3FDC5
  0
XRECORD
  5
3FD8A
102
{ACAD_REACTORS
330
3FD90
102
}
330
3FD90
100
AcDbXrecord
280
     1
  1
AcDb_Thumbnail_Schema
102
{ATTRRECORD
341
3FD8B
  2
AcDbDs::TreatedAsObjectData
280
     1
291
     1
102
ATTRRECORD}
102
{ATTRRECORD
341
3FD8C
  2
AcDbDs::Legacy
280
     1
291
     1
102
ATTRRECORD}
  2
AcDbDs::ID
280
    10
 91
        8
102
{ATTRRECORD
341
3FD8D
  2
AcDs:Indexable
280
     1
291
     1
102
ATTRRECORD}
102
{ATTRRECORD
341
3FD8E
  2
AcDbDs::HandleAttribute
280
     7
282
     1
102
ATTRRECORD}
  2
Thumbnail_Data
280
    15
 91
        0
  0
XRECORD
  5
3FD8B
102
{ACAD_REACTORS
330
3FD90
102
}
330
3FD90
100
AcDbXrecord
280
     1
  1
AcDbDs::TreatedAsObjectDataSchema
  2
AcDbDs::TreatedAsObjectData
280
     1
 91
        0
  0
XRECORD
  5
3FD8C
102
{ACAD_REACTORS
330
3FD90
102
}
330
3FD90
100
AcDbXrecord
280
     1
  1
AcDbDs::LegacySchema
  2
AcDbDs::Legacy
280
     1
 91
        0
  0
XRECORD
  5
3FD8D
102
{ACAD_REACTORS
330
3FD90
102
}
330
3FD90
100
AcDbXrecord
280
     1
  1
AcDbDs::IndexedPropertySchema
  2
AcDs:Indexable
280
     1
 91
        0
  0
XRECORD
  5
3FD8E
102
{ACAD_REACTORS
330
3FD90
102
}
330
3FD90
100
AcDbXrecord
280
     1
  1
AcDbDs::HandleAttributeSchema
  2
AcDbDs::HandleAttribute
280
     7
 91
        1
284
     1
  0
XRECORD
  5
3FD94
102
{ACAD_REACTORS
330
4A21
102
}
330
4A21
100
AcDbXrecord
280
     1
102
MATERIAL
148
0.0
149
0.0
149
0.0
 93
        0
 94
      127
282
     0
 72
     0
 77
     0
171
     0
175
     0
179
     0
273
     0
  0
XRECORD
  5
4A23
102
{ACAD_REACTORS
330
4A21
102
}
330
4A21
100
AcDbXrecord
280
     1
270
     1
271
     1
  0
XRECORD
  5
4A22
102
{ACAD_REACTORS
330
4A21
102
}
330
4A21
100
AcDbXrecord
280
     1
270
     1
271
     1
  0
XRECORD
  5
4A26
102
{ACAD_REACTORS
330
4A21
102
}
330
4A21
100
AcDbXrecord
280
     1
270
     1
271
     1
  0
XRECORD
  5
4A25
102
{ACAD_REACTORS
330
4A21
102
}
330
4A21
100
AcDbXrecord
280
     1
270
     1
271
     1
  0
XRECORD
  5
4A27
102
{ACAD_REACTORS
330
4A21
102
}
330
4A21
100
AcDbXrecord
280
     1
270
     1
271
     1
  0
XRECORD
  5
4A24
102
{ACAD_REACTORS
330
4A21
102
}
330
4A21
100
AcDbXrecord
280
     1
270
     1
271
     1
  0
XRECORD
  5
3FD93
102
{ACAD_REACTORS
330
4A19
102
}
330
4A19
100
AcDbXrecord
280
     1
102
MATERIAL
148
0.0
149
0.0
149
0.0
 93
        0
 94
      127
282
     0
 72
     0
 77
     0
171
     0
175
     0
179
     0
273
     0
  0
XRECORD
  5
4A1B
102
{ACAD_REACTORS
330
4A19
102
}
330
4A19
100
AcDbXrecord
280
     1
270
     1
271
     1
  0
XRECORD
  5
4A1A
102
{ACAD_REACTORS
330
4A19
102
}
330
4A19
100
AcDbXrecord
280
     1
270
     1
271
     1
  0
XRECORD
  5
4A1E
102
{ACAD_REACTORS
330
4A19
102
}
330
4A19
100
AcDbXrecord
280
     1
270
     1
271
     1
  0
XRECORD
  5
4A1D
102
{ACAD_REACTORS
330
4A19
102
}
330
4A19
100
AcDbXrecord
280
     1
270
     1
271
     1
  0
XRECORD
  5
4A1F
102
{ACAD_REACTORS
330
4A19
102
}
330
4A19
100
AcDbXrecord
280
     1
270
     1
271
     1
  0
XRECORD
  5
4A1C
102
{ACAD_REACTORS
330
4A19
102
}
330
4A19
100
AcDbXrecord
280
     1
270
     1
271
     1
  0
XRECORD
  5
3FD95
102
{ACAD_REACTORS
330
4A29
102
}
330
4A29
100
AcDbXrecord
280
     1
102
MATERIAL
148
0.0
149
0.0
149
0.0
 93
        0
 94
      127
282
     0
 72
     0
 77
     0
171
     0
175
     0
179
     0
273
     0
  0
XRECORD
  5
4A2B
102
{ACAD_REACTORS
330
4A29
102
}
330
4A29
100
AcDbXrecord
280
     1
270
     1
271
     1
  0
XRECORD
  5
4A2A
102
{ACAD_REACTORS
330
4A29
102
}
330
4A29
100
AcDbXrecord
280
     1
270
     1
271
     1
  0
XRECORD
  5
4A2E
102
{ACAD_REACTORS
330
4A29
102
}
330
4A29
100
AcDbXrecord
280
     1
270
     1
271
     1
  0
XRECORD
  5
4A2D
102
{ACAD_REACTORS
330
4A29
102
}
330
4A29
100
AcDbXrecord
280
     1
270
     1
271
     1
  0
XRECORD
  5
4A2F
102
{ACAD_REACTORS
330
4A29
102
}
330
4A29
100
AcDbXrecord
280
     1
270
     1
271
     1
  0
XRECORD
  5
4A2C
102
{ACAD_REACTORS
330
4A29
102
}
330
4A29
100
AcDbXrecord
280
     1
270
     1
271
     1
  0
CELLSTYLEMAP
  5
3FD82
102
{ACAD_REACTORS
330
53F0
102
}
330
53F0
100
AcDbCellStyleMap
 90
        3
300
CELLSTYLE
  1
TABLEFORMAT_BEGIN
 90
        5
170
     1
 91
        0
 92
    32768
 62
   257
 93
        1
300
CONTENTFORMAT
  1
CONTENTFORMAT_BEGIN
 90
        0
 91
        0
 92
        4
 93
        0
300

 40
0.0
140
1.0
 94
        5
 62
     0
340
271
144
0.25
309
CONTENTFORMAT_END
171
     0
 94
        6
 95
        1
302
GRIDFORMAT
  1
GRIDFORMAT_BEGIN
 90
        0
 91
        1
 62
     0
 92
       -2
340
0
 93
        0
 40
0.045
309
GRIDFORMAT_END
 95
        2
302
GRIDFORMAT
  1
GRIDFORMAT_BEGIN
 90
        0
 91
        1
 62
     0
 92
       -2
340
0
 93
        0
 40
0.045
309
GRIDFORMAT_END
 95
        4
302
GRIDFORMAT
  1
GRIDFORMAT_BEGIN
 90
        0
 91
        1
 62
     0
 92
       -2
340
0
 93
        0
 40
0.045
309
GRIDFORMAT_END
 95
        8
302
GRIDFORMAT
  1
GRIDFORMAT_BEGIN
 90
        0
 91
        1
 62
     0
 92
       -2
340
0
 93
        0
 40
0.045
309
GRIDFORMAT_END
 95
       16
302
GRIDFORMAT
  1
GRIDFORMAT_BEGIN
 90
        0
 91
        1
 62
     0
 92
       -2
340
0
 93
        0
 40
0.045
309
GRIDFORMAT_END
 95
       32
302
GRIDFORMAT
  1
GRIDFORMAT_BEGIN
 90
        0
 91
        1
 62
     0
 92
       -2
340
0
 93
        0
 40
0.045
309
GRIDFORMAT_END
309
TABLEFORMAT_END
  1
CELLSTYLE_BEGIN
 90
        1
 91
        1
300
_TITLE
309
CELLSTYLE_END
300
CELLSTYLE
  1
TABLEFORMAT_BEGIN
 90
        5
170
     1
 91
        0
 92
        0
 62
   257
 93
        1
300
CONTENTFORMAT
  1
CONTENTFORMAT_BEGIN
 90
        0
 91
        0
 92
        4
 93
        0
300

 40
0.0
140
1.0
 94
        5
 62
     0
340
271
144
0.18
309
CONTENTFORMAT_END
171
     0
 94
        6
 95
        1
302
GRIDFORMAT
  1
GRIDFORMAT_BEGIN
 90
        0
 91
        1
 62
     0
 92
       -2
340
0
 93
        0
 40
0.045
309
GRIDFORMAT_END
 95
        2
302
GRIDFORMAT
  1
GRIDFORMAT_BEGIN
 90
        0
 91
        1
 62
     0
 92
       -2
340
0
 93
        0
 40
0.045
309
GRIDFORMAT_END
 95
        4
302
GRIDFORMAT
  1
GRIDFORMAT_BEGIN
 90
        0
 91
        1
 62
     0
 92
       -2
340
0
 93
        0
 40
0.045
309
GRIDFORMAT_END
 95
        8
302
GRIDFORMAT
  1
GRIDFORMAT_BEGIN
 90
        0
 91
        1
 62
     0
 92
       -2
340
0
 93
        0
 40
0.045
309
GRIDFORMAT_END
 95
       16
302
GRIDFORMAT
  1
GRIDFORMAT_BEGIN
 90
        0
 91
        1
 62
     0
 92
       -2
340
0
 93
        0
 40
0.045
309
GRIDFORMAT_END
 95
       32
302
GRIDFORMAT
  1
GRIDFORMAT_BEGIN
 90
        0
 91
        1
 62
     0
 92
       -2
340
0
 93
        0
 40
0.045
309
GRIDFORMAT_END
309
TABLEFORMAT_END
  1
CELLSTYLE_BEGIN
 90
        2
 91
        1
300
_HEADER
309
CELLSTYLE_END
300
CELLSTYLE
  1
TABLEFORMAT_BEGIN
 90
        5
170
     1
 91
        0
 92
        0
 62
   257
 93
        1
300
CONTENTFORMAT
  1
CONTENTFORMAT_BEGIN
 90
        0
 91
        0
 92
        4
 93
        0
300

 40
0.0
140
1.0
 94
        2
 62
     0
340
271
144
0.18
309
CONTENTFORMAT_END
171
     0
 94
        6
 95
        1
302
GRIDFORMAT
  1
GRIDFORMAT_BEGIN
 90
        0
 91
        1
 62
     0
 92
       -2
340
0
 93
        0
 40
0.045
309
GRIDFORMAT_END
 95
        2
302
GRIDFORMAT
  1
GRIDFORMAT_BEGIN
 90
        0
 91
        1
 62
     0
 92
       -2
340
0
 93
        0
 40
0.045
309
GRIDFORMAT_END
 95
        4
302
GRIDFORMAT
  1
GRIDFORMAT_BEGIN
 90
        0
 91
        1
 62
     0
 92
       -2
340
0
 93
        0
 40
0.045
309
GRIDFORMAT_END
 95
        8
302
GRIDFORMAT
  1
GRIDFORMAT_BEGIN
 90
        0
 91
        1
 62
     0
 92
       -2
340
0
 93
        0
 40
0.045
309
GRIDFORMAT_END
 95
       16
302
GRIDFORMAT
  1
GRIDFORMAT_BEGIN
 90
        0
 91
        1
 62
     0
 92
       -2
340
0
 93
        0
 40
0.045
309
GRIDFORMAT_END
 95
       32
302
GRIDFORMAT
  1
GRIDFORMAT_BEGIN
 90
        0
 91
        1
 62
     0
 92
       -2
340
0
 93
        0
 40
0.045
309
GRIDFORMAT_END
309
TABLEFORMAT_END
  1
CELLSTYLE_BEGIN
 90
        3
 91
        2
300
_DATA
309
CELLSTYLE_END
  0
XRECORD
  5
3FD92
102
{ACAD_REACTORS
330
53F0
102
}
330
53F0
100
AcDbXrecord
280
     1
102
ACAD_ROUNDTRIP_PRE2007_TABLESTYLE
 90
        4
 91
        0
  1

 92
        4
 93
        0
  2

 94
        4
 95
        0
  3

  0
XRECORD
  5
3FDA1
102
{ACAD_REACTORS
330
3FDA0
102
}
330
3FDA0
100
AcDbXrecord
280
     1
102
RTVSPost2010Prop28
280
     1
102
RTVSPost2010PropOp28
 70
     1
102
RTVSPost2010Prop29
280
     1
102
RTVSPost2010PropOp29
 70
     1
102
RTVSPost2010Prop30
280
     0
102
RTVSPost2010PropOp30
 70
     1
102
RTVSPost2010Prop31
280
     0
102
RTVSPost2010PropOp31
 70
     1
102
RTVSPost2010Prop32
280
     0
102
RTVSPost2010PropOp32
 70
     1
102
RTVSPost2010Prop33
280
     0
102
RTVSPost2010PropOp33
 70
     1
102
RTVSPost2010Prop34
280
     0
102
RTVSPost2010PropOp34
 70
     1
102
RTVSPost2010Prop35
280
     0
102
RTVSPost2010PropOp35
 70
     1
102
RTVSPost2010Prop36
280
     0
102
RTVSPost2010PropOp36
 70
     1
102
RTVSPost2010Prop37
 90
       50
102
RTVSPost2010PropOp37
 70
     1
102
RTVSPost2010Prop38
140
0.0
102
RTVSPost2010PropOp38
 70
     1
102
RTVSPost2010Prop39
140
1.0
102
RTVSPost2010PropOp39
 70
     1
102
RTVSPost2010Prop40
 90
        0
102
RTVSPost2010PropOp40
 70
     1
102
RTVSPost2010Prop41ColorIndex
 90
       18
102
RTVSPost2010Prop41ColorRGB
 90
        0
102
RTVSPost2010PropOp41
 70
     1
102
RTVSPost2010Prop42
 90
       50
102
RTVSPost2010PropOp42
 70
     1
102
RTVSPost2010Prop43
 90
        3
102
RTVSPost2010PropOp43
 70
     1
102
RTVSPost2010Prop44ColorIndex
 90
        5
102
RTVSPost2010Prop44ColorRGB
 90
      255
102
RTVSPost2010PropOp44
 70
     1
102
RTVSPost2010Prop45
280
     0
102
RTVSPost2010PropOp45
 70
     1
102
RTVSPost2010Prop46
 90
       50
102
RTVSPost2010PropOp46
 70
     1
102
RTVSPost2010Prop47
 90
       50
102
RTVSPost2010PropOp47
 70
     1
102
RTVSPost2010Prop48
 90
       50
102
RTVSPost2010PropOp48
 70
     1
102
RTVSPost2010Prop49
280
     0
102
RTVSPost2010PropOp49
 70
     1
102
RTVSPost2010Prop50
 90
       50
102
RTVSPost2010PropOp50
 70
     1
102
RTVSPost2010Prop51ColorIndex
 90
      256
102
RTVSPost2010Prop51ColorRGB
 90
-16777216
102
RTVSPost2010PropOp51
 70
     0
102
RTVSPost2010Prop52
140
1.0
102
RTVSPost2010PropOp52
 70
     0
102
RTVSPost2010Prop53
 90
        2
102
RTVSPost2010PropOp53
 70
     1
102
RTVSPost2010Prop54
  1
strokes_ogs.tif
102
RTVSPost2010PropOp54
 70
     1
102
RTVSPost2010Prop55
280
     0
102
RTVSPost2010PropOp55
 70
     1
102
RTVSPost2010Prop56
140
1.0
102
RTVSPost2010PropOp56
 70
     1
102
RTVSPost2010Prop57
140
1.0
102
RTVSPost2010PropOp57
 70
     1
102
RTVSPropertyOp0
 70
     1
102
RTVSPropertyOp1
 70
     1
102
RTVSPropertyOp2
 70
     1
102
RTVSPropertyOp3
 70
     1
102
RTVSPropertyOp4
 70
     1
102
RTVSPropertyOp5
 70
     1
102
RTVSPropertyOp6
 70
     1
102
RTVSPropertyOp7
 70
     1
102
RTVSPropertyOp8
 70
     1
102
RTVSPropertyOp9
 70
     1
102
RTVSPropertyOp10
 70
     1
102
RTVSPropertyOp11
 70
     1
102
RTVSPropertyOp12
 70
     1
102
RTVSPropertyOp13
 70
     1
102
RTVSPropertyOp14
 70
     1
102
RTVSPropertyOp15
 70
     1
102
RTVSPropertyOp16
 70
     1
102
RTVSPropertyOp17
 70
     1
102
RTVSPropertyOp18
 70
     1
102
RTVSPropertyOp19
 70
     1
102
RTVSPropertyOp20
 70
     1
102
RTVSPropertyOp21
 70
     1
102
RTVSPropertyOp22
 70
     1
102
RTVSPropertyOp23
 70
     1
102
RTVSPropertyOp24
 70
     1
102
RTVSPropertyOp25
 70
     1
102
RTVSPropertyOp26
 70
     1
102
RTVSPropertyOp27
 70
     1
102
RTVSPropertyOp28
 70
     1
102
RTVSPropertyOp29
 70
     1
102
RTVSPropertyOp30
 70
     1
102
RTVSPropertyOp31
 70
     1
102
RTVSPropertyOp32
 70
     1
102
RTVSPropertyOp33
 70
     1
102
RTVSPropertyOp34
 70
     1
102
RTVSPropertyOp35
 70
     1
102
RTVSPropertyOp36
 70
     1
102
RTVSPropertyOp37
 70
     1
102
RTVSPropertyOp38
 70
     1
102
RTVSPropertyOp39
 70
     1
102
RTVSPropertyOp40
 70
     1
102
RTVSPropertyOp41
 70
     1
102
RTVSPropertyOp42
 70
     1
102
RTVSPropertyOp43
 70
     1
102
RTVSPropertyOp44
 70
     1
102
RTVSPropertyOp45
 70
     1
102
RTVSPropertyOp46
 70
     1
102
RTVSPropertyOp47
 70
     1
102
RTVSPropertyOp48
 70
     1
102
RTVSPropertyOp49
 70
     1
102
RTVSPropertyOp50
 70
     1
102
RTVSPropertyOp51
 70
     0
102
RTVSPropertyOp52
 70
     0
102
RTVSPropertyOp53
 70
     1
102
RTVSPropertyOp54
 70
     1
102
RTVSPropertyOp55
 70
     1
102
RTVSPropertyOp56
 70
     1
102
RTVSPropertyOp57
 70
     1
102
RTVSPropertyOp58
 70
     1
102
RTVSPropertyOp59
 70
     1
102
RTVSPropertyOp60
 70
     1
102
RTVSPropertyOp61
 70
     1
102
RTVSPropertyOp62
 70
     1
  0
XRECORD
  5
3FDA5
102
{ACAD_REACTORS
330
3FDA4
102
}
330
3FDA4
100
AcDbXrecord
280
     1
102
RTVSPost2010Prop28
280
     0
102
RTVSPost2010PropOp28
 70
     1
102
RTVSPost2010Prop29
280
     1
102
RTVSPost2010PropOp29
 70
     1
102
RTVSPost2010Prop30
280
     1
102
RTVSPost2010PropOp30
 70
     1
102
RTVSPost2010Prop31
280
     0
102
RTVSPost2010PropOp31
 70
     1
102
RTVSPost2010Prop32
280
     0
102
RTVSPost2010PropOp32
 70
     1
102
RTVSPost2010Prop33
280
     0
102
RTVSPost2010PropOp33
 70
     1
102
RTVSPost2010Prop34
280
     0
102
RTVSPost2010PropOp34
 70
     1
102
RTVSPost2010Prop35
280
     0
102
RTVSPost2010PropOp35
 70
     1
102
RTVSPost2010Prop36
280
     0
102
RTVSPost2010PropOp36
 70
     1
102
RTVSPost2010Prop37
 90
       50
102
RTVSPost2010PropOp37
 70
     1
102
RTVSPost2010Prop38
140
0.0
102
RTVSPost2010PropOp38
 70
     1
102
RTVSPost2010Prop39
140
1.0
102
RTVSPost2010PropOp39
 70
     1
102
RTVSPost2010Prop40
 90
        0
102
RTVSPost2010PropOp40
 70
     1
102
RTVSPost2010Prop41ColorIndex
 90
       18
102
RTVSPost2010Prop41ColorRGB
 90
        0
102
RTVSPost2010PropOp41
 70
     1
102
RTVSPost2010Prop42
 90
       50
102
RTVSPost2010PropOp42
 70
     1
102
RTVSPost2010Prop43
 90
        3
102
RTVSPost2010PropOp43
 70
     1
102
RTVSPost2010Prop44ColorIndex
 90
        5
102
RTVSPost2010Prop44ColorRGB
 90
      255
102
RTVSPost2010PropOp44
 70
     1
102
RTVSPost2010Prop45
280
     0
102
RTVSPost2010PropOp45
 70
     1
102
RTVSPost2010Prop46
 90
       50
102
RTVSPost2010PropOp46
 70
     1
102
RTVSPost2010Prop47
 90
       50
102
RTVSPost2010PropOp47
 70
     1
102
RTVSPost2010Prop48
 90
       50
102
RTVSPost2010PropOp48
 70
     1
102
RTVSPost2010Prop49
280
     0
102
RTVSPost2010PropOp49
 70
     1
102
RTVSPost2010Prop50
 90
       50
102
RTVSPost2010PropOp50
 70
     1
102
RTVSPost2010Prop51ColorIndex
 90
      256
102
RTVSPost2010Prop51ColorRGB
 90
-16777216
102
RTVSPost2010PropOp51
 70
     0
102
RTVSPost2010Prop52
140
1.0
102
RTVSPost2010PropOp52
 70
     0
102
RTVSPost2010Prop53
 90
        2
102
RTVSPost2010PropOp53
 70
     1
102
RTVSPost2010Prop54
  1
strokes_ogs.tif
102
RTVSPost2010PropOp54
 70
     1
102
RTVSPost2010Prop55
280
     0
102
RTVSPost2010PropOp55
 70
     1
102
RTVSPost2010Prop56
140
1.0
102
RTVSPost2010PropOp56
 70
     1
102
RTVSPost2010Prop57
140
1.0
102
RTVSPost2010PropOp57
 70
     1
102
RTVSPropertyOp0
 70
     1
102
RTVSPropertyOp1
 70
     1
102
RTVSPropertyOp2
 70
     1
102
RTVSPropertyOp3
 70
     1
102
RTVSPropertyOp4
 70
     1
102
RTVSPropertyOp5
 70
     1
102
RTVSPropertyOp6
 70
     1
102
RTVSPropertyOp7
 70
     1
102
RTVSPropertyOp8
 70
     1
102
RTVSPropertyOp9
 70
     1
102
RTVSPropertyOp10
 70
     1
102
RTVSPropertyOp11
 70
     1
102
RTVSPropertyOp12
 70
     1
102
RTVSPropertyOp13
 70
     1
102
RTVSPropertyOp14
 70
     1
102
RTVSPropertyOp15
 70
     1
102
RTVSPropertyOp16
 70
     1
102
RTVSPropertyOp17
 70
     1
102
RTVSPropertyOp18
 70
     1
102
RTVSPropertyOp19
 70
     1
102
RTVSPropertyOp20
 70
     1
102
RTVSPropertyOp21
 70
     1
102
RTVSPropertyOp22
 70
     1
102
RTVSPropertyOp23
 70
     1
102
RTVSPropertyOp24
 70
     1
102
RTVSPropertyOp25
 70
     1
102
RTVSPropertyOp26
 70
     1
102
RTVSPropertyOp27
 70
     1
102
RTVSPropertyOp28
 70
     1
102
RTVSPropertyOp29
 70
     1
102
RTVSPropertyOp30
 70
     1
102
RTVSPropertyOp31
 70
     1
102
RTVSPropertyOp32
 70
     1
102
RTVSPropertyOp33
 70
     1
102
RTVSPropertyOp34
 70
     1
102
RTVSPropertyOp35
 70
     1
102
RTVSPropertyOp36
 70
     1
102
RTVSPropertyOp37
 70
     1
102
RTVSPropertyOp38
 70
     1
102
RTVSPropertyOp39
 70
     1
102
RTVSPropertyOp40
 70
     1
102
RTVSPropertyOp41
 70
     1
102
RTVSPropertyOp42
 70
     1
102
RTVSPropertyOp43
 70
     1
102
RTVSPropertyOp44
 70
     1
102
RTVSPropertyOp45
 70
     1
102
RTVSPropertyOp46
 70
     1
102
RTVSPropertyOp47
 70
     1
102
RTVSPropertyOp48
 70
     1
102
RTVSPropertyOp49
 70
     1
102
RTVSPropertyOp50
 70
     1
102
RTVSPropertyOp51
 70
     0
102
RTVSPropertyOp52
 70
     0
102
RTVSPropertyOp53
 70
     1
102
RTVSPropertyOp54
 70
     1
102
RTVSPropertyOp55
 70
     1
102
RTVSPropertyOp56
 70
     1
102
RTVSPropertyOp57
 70
     1
102
RTVSPropertyOp58
 70
     1
102
RTVSPropertyOp59
 70
     1
102
RTVSPropertyOp60
 70
     1
102
RTVSPropertyOp61
 70
     1
102
RTVSPropertyOp62
 70
     1
  0
XRECORD
  5
3FDA3
102
{ACAD_REACTORS
330
3FDA2
102
}
330
3FDA2
100
AcDbXrecord
280
     1
102
RTVSPost2010Prop28
280
     0
102
RTVSPost2010PropOp28
 70
     1
102
RTVSPost2010Prop29
280
     1
102
RTVSPost2010PropOp29
 70
     1
102
RTVSPost2010Prop30
280
     1
102
RTVSPost2010PropOp30
 70
     1
102
RTVSPost2010Prop31
280
     0
102
RTVSPost2010PropOp31
 70
     1
102
RTVSPost2010Prop32
280
     0
102
RTVSPost2010PropOp32
 70
     1
102
RTVSPost2010Prop33
280
     0
102
RTVSPost2010PropOp33
 70
     1
102
RTVSPost2010Prop34
280
     0
102
RTVSPost2010PropOp34
 70
     1
102
RTVSPost2010Prop35
280
     0
102
RTVSPost2010PropOp35
 70
     1
102
RTVSPost2010Prop36
280
     0
102
RTVSPost2010PropOp36
 70
     1
102
RTVSPost2010Prop37
 90
       50
102
RTVSPost2010PropOp37
 70
     1
102
RTVSPost2010Prop38
140
0.0
102
RTVSPost2010PropOp38
 70
     1
102
RTVSPost2010Prop39
140
1.0
102
RTVSPost2010PropOp39
 70
     1
102
RTVSPost2010Prop40
 90
        0
102
RTVSPost2010PropOp40
 70
     1
102
RTVSPost2010Prop41ColorIndex
 90
       18
102
RTVSPost2010Prop41ColorRGB
 90
        0
102
RTVSPost2010PropOp41
 70
     1
102
RTVSPost2010Prop42
 90
       50
102
RTVSPost2010PropOp42
 70
     1
102
RTVSPost2010Prop43
 90
        3
102
RTVSPost2010PropOp43
 70
     1
102
RTVSPost2010Prop44ColorIndex
 90
        5
102
RTVSPost2010Prop44ColorRGB
 90
      255
102
RTVSPost2010PropOp44
 70
     1
102
RTVSPost2010Prop45
280
     0
102
RTVSPost2010PropOp45
 70
     1
102
RTVSPost2010Prop46
 90
       50
102
RTVSPost2010PropOp46
 70
     1
102
RTVSPost2010Prop47
 90
       50
102
RTVSPost2010PropOp47
 70
     1
102
RTVSPost2010Prop48
 90
       50
102
RTVSPost2010PropOp48
 70
     1
102
RTVSPost2010Prop49
280
     0
102
RTVSPost2010PropOp49
 70
     1
102
RTVSPost2010Prop50
 90
       50
102
RTVSPost2010PropOp50
 70
     1
102
RTVSPost2010Prop51ColorIndex
 90
      256
102
RTVSPost2010Prop51ColorRGB
 90
-16777216
102
RTVSPost2010PropOp51
 70
     0
102
RTVSPost2010Prop52
140
1.0
102
RTVSPost2010PropOp52
 70
     0
102
RTVSPost2010Prop53
 90
        2
102
RTVSPost2010PropOp53
 70
     1
102
RTVSPost2010Prop54
  1
strokes_ogs.tif
102
RTVSPost2010PropOp54
 70
     1
102
RTVSPost2010Prop55
280
     0
102
RTVSPost2010PropOp55
 70
     1
102
RTVSPost2010Prop56
140
1.0
102
RTVSPost2010PropOp56
 70
     1
102
RTVSPost2010Prop57
140
1.0
102
RTVSPost2010PropOp57
 70
     1
102
RTVSPropertyOp0
 70
     1
102
RTVSPropertyOp1
 70
     1
102
RTVSPropertyOp2
 70
     1
102
RTVSPropertyOp3
 70
     1
102
RTVSPropertyOp4
 70
     1
102
RTVSPropertyOp5
 70
     1
102
RTVSPropertyOp6
 70
     1
102
RTVSPropertyOp7
 70
     1
102
RTVSPropertyOp8
 70
     1
102
RTVSPropertyOp9
 70
     1
102
RTVSPropertyOp10
 70
     1
102
RTVSPropertyOp11
 70
     1
102
RTVSPropertyOp12
 70
     1
102
RTVSPropertyOp13
 70
     1
102
RTVSPropertyOp14
 70
     1
102
RTVSPropertyOp15
 70
     1
102
RTVSPropertyOp16
 70
     1
102
RTVSPropertyOp17
 70
     1
102
RTVSPropertyOp18
 70
     1
102
RTVSPropertyOp19
 70
     1
102
RTVSPropertyOp20
 70
     1
102
RTVSPropertyOp21
 70
     1
102
RTVSPropertyOp22
 70
     1
102
RTVSPropertyOp23
 70
     1
102
RTVSPropertyOp24
 70
     1
102
RTVSPropertyOp25
 70
     1
102
RTVSPropertyOp26
 70
     1
102
RTVSPropertyOp27
 70
     1
102
RTVSPropertyOp28
 70
     1
102
RTVSPropertyOp29
 70
     1
102
RTVSPropertyOp30
 70
     1
102
RTVSPropertyOp31
 70
     1
102
RTVSPropertyOp32
 70
     1
102
RTVSPropertyOp33
 70
     1
102
RTVSPropertyOp34
 70
     1
102
RTVSPropertyOp35
 70
     1
102
RTVSPropertyOp36
 70
     1
102
RTVSPropertyOp37
 70
     1
102
RTVSPropertyOp38
 70
     1
102
RTVSPropertyOp39
 70
     1
102
RTVSPropertyOp40
 70
     1
102
RTVSPropertyOp41
 70
     1
102
RTVSPropertyOp42
 70
     1
102
RTVSPropertyOp43
 70
     1
102
RTVSPropertyOp44
 70
     1
102
RTVSPropertyOp45
 70
     1
102
RTVSPropertyOp46
 70
     1
102
RTVSPropertyOp47
 70
     1
102
RTVSPropertyOp48
 70
     1
102
RTVSPropertyOp49
 70
     1
102
RTVSPropertyOp50
 70
     1
102
RTVSPropertyOp51
 70
     0
102
RTVSPropertyOp52
 70
     0
102
RTVSPropertyOp53
 70
     1
102
RTVSPropertyOp54
 70
     1
102
RTVSPropertyOp55
 70
     1
102
RTVSPropertyOp56
 70
     1
102
RTVSPropertyOp57
 70
     1
102
RTVSPropertyOp58
 70
     1
102
RTVSPropertyOp59
 70
     1
102
RTVSPropertyOp60
 70
     1
102
RTVSPropertyOp61
 70
     1
102
RTVSPropertyOp62
 70
     1
  0
XRECORD
  5
3FD9F
102
{ACAD_REACTORS
330
3FD9E
102
}
330
3FD9E
100
AcDbXrecord
280
     1
102
RTVSPost2010Prop28
280
     0
102
RTVSPost2010PropOp28
 70
     1
102
RTVSPost2010Prop29
280
     1
102
RTVSPost2010PropOp29
 70
     1
102
RTVSPost2010Prop30
280
     1
102
RTVSPost2010PropOp30
 70
     1
102
RTVSPost2010Prop31
280
     0
102
RTVSPost2010PropOp31
 70
     1
102
RTVSPost2010Prop32
280
     0
102
RTVSPost2010PropOp32
 70
     1
102
RTVSPost2010Prop33
280
     0
102
RTVSPost2010PropOp33
 70
     1
102
RTVSPost2010Prop34
280
     0
102
RTVSPost2010PropOp34
 70
     1
102
RTVSPost2010Prop35
280
     0
102
RTVSPost2010PropOp35
 70
     1
102
RTVSPost2010Prop36
280
     0
102
RTVSPost2010PropOp36
 70
     1
102
RTVSPost2010Prop37
 90
       50
102
RTVSPost2010PropOp37
 70
     1
102
RTVSPost2010Prop38
140
0.0
102
RTVSPost2010PropOp38
 70
     1
102
RTVSPost2010Prop39
140
1.0
102
RTVSPost2010PropOp39
 70
     1
102
RTVSPost2010Prop40
 90
        0
102
RTVSPost2010PropOp40
 70
     1
102
RTVSPost2010Prop41ColorIndex
 90
       18
102
RTVSPost2010Prop41ColorRGB
 90
        0
102
RTVSPost2010PropOp41
 70
     1
102
RTVSPost2010Prop42
 90
       50
102
RTVSPost2010PropOp42
 70
     1
102
RTVSPost2010Prop43
 90
        3
102
RTVSPost2010PropOp43
 70
     1
102
RTVSPost2010Prop44ColorIndex
 90
        5
102
RTVSPost2010Prop44ColorRGB
 90
      255
102
RTVSPost2010PropOp44
 70
     1
102
RTVSPost2010Prop45
280
     0
102
RTVSPost2010PropOp45
 70
     1
102
RTVSPost2010Prop46
 90
       50
102
RTVSPost2010PropOp46
 70
     1
102
RTVSPost2010Prop47
 90
       50
102
RTVSPost2010PropOp47
 70
     1
102
RTVSPost2010Prop48
 90
       50
102
RTVSPost2010PropOp48
 70
     1
102
RTVSPost2010Prop49
280
     0
102
RTVSPost2010PropOp49
 70
     1
102
RTVSPost2010Prop50
 90
       50
102
RTVSPost2010PropOp50
 70
     1
102
RTVSPost2010Prop51ColorIndex
 90
      256
102
RTVSPost2010Prop51ColorRGB
 90
-16777216
102
RTVSPost2010PropOp51
 70
     0
102
RTVSPost2010Prop52
140
1.0
102
RTVSPost2010PropOp52
 70
     0
102
RTVSPost2010Prop53
 90
        2
102
RTVSPost2010PropOp53
 70
     1
102
RTVSPost2010Prop54
  1
strokes_ogs.tif
102
RTVSPost2010PropOp54
 70
     1
102
RTVSPost2010Prop55
280
     0
102
RTVSPost2010PropOp55
 70
     1
102
RTVSPost2010Prop56
140
1.0
102
RTVSPost2010PropOp56
 70
     1
102
RTVSPost2010Prop57
140
1.0
102
RTVSPost2010PropOp57
 70
     1
102
RTVSPropertyOp0
 70
     1
102
RTVSPropertyOp1
 70
     1
102
RTVSPropertyOp2
 70
     1
102
RTVSPropertyOp3
 70
     1
102
RTVSPropertyOp4
 70
     1
102
RTVSPropertyOp5
 70
     1
102
RTVSPropertyOp6
 70
     1
102
RTVSPropertyOp7
 70
     1
102
RTVSPropertyOp8
 70
     1
102
RTVSPropertyOp9
 70
     1
102
RTVSPropertyOp10
 70
     1
102
RTVSPropertyOp11
 70
     1
102
RTVSPropertyOp12
 70
     1
102
RTVSPropertyOp13
 70
     1
102
RTVSPropertyOp14
 70
     1
102
RTVSPropertyOp15
 70
     1
102
RTVSPropertyOp16
 70
     1
102
RTVSPropertyOp17
 70
     1
102
RTVSPropertyOp18
 70
     1
102
RTVSPropertyOp19
 70
     1
102
RTVSPropertyOp20
 70
     1
102
RTVSPropertyOp21
 70
     1
102
RTVSPropertyOp22
 70
     1
102
RTVSPropertyOp23
 70
     1
102
RTVSPropertyOp24
 70
     1
102
RTVSPropertyOp25
 70
     1
102
RTVSPropertyOp26
 70
     1
102
RTVSPropertyOp27
 70
     1
102
RTVSPropertyOp28
 70
     1
102
RTVSPropertyOp29
 70
     1
102
RTVSPropertyOp30
 70
     1
102
RTVSPropertyOp31
 70
     1
102
RTVSPropertyOp32
 70
     1
102
RTVSPropertyOp33
 70
     1
102
RTVSPropertyOp34
 70
     1
102
RTVSPropertyOp35
 70
     1
102
RTVSPropertyOp36
 70
     1
102
RTVSPropertyOp37
 70
     1
102
RTVSPropertyOp38
 70
     1
102
RTVSPropertyOp39
 70
     1
102
RTVSPropertyOp40
 70
     1
102
RTVSPropertyOp41
 70
     1
102
RTVSPropertyOp42
 70
     1
102
RTVSPropertyOp43
 70
     1
102
RTVSPropertyOp44
 70
     1
102
RTVSPropertyOp45
 70
     1
102
RTVSPropertyOp46
 70
     1
102
RTVSPropertyOp47
 70
     1
102
RTVSPropertyOp48
 70
     1
102
RTVSPropertyOp49
 70
     1
102
RTVSPropertyOp50
 70
     1
102
RTVSPropertyOp51
 70
     0
102
RTVSPropertyOp52
 70
     0
102
RTVSPropertyOp53
 70
     1
102
RTVSPropertyOp54
 70
     1
102
RTVSPropertyOp55
 70
     1
102
RTVSPropertyOp56
 70
     1
102
RTVSPropertyOp57
 70
     1
102
RTVSPropertyOp58
 70
     1
102
RTVSPropertyOp59
 70
     1
102
RTVSPropertyOp60
 70
     1
102
RTVSPropertyOp61
 70
     1
102
RTVSPropertyOp62
 70
     1
  0
XRECORD
  5
3FDAD
102
{ACAD_REACTORS
330
3FDAC
102
}
330
3FDAC
100
AcDbXrecord
280
     1
102
RTVSPost2010Prop28
280
     0
102
RTVSPost2010PropOp28
 70
     1
102
RTVSPost2010Prop29
280
     1
102
RTVSPost2010PropOp29
 70
     1
102
RTVSPost2010Prop30
280
     1
102
RTVSPost2010PropOp30
 70
     1
102
RTVSPost2010Prop31
280
     0
102
RTVSPost2010PropOp31
 70
     1
102
RTVSPost2010Prop32
280
     0
102
RTVSPost2010PropOp32
 70
     1
102
RTVSPost2010Prop33
280
     0
102
RTVSPost2010PropOp33
 70
     1
102
RTVSPost2010Prop34
280
     0
102
RTVSPost2010PropOp34
 70
     1
102
RTVSPost2010Prop35
280
     0
102
RTVSPost2010PropOp35
 70
     1
102
RTVSPost2010Prop36
280
     0
102
RTVSPost2010PropOp36
 70
     1
102
RTVSPost2010Prop37
 90
       50
102
RTVSPost2010PropOp37
 70
     1
102
RTVSPost2010Prop38
140
0.0
102
RTVSPost2010PropOp38
 70
     1
102
RTVSPost2010Prop39
140
1.0
102
RTVSPost2010PropOp39
 70
     1
102
RTVSPost2010Prop40
 90
        0
102
RTVSPost2010PropOp40
 70
     1
102
RTVSPost2010Prop41ColorIndex
 90
       18
102
RTVSPost2010Prop41ColorRGB
 90
        0
102
RTVSPost2010PropOp41
 70
     1
102
RTVSPost2010Prop42
 90
       50
102
RTVSPost2010PropOp42
 70
     1
102
RTVSPost2010Prop43
 90
        3
102
RTVSPost2010PropOp43
 70
     1
102
RTVSPost2010Prop44ColorIndex
 90
        5
102
RTVSPost2010Prop44ColorRGB
 90
      255
102
RTVSPost2010PropOp44
 70
     1
102
RTVSPost2010Prop45
280
     0
102
RTVSPost2010PropOp45
 70
     1
102
RTVSPost2010Prop46
 90
       50
102
RTVSPost2010PropOp46
 70
     1
102
RTVSPost2010Prop47
 90
       50
102
RTVSPost2010PropOp47
 70
     1
102
RTVSPost2010Prop48
 90
       50
102
RTVSPost2010PropOp48
 70
     1
102
RTVSPost2010Prop49
280
     0
102
RTVSPost2010PropOp49
 70
     1
102
RTVSPost2010Prop50
 90
       50
102
RTVSPost2010PropOp50
 70
     1
102
RTVSPost2010Prop51ColorIndex
 90
      256
102
RTVSPost2010Prop51ColorRGB
 90
-16777216
102
RTVSPost2010PropOp51
 70
     0
102
RTVSPost2010Prop52
140
1.0
102
RTVSPost2010PropOp52
 70
     0
102
RTVSPost2010Prop53
 90
        2
102
RTVSPost2010PropOp53
 70
     1
102
RTVSPost2010Prop54
  1
strokes_ogs.tif
102
RTVSPost2010PropOp54
 70
     1
102
RTVSPost2010Prop55
280
     0
102
RTVSPost2010PropOp55
 70
     1
102
RTVSPost2010Prop56
140
1.0
102
RTVSPost2010PropOp56
 70
     1
102
RTVSPost2010Prop57
140
1.0
102
RTVSPost2010PropOp57
 70
     1
102
RTVSPropertyOp0
 70
     1
102
RTVSPropertyOp1
 70
     1
102
RTVSPropertyOp2
 70
     1
102
RTVSPropertyOp3
 70
     1
102
RTVSPropertyOp4
 70
     1
102
RTVSPropertyOp5
 70
     1
102
RTVSPropertyOp6
 70
     1
102
RTVSPropertyOp7
 70
     1
102
RTVSPropertyOp8
 70
     1
102
RTVSPropertyOp9
 70
     1
102
RTVSPropertyOp10
 70
     1
102
RTVSPropertyOp11
 70
     1
102
RTVSPropertyOp12
 70
     1
102
RTVSPropertyOp13
 70
     1
102
RTVSPropertyOp14
 70
     1
102
RTVSPropertyOp15
 70
     1
102
RTVSPropertyOp16
 70
     1
102
RTVSPropertyOp17
 70
     1
102
RTVSPropertyOp18
 70
     1
102
RTVSPropertyOp19
 70
     1
102
RTVSPropertyOp20
 70
     1
102
RTVSPropertyOp21
 70
     1
102
RTVSPropertyOp22
 70
     1
102
RTVSPropertyOp23
 70
     1
102
RTVSPropertyOp24
 70
     1
102
RTVSPropertyOp25
 70
     1
102
RTVSPropertyOp26
 70
     1
102
RTVSPropertyOp27
 70
     1
102
RTVSPropertyOp28
 70
     1
102
RTVSPropertyOp29
 70
     1
102
RTVSPropertyOp30
 70
     1
102
RTVSPropertyOp31
 70
     1
102
RTVSPropertyOp32
 70
     1
102
RTVSPropertyOp33
 70
     1
102
RTVSPropertyOp34
 70
     1
102
RTVSPropertyOp35
 70
     1
102
RTVSPropertyOp36
 70
     1
102
RTVSPropertyOp37
 70
     1
102
RTVSPropertyOp38
 70
     1
102
RTVSPropertyOp39
 70
     1
102
RTVSPropertyOp40
 70
     1
102
RTVSPropertyOp41
 70
     1
102
RTVSPropertyOp42
 70
     1
102
RTVSPropertyOp43
 70
     1
102
RTVSPropertyOp44
 70
     1
102
RTVSPropertyOp45
 70
     1
102
RTVSPropertyOp46
 70
     1
102
RTVSPropertyOp47
 70
     1
102
RTVSPropertyOp48
 70
     1
102
RTVSPropertyOp49
 70
     1
102
RTVSPropertyOp50
 70
     1
102
RTVSPropertyOp51
 70
     0
102
RTVSPropertyOp52
 70
     0
102
RTVSPropertyOp53
 70
     1
102
RTVSPropertyOp54
 70
     1
102
RTVSPropertyOp55
 70
     1
102
RTVSPropertyOp56
 70
     1
102
RTVSPropertyOp57
 70
     1
102
RTVSPropertyOp58
 70
     1
102
RTVSPropertyOp59
 70
     1
102
RTVSPropertyOp60
 70
     1
102
RTVSPropertyOp61
 70
     1
102
RTVSPropertyOp62
 70
     1
  0
XRECORD
  5
3FDB5
102
{ACAD_REACTORS
330
3FDB4
102
}
330
3FDB4
100
AcDbXrecord
280
     1
102
RTVSPost2010Prop28
280
     0
102
RTVSPost2010PropOp28
 70
     1
102
RTVSPost2010Prop29
280
     1
102
RTVSPost2010PropOp29
 70
     1
102
RTVSPost2010Prop30
280
     1
102
RTVSPost2010PropOp30
 70
     1
102
RTVSPost2010Prop31
280
     0
102
RTVSPost2010PropOp31
 70
     1
102
RTVSPost2010Prop32
280
     0
102
RTVSPost2010PropOp32
 70
     1
102
RTVSPost2010Prop33
280
     0
102
RTVSPost2010PropOp33
 70
     1
102
RTVSPost2010Prop34
280
     0
102
RTVSPost2010PropOp34
 70
     1
102
RTVSPost2010Prop35
280
     0
102
RTVSPost2010PropOp35
 70
     1
102
RTVSPost2010Prop36
280
     0
102
RTVSPost2010PropOp36
 70
     1
102
RTVSPost2010Prop37
 90
       50
102
RTVSPost2010PropOp37
 70
     1
102
RTVSPost2010Prop38
140
0.0
102
RTVSPost2010PropOp38
 70
     1
102
RTVSPost2010Prop39
140
1.0
102
RTVSPost2010PropOp39
 70
     1
102
RTVSPost2010Prop40
 90
        0
102
RTVSPost2010PropOp40
 70
     1
102
RTVSPost2010Prop41ColorIndex
 90
       18
102
RTVSPost2010Prop41ColorRGB
 90
        0
102
RTVSPost2010PropOp41
 70
     1
102
RTVSPost2010Prop42
 90
       50
102
RTVSPost2010PropOp42
 70
     1
102
RTVSPost2010Prop43
 90
        3
102
RTVSPost2010PropOp43
 70
     1
102
RTVSPost2010Prop44ColorIndex
 90
        5
102
RTVSPost2010Prop44ColorRGB
 90
      255
102
RTVSPost2010PropOp44
 70
     1
102
RTVSPost2010Prop45
280
     0
102
RTVSPost2010PropOp45
 70
     1
102
RTVSPost2010Prop46
 90
       50
102
RTVSPost2010PropOp46
 70
     1
102
RTVSPost2010Prop47
 90
       50
102
RTVSPost2010PropOp47
 70
     1
102
RTVSPost2010Prop48
 90
       50
102
RTVSPost2010PropOp48
 70
     1
102
RTVSPost2010Prop49
280
     0
102
RTVSPost2010PropOp49
 70
     1
102
RTVSPost2010Prop50
 90
       50
102
RTVSPost2010PropOp50
 70
     1
102
RTVSPost2010Prop51ColorIndex
 90
      256
102
RTVSPost2010Prop51ColorRGB
 90
-16777216
102
RTVSPost2010PropOp51
 70
     0
102
RTVSPost2010Prop52
140
1.0
102
RTVSPost2010PropOp52
 70
     0
102
RTVSPost2010Prop53
 90
        2
102
RTVSPost2010PropOp53
 70
     1
102
RTVSPost2010Prop54
  1
strokes_ogs.tif
102
RTVSPost2010PropOp54
 70
     1
102
RTVSPost2010Prop55
280
     0
102
RTVSPost2010PropOp55
 70
     1
102
RTVSPost2010Prop56
140
1.0
102
RTVSPost2010PropOp56
 70
     1
102
RTVSPost2010Prop57
140
1.0
102
RTVSPost2010PropOp57
 70
     1
102
RTVSPropertyOp0
 70
     1
102
RTVSPropertyOp1
 70
     1
102
RTVSPropertyOp2
 70
     1
102
RTVSPropertyOp3
 70
     1
102
RTVSPropertyOp4
 70
     1
102
RTVSPropertyOp5
 70
     1
102
RTVSPropertyOp6
 70
     1
102
RTVSPropertyOp7
 70
     1
102
RTVSPropertyOp8
 70
     1
102
RTVSPropertyOp9
 70
     1
102
RTVSPropertyOp10
 70
     1
102
RTVSPropertyOp11
 70
     1
102
RTVSPropertyOp12
 70
     1
102
RTVSPropertyOp13
 70
     1
102
RTVSPropertyOp14
 70
     1
102
RTVSPropertyOp15
 70
     1
102
RTVSPropertyOp16
 70
     1
102
RTVSPropertyOp17
 70
     1
102
RTVSPropertyOp18
 70
     1
102
RTVSPropertyOp19
 70
     1
102
RTVSPropertyOp20
 70
     1
102
RTVSPropertyOp21
 70
     1
102
RTVSPropertyOp22
 70
     1
102
RTVSPropertyOp23
 70
     1
102
RTVSPropertyOp24
 70
     1
102
RTVSPropertyOp25
 70
     1
102
RTVSPropertyOp26
 70
     1
102
RTVSPropertyOp27
 70
     1
102
RTVSPropertyOp28
 70
     1
102
RTVSPropertyOp29
 70
     1
102
RTVSPropertyOp30
 70
     1
102
RTVSPropertyOp31
 70
     1
102
RTVSPropertyOp32
 70
     1
102
RTVSPropertyOp33
 70
     1
102
RTVSPropertyOp34
 70
     1
102
RTVSPropertyOp35
 70
     1
102
RTVSPropertyOp36
 70
     1
102
RTVSPropertyOp37
 70
     1
102
RTVSPropertyOp38
 70
     1
102
RTVSPropertyOp39
 70
     1
102
RTVSPropertyOp40
 70
     1
102
RTVSPropertyOp41
 70
     1
102
RTVSPropertyOp42
 70
     1
102
RTVSPropertyOp43
 70
     1
102
RTVSPropertyOp44
 70
     1
102
RTVSPropertyOp45
 70
     1
102
RTVSPropertyOp46
 70
     1
102
RTVSPropertyOp47
 70
     1
102
RTVSPropertyOp48
 70
     1
102
RTVSPropertyOp49
 70
     1
102
RTVSPropertyOp50
 70
     1
102
RTVSPropertyOp51
 70
     0
102
RTVSPropertyOp52
 70
     0
102
RTVSPropertyOp53
 70
     1
102
RTVSPropertyOp54
 70
     1
102
RTVSPropertyOp55
 70
     1
102
RTVSPropertyOp56
 70
     1
102
RTVSPropertyOp57
 70
     1
102
RTVSPropertyOp58
 70
     1
102
RTVSPropertyOp59
 70
     1
102
RTVSPropertyOp60
 70
     1
102
RTVSPropertyOp61
 70
     1
102
RTVSPropertyOp62
 70
     1
  0
XRECORD
  5
3FDA7
102
{ACAD_REACTORS
330
3FDA6
102
}
330
3FDA6
100
AcDbXrecord
280
     1
102
RTVSPost2010Prop28
280
     0
102
RTVSPost2010PropOp28
 70
     1
102
RTVSPost2010Prop29
280
     1
102
RTVSPost2010PropOp29
 70
     1
102
RTVSPost2010Prop30
280
     1
102
RTVSPost2010PropOp30
 70
     1
102
RTVSPost2010Prop31
280
     0
102
RTVSPost2010PropOp31
 70
     1
102
RTVSPost2010Prop32
280
     0
102
RTVSPost2010PropOp32
 70
     1
102
RTVSPost2010Prop33
280
     0
102
RTVSPost2010PropOp33
 70
     1
102
RTVSPost2010Prop34
280
     0
102
RTVSPost2010PropOp34
 70
     1
102
RTVSPost2010Prop35
280
     0
102
RTVSPost2010PropOp35
 70
     1
102
RTVSPost2010Prop36
280
     0
102
RTVSPost2010PropOp36
 70
     1
102
RTVSPost2010Prop37
 90
       50
102
RTVSPost2010PropOp37
 70
     1
102
RTVSPost2010Prop38
140
0.0
102
RTVSPost2010PropOp38
 70
     1
102
RTVSPost2010Prop39
140
1.0
102
RTVSPost2010PropOp39
 70
     1
102
RTVSPost2010Prop40
 90
        0
102
RTVSPost2010PropOp40
 70
     1
102
RTVSPost2010Prop41ColorIndex
 90
       18
102
RTVSPost2010Prop41ColorRGB
 90
        0
102
RTVSPost2010PropOp41
 70
     1
102
RTVSPost2010Prop42
 90
       50
102
RTVSPost2010PropOp42
 70
     1
102
RTVSPost2010Prop43
 90
        3
102
RTVSPost2010PropOp43
 70
     1
102
RTVSPost2010Prop44ColorIndex
 90
        5
102
RTVSPost2010Prop44ColorRGB
 90
      255
102
RTVSPost2010PropOp44
 70
     1
102
RTVSPost2010Prop45
280
     0
102
RTVSPost2010PropOp45
 70
     1
102
RTVSPost2010Prop46
 90
       50
102
RTVSPost2010PropOp46
 70
     1
102
RTVSPost2010Prop47
 90
       50
102
RTVSPost2010PropOp47
 70
     1
102
RTVSPost2010Prop48
 90
       50
102
RTVSPost2010PropOp48
 70
     1
102
RTVSPost2010Prop49
280
     0
102
RTVSPost2010PropOp49
 70
     1
102
RTVSPost2010Prop50
 90
       50
102
RTVSPost2010PropOp50
 70
     1
102
RTVSPost2010Prop51ColorIndex
 90
      256
102
RTVSPost2010Prop51ColorRGB
 90
-16777216
102
RTVSPost2010PropOp51
 70
     0
102
RTVSPost2010Prop52
140
1.0
102
RTVSPost2010PropOp52
 70
     0
102
RTVSPost2010Prop53
 90
        2
102
RTVSPost2010PropOp53
 70
     1
102
RTVSPost2010Prop54
  1
strokes_ogs.tif
102
RTVSPost2010PropOp54
 70
     1
102
RTVSPost2010Prop55
280
     0
102
RTVSPost2010PropOp55
 70
     1
102
RTVSPost2010Prop56
140
1.0
102
RTVSPost2010PropOp56
 70
     1
102
RTVSPost2010Prop57
140
1.0
102
RTVSPost2010PropOp57
 70
     1
102
RTVSPropertyOp0
 70
     1
102
RTVSPropertyOp1
 70
     1
102
RTVSPropertyOp2
 70
     1
102
RTVSPropertyOp3
 70
     1
102
RTVSPropertyOp4
 70
     1
102
RTVSPropertyOp5
 70
     1
102
RTVSPropertyOp6
 70
     1
102
RTVSPropertyOp7
 70
     1
102
RTVSPropertyOp8
 70
     1
102
RTVSPropertyOp9
 70
     1
102
RTVSPropertyOp10
 70
     1
102
RTVSPropertyOp11
 70
     1
102
RTVSPropertyOp12
 70
     1
102
RTVSPropertyOp13
 70
     1
102
RTVSPropertyOp14
 70
     1
102
RTVSPropertyOp15
 70
     1
102
RTVSPropertyOp16
 70
     1
102
RTVSPropertyOp17
 70
     1
102
RTVSPropertyOp18
 70
     1
102
RTVSPropertyOp19
 70
     1
102
RTVSPropertyOp20
 70
     1
102
RTVSPropertyOp21
 70
     1
102
RTVSPropertyOp22
 70
     1
102
RTVSPropertyOp23
 70
     1
102
RTVSPropertyOp24
 70
     1
102
RTVSPropertyOp25
 70
     1
102
RTVSPropertyOp26
 70
     1
102
RTVSPropertyOp27
 70
     1
102
RTVSPropertyOp28
 70
     1
102
RTVSPropertyOp29
 70
     1
102
RTVSPropertyOp30
 70
     1
102
RTVSPropertyOp31
 70
     1
102
RTVSPropertyOp32
 70
     1
102
RTVSPropertyOp33
 70
     1
102
RTVSPropertyOp34
 70
     1
102
RTVSPropertyOp35
 70
     1
102
RTVSPropertyOp36
 70
     1
102
RTVSPropertyOp37
 70
     1
102
RTVSPropertyOp38
 70
     1
102
RTVSPropertyOp39
 70
     1
102
RTVSPropertyOp40
 70
     1
102
RTVSPropertyOp41
 70
     1
102
RTVSPropertyOp42
 70
     1
102
RTVSPropertyOp43
 70
     1
102
RTVSPropertyOp44
 70
     1
102
RTVSPropertyOp45
 70
     1
102
RTVSPropertyOp46
 70
     1
102
RTVSPropertyOp47
 70
     1
102
RTVSPropertyOp48
 70
     1
102
RTVSPropertyOp49
 70
     1
102
RTVSPropertyOp50
 70
     1
102
RTVSPropertyOp51
 70
     0
102
RTVSPropertyOp52
 70
     0
102
RTVSPropertyOp53
 70
     1
102
RTVSPropertyOp54
 70
     1
102
RTVSPropertyOp55
 70
     1
102
RTVSPropertyOp56
 70
     1
102
RTVSPropertyOp57
 70
     1
102
RTVSPropertyOp58
 70
     1
102
RTVSPropertyOp59
 70
     1
102
RTVSPropertyOp60
 70
     1
102
RTVSPropertyOp61
 70
     1
102
RTVSPropertyOp62
 70
     1
  0
XRECORD
  5
3FDAB
102
{ACAD_REACTORS
330
3FDAA
102
}
330
3FDAA
100
AcDbXrecord
280
     1
102
RTVSPost2010Prop28
280
     0
102
RTVSPost2010PropOp28
 70
     1
102
RTVSPost2010Prop29
280
     1
102
RTVSPost2010PropOp29
 70
     1
102
RTVSPost2010Prop30
280
     1
102
RTVSPost2010PropOp30
 70
     1
102
RTVSPost2010Prop31
280
     0
102
RTVSPost2010PropOp31
 70
     1
102
RTVSPost2010Prop32
280
     0
102
RTVSPost2010PropOp32
 70
     1
102
RTVSPost2010Prop33
280
     0
102
RTVSPost2010PropOp33
 70
     1
102
RTVSPost2010Prop34
280
     0
102
RTVSPost2010PropOp34
 70
     1
102
RTVSPost2010Prop35
280
     0
102
RTVSPost2010PropOp35
 70
     1
102
RTVSPost2010Prop36
280
     0
102
RTVSPost2010PropOp36
 70
     1
102
RTVSPost2010Prop37
 90
       50
102
RTVSPost2010PropOp37
 70
     1
102
RTVSPost2010Prop38
140
0.0
102
RTVSPost2010PropOp38
 70
     1
102
RTVSPost2010Prop39
140
1.0
102
RTVSPost2010PropOp39
 70
     1
102
RTVSPost2010Prop40
 90
        0
102
RTVSPost2010PropOp40
 70
     1
102
RTVSPost2010Prop41ColorIndex
 90
       18
102
RTVSPost2010Prop41ColorRGB
 90
        0
102
RTVSPost2010PropOp41
 70
     1
102
RTVSPost2010Prop42
 90
       50
102
RTVSPost2010PropOp42
 70
     1
102
RTVSPost2010Prop43
 90
        3
102
RTVSPost2010PropOp43
 70
     1
102
RTVSPost2010Prop44ColorIndex
 90
        5
102
RTVSPost2010Prop44ColorRGB
 90
      255
102
RTVSPost2010PropOp44
 70
     1
102
RTVSPost2010Prop45
280
     0
102
RTVSPost2010PropOp45
 70
     1
102
RTVSPost2010Prop46
 90
       50
102
RTVSPost2010PropOp46
 70
     1
102
RTVSPost2010Prop47
 90
       50
102
RTVSPost2010PropOp47
 70
     1
102
RTVSPost2010Prop48
 90
       50
102
RTVSPost2010PropOp48
 70
     1
102
RTVSPost2010Prop49
280
     0
102
RTVSPost2010PropOp49
 70
     1
102
RTVSPost2010Prop50
 90
       50
102
RTVSPost2010PropOp50
 70
     1
102
RTVSPost2010Prop51ColorIndex
 90
      256
102
RTVSPost2010Prop51ColorRGB
 90
-16777216
102
RTVSPost2010PropOp51
 70
     0
102
RTVSPost2010Prop52
140
1.0
102
RTVSPost2010PropOp52
 70
     0
102
RTVSPost2010Prop53
 90
        2
102
RTVSPost2010PropOp53
 70
     1
102
RTVSPost2010Prop54
  1
strokes_ogs.tif
102
RTVSPost2010PropOp54
 70
     1
102
RTVSPost2010Prop55
280
     0
102
RTVSPost2010PropOp55
 70
     1
102
RTVSPost2010Prop56
140
1.0
102
RTVSPost2010PropOp56
 70
     1
102
RTVSPost2010Prop57
140
1.0
102
RTVSPost2010PropOp57
 70
     1
102
RTVSPropertyOp0
 70
     1
102
RTVSPropertyOp1
 70
     1
102
RTVSPropertyOp2
 70
     1
102
RTVSPropertyOp3
 70
     1
102
RTVSPropertyOp4
 70
     1
102
RTVSPropertyOp5
 70
     1
102
RTVSPropertyOp6
 70
     1
102
RTVSPropertyOp7
 70
     1
102
RTVSPropertyOp8
 70
     1
102
RTVSPropertyOp9
 70
     1
102
RTVSPropertyOp10
 70
     1
102
RTVSPropertyOp11
 70
     1
102
RTVSPropertyOp12
 70
     1
102
RTVSPropertyOp13
 70
     1
102
RTVSPropertyOp14
 70
     1
102
RTVSPropertyOp15
 70
     1
102
RTVSPropertyOp16
 70
     1
102
RTVSPropertyOp17
 70
     1
102
RTVSPropertyOp18
 70
     1
102
RTVSPropertyOp19
 70
     1
102
RTVSPropertyOp20
 70
     1
102
RTVSPropertyOp21
 70
     1
102
RTVSPropertyOp22
 70
     1
102
RTVSPropertyOp23
 70
     1
102
RTVSPropertyOp24
 70
     1
102
RTVSPropertyOp25
 70
     1
102
RTVSPropertyOp26
 70
     1
102
RTVSPropertyOp27
 70
     1
102
RTVSPropertyOp28
 70
     1
102
RTVSPropertyOp29
 70
     1
102
RTVSPropertyOp30
 70
     1
102
RTVSPropertyOp31
 70
     1
102
RTVSPropertyOp32
 70
     1
102
RTVSPropertyOp33
 70
     1
102
RTVSPropertyOp34
 70
     1
102
RTVSPropertyOp35
 70
     1
102
RTVSPropertyOp36
 70
     1
102
RTVSPropertyOp37
 70
     1
102
RTVSPropertyOp38
 70
     1
102
RTVSPropertyOp39
 70
     1
102
RTVSPropertyOp40
 70
     1
102
RTVSPropertyOp41
 70
     1
102
RTVSPropertyOp42
 70
     1
102
RTVSPropertyOp43
 70
     1
102
RTVSPropertyOp44
 70
     1
102
RTVSPropertyOp45
 70
     1
102
RTVSPropertyOp46
 70
     1
102
RTVSPropertyOp47
 70
     1
102
RTVSPropertyOp48
 70
     1
102
RTVSPropertyOp49
 70
     1
102
RTVSPropertyOp50
 70
     1
102
RTVSPropertyOp51
 70
     0
102
RTVSPropertyOp52
 70
     0
102
RTVSPropertyOp53
 70
     1
102
RTVSPropertyOp54
 70
     1
102
RTVSPropertyOp55
 70
     1
102
RTVSPropertyOp56
 70
     1
102
RTVSPropertyOp57
 70
     1
102
RTVSPropertyOp58
 70
     1
102
RTVSPropertyOp59
 70
     1
102
RTVSPropertyOp60
 70
     1
102
RTVSPropertyOp61
 70
     1
102
RTVSPropertyOp62
 70
     1
  0
XRECORD
  5
3FDBB
102
{ACAD_REACTORS
330
3FDBA
102
}
330
3FDBA
100
AcDbXrecord
280
     1
102
RTVSPost2010Prop28
280
     0
102
RTVSPost2010PropOp28
 70
     1
102
RTVSPost2010Prop29
280
     1
102
RTVSPost2010PropOp29
 70
     1
102
RTVSPost2010Prop30
280
     1
102
RTVSPost2010PropOp30
 70
     1
102
RTVSPost2010Prop31
280
     0
102
RTVSPost2010PropOp31
 70
     1
102
RTVSPost2010Prop32
280
     0
102
RTVSPost2010PropOp32
 70
     1
102
RTVSPost2010Prop33
280
     0
102
RTVSPost2010PropOp33
 70
     1
102
RTVSPost2010Prop34
280
     0
102
RTVSPost2010PropOp34
 70
     1
102
RTVSPost2010Prop35
280
     0
102
RTVSPost2010PropOp35
 70
     1
102
RTVSPost2010Prop36
280
     0
102
RTVSPost2010PropOp36
 70
     1
102
RTVSPost2010Prop37
 90
       50
102
RTVSPost2010PropOp37
 70
     1
102
RTVSPost2010Prop38
140
0.0
102
RTVSPost2010PropOp38
 70
     1
102
RTVSPost2010Prop39
140
1.0
102
RTVSPost2010PropOp39
 70
     1
102
RTVSPost2010Prop40
 90
        0
102
RTVSPost2010PropOp40
 70
     1
102
RTVSPost2010Prop41ColorIndex
 90
       18
102
RTVSPost2010Prop41ColorRGB
 90
        0
102
RTVSPost2010PropOp41
 70
     1
102
RTVSPost2010Prop42
 90
       50
102
RTVSPost2010PropOp42
 70
     1
102
RTVSPost2010Prop43
 90
        3
102
RTVSPost2010PropOp43
 70
     1
102
RTVSPost2010Prop44ColorIndex
 90
        5
102
RTVSPost2010Prop44ColorRGB
 90
      255
102
RTVSPost2010PropOp44
 70
     1
102
RTVSPost2010Prop45
280
     0
102
RTVSPost2010PropOp45
 70
     1
102
RTVSPost2010Prop46
 90
       50
102
RTVSPost2010PropOp46
 70
     1
102
RTVSPost2010Prop47
 90
       50
102
RTVSPost2010PropOp47
 70
     1
102
RTVSPost2010Prop48
 90
       50
102
RTVSPost2010PropOp48
 70
     1
102
RTVSPost2010Prop49
280
     0
102
RTVSPost2010PropOp49
 70
     1
102
RTVSPost2010Prop50
 90
       50
102
RTVSPost2010PropOp50
 70
     1
102
RTVSPost2010Prop51ColorIndex
 90
      256
102
RTVSPost2010Prop51ColorRGB
 90
-16777216
102
RTVSPost2010PropOp51
 70
     0
102
RTVSPost2010Prop52
140
1.0
102
RTVSPost2010PropOp52
 70
     0
102
RTVSPost2010Prop53
 90
        2
102
RTVSPost2010PropOp53
 70
     1
102
RTVSPost2010Prop54
  1
strokes_ogs.tif
102
RTVSPost2010PropOp54
 70
     1
102
RTVSPost2010Prop55
280
     0
102
RTVSPost2010PropOp55
 70
     1
102
RTVSPost2010Prop56
140
1.0
102
RTVSPost2010PropOp56
 70
     1
102
RTVSPost2010Prop57
140
1.0
102
RTVSPost2010PropOp57
 70
     1
102
RTVSPropertyOp0
 70
     0
102
RTVSPropertyOp1
 70
     0
102
RTVSPropertyOp2
 70
     0
102
RTVSPropertyOp3
 70
     0
102
RTVSPropertyOp4
 70
     0
102
RTVSPropertyOp5
 70
     0
102
RTVSPropertyOp6
 70
     0
102
RTVSPropertyOp7
 70
     0
102
RTVSPropertyOp8
 70
     0
102
RTVSPropertyOp9
 70
     0
102
RTVSPropertyOp10
 70
     0
102
RTVSPropertyOp11
 70
     0
102
RTVSPropertyOp12
 70
     0
102
RTVSPropertyOp13
 70
     0
102
RTVSPropertyOp14
 70
     2
102
RTVSPropertyOp15
 70
     0
102
RTVSPropertyOp16
 70
     0
102
RTVSPropertyOp17
 70
     0
102
RTVSPropertyOp18
 70
     0
102
RTVSPropertyOp19
 70
     0
102
RTVSPropertyOp20
 70
     0
102
RTVSPropertyOp21
 70
     0
102
RTVSPropertyOp22
 70
     0
102
RTVSPropertyOp23
 70
     0
102
RTVSPropertyOp24
 70
     0
102
RTVSPropertyOp25
 70
     0
102
RTVSPropertyOp26
 70
     0
102
RTVSPropertyOp27
 70
     0
102
RTVSPropertyOp28
 70
     1
102
RTVSPropertyOp29
 70
     1
102
RTVSPropertyOp30
 70
     1
102
RTVSPropertyOp31
 70
     1
102
RTVSPropertyOp32
 70
     1
102
RTVSPropertyOp33
 70
     1
102
RTVSPropertyOp34
 70
     1
102
RTVSPropertyOp35
 70
     1
102
RTVSPropertyOp36
 70
     1
102
RTVSPropertyOp37
 70
     1
102
RTVSPropertyOp38
 70
     1
102
RTVSPropertyOp39
 70
     1
102
RTVSPropertyOp40
 70
     1
102
RTVSPropertyOp41
 70
     1
102
RTVSPropertyOp42
 70
     1
102
RTVSPropertyOp43
 70
     1
102
RTVSPropertyOp44
 70
     1
102
RTVSPropertyOp45
 70
     1
102
RTVSPropertyOp46
 70
     1
102
RTVSPropertyOp47
 70
     1
102
RTVSPropertyOp48
 70
     1
102
RTVSPropertyOp49
 70
     1
102
RTVSPropertyOp50
 70
     1
102
RTVSPropertyOp51
 70
     0
102
RTVSPropertyOp52
 70
     0
102
RTVSPropertyOp53
 70
     1
102
RTVSPropertyOp54
 70
     1
102
RTVSPropertyOp55
 70
     1
102
RTVSPropertyOp56
 70
     1
102
RTVSPropertyOp57
 70
     1
102
RTVSPropertyOp58
 70
     1
102
RTVSPropertyOp59
 70
     1
102
RTVSPropertyOp60
 70
     1
102
RTVSPropertyOp61
 70
     1
102
RTVSPropertyOp62
 70
     1
  0
XRECORD
  5
3FDB3
102
{ACAD_REACTORS
330
3FDB2
102
}
330
3FDB2
100
AcDbXrecord
280
     1
102
RTVSPost2010Prop28
280
     0
102
RTVSPost2010PropOp28
 70
     1
102
RTVSPost2010Prop29
280
     1
102
RTVSPost2010PropOp29
 70
     1
102
RTVSPost2010Prop30
280
     1
102
RTVSPost2010PropOp30
 70
     1
102
RTVSPost2010Prop31
280
     0
102
RTVSPost2010PropOp31
 70
     1
102
RTVSPost2010Prop32
280
     0
102
RTVSPost2010PropOp32
 70
     1
102
RTVSPost2010Prop33
280
     0
102
RTVSPost2010PropOp33
 70
     1
102
RTVSPost2010Prop34
280
     0
102
RTVSPost2010PropOp34
 70
     1
102
RTVSPost2010Prop35
280
     0
102
RTVSPost2010PropOp35
 70
     1
102
RTVSPost2010Prop36
280
     0
102
RTVSPost2010PropOp36
 70
     1
102
RTVSPost2010Prop37
 90
       50
102
RTVSPost2010PropOp37
 70
     1
102
RTVSPost2010Prop38
140
0.0
102
RTVSPost2010PropOp38
 70
     1
102
RTVSPost2010Prop39
140
1.0
102
RTVSPost2010PropOp39
 70
     1
102
RTVSPost2010Prop40
 90
        0
102
RTVSPost2010PropOp40
 70
     1
102
RTVSPost2010Prop41ColorIndex
 90
       18
102
RTVSPost2010Prop41ColorRGB
 90
        0
102
RTVSPost2010PropOp41
 70
     1
102
RTVSPost2010Prop42
 90
       50
102
RTVSPost2010PropOp42
 70
     1
102
RTVSPost2010Prop43
 90
        3
102
RTVSPost2010PropOp43
 70
     1
102
RTVSPost2010Prop44ColorIndex
 90
        5
102
RTVSPost2010Prop44ColorRGB
 90
      255
102
RTVSPost2010PropOp44
 70
     1
102
RTVSPost2010Prop45
280
     0
102
RTVSPost2010PropOp45
 70
     1
102
RTVSPost2010Prop46
 90
       50
102
RTVSPost2010PropOp46
 70
     1
102
RTVSPost2010Prop47
 90
       50
102
RTVSPost2010PropOp47
 70
     1
102
RTVSPost2010Prop48
 90
       50
102
RTVSPost2010PropOp48
 70
     1
102
RTVSPost2010Prop49
280
     0
102
RTVSPost2010PropOp49
 70
     1
102
RTVSPost2010Prop50
 90
       50
102
RTVSPost2010PropOp50
 70
     1
102
RTVSPost2010Prop51ColorIndex
 90
      256
102
RTVSPost2010Prop51ColorRGB
 90
-16777216
102
RTVSPost2010PropOp51
 70
     0
102
RTVSPost2010Prop52
140
1.0
102
RTVSPost2010PropOp52
 70
     0
102
RTVSPost2010Prop53
 90
        2
102
RTVSPost2010PropOp53
 70
     1
102
RTVSPost2010Prop54
  1
strokes_ogs.tif
102
RTVSPost2010PropOp54
 70
     1
102
RTVSPost2010Prop55
280
     0
102
RTVSPost2010PropOp55
 70
     1
102
RTVSPost2010Prop56
140
1.0
102
RTVSPost2010PropOp56
 70
     1
102
RTVSPost2010Prop57
140
1.0
102
RTVSPost2010PropOp57
 70
     1
102
RTVSPropertyOp0
 70
     1
102
RTVSPropertyOp1
 70
     1
102
RTVSPropertyOp2
 70
     1
102
RTVSPropertyOp3
 70
     1
102
RTVSPropertyOp4
 70
     1
102
RTVSPropertyOp5
 70
     1
102
RTVSPropertyOp6
 70
     1
102
RTVSPropertyOp7
 70
     1
102
RTVSPropertyOp8
 70
     1
102
RTVSPropertyOp9
 70
     1
102
RTVSPropertyOp10
 70
     1
102
RTVSPropertyOp11
 70
     1
102
RTVSPropertyOp12
 70
     1
102
RTVSPropertyOp13
 70
     1
102
RTVSPropertyOp14
 70
     1
102
RTVSPropertyOp15
 70
     1
102
RTVSPropertyOp16
 70
     1
102
RTVSPropertyOp17
 70
     1
102
RTVSPropertyOp18
 70
     1
102
RTVSPropertyOp19
 70
     1
102
RTVSPropertyOp20
 70
     1
102
RTVSPropertyOp21
 70
     1
102
RTVSPropertyOp22
 70
     1
102
RTVSPropertyOp23
 70
     1
102
RTVSPropertyOp24
 70
     1
102
RTVSPropertyOp25
 70
     1
102
RTVSPropertyOp26
 70
     1
102
RTVSPropertyOp27
 70
     1
102
RTVSPropertyOp28
 70
     1
102
RTVSPropertyOp29
 70
     1
102
RTVSPropertyOp30
 70
     1
102
RTVSPropertyOp31
 70
     1
102
RTVSPropertyOp32
 70
     1
102
RTVSPropertyOp33
 70
     1
102
RTVSPropertyOp34
 70
     1
102
RTVSPropertyOp35
 70
     1
102
RTVSPropertyOp36
 70
     1
102
RTVSPropertyOp37
 70
     1
102
RTVSPropertyOp38
 70
     1
102
RTVSPropertyOp39
 70
     1
102
RTVSPropertyOp40
 70
     1
102
RTVSPropertyOp41
 70
     1
102
RTVSPropertyOp42
 70
     1
102
RTVSPropertyOp43
 70
     1
102
RTVSPropertyOp44
 70
     1
102
RTVSPropertyOp45
 70
     1
102
RTVSPropertyOp46
 70
     1
102
RTVSPropertyOp47
 70
     1
102
RTVSPropertyOp48
 70
     1
102
RTVSPropertyOp49
 70
     1
102
RTVSPropertyOp50
 70
     1
102
RTVSPropertyOp51
 70
     0
102
RTVSPropertyOp52
 70
     0
102
RTVSPropertyOp53
 70
     1
102
RTVSPropertyOp54
 70
     1
102
RTVSPropertyOp55
 70
     1
102
RTVSPropertyOp56
 70
     1
102
RTVSPropertyOp57
 70
     1
102
RTVSPropertyOp58
 70
     1
102
RTVSPropertyOp59
 70
     1
102
RTVSPropertyOp60
 70
     1
102
RTVSPropertyOp61
 70
     1
102
RTVSPropertyOp62
 70
     1
  0
XRECORD
  5
3FD97
102
{ACAD_REACTORS
330
3FD96
102
}
330
3FD96
100
AcDbXrecord
280
     1
102
RTVSPost2010Prop28
280
     0
102
RTVSPost2010PropOp28
 70
     1
102
RTVSPost2010Prop29
280
     1
102
RTVSPost2010PropOp29
 70
     1
102
RTVSPost2010Prop30
280
     1
102
RTVSPost2010PropOp30
 70
     1
102
RTVSPost2010Prop31
280
     0
102
RTVSPost2010PropOp31
 70
     1
102
RTVSPost2010Prop32
280
     0
102
RTVSPost2010PropOp32
 70
     1
102
RTVSPost2010Prop33
280
     0
102
RTVSPost2010PropOp33
 70
     1
102
RTVSPost2010Prop34
280
     0
102
RTVSPost2010PropOp34
 70
     1
102
RTVSPost2010Prop35
280
     0
102
RTVSPost2010PropOp35
 70
     1
102
RTVSPost2010Prop36
280
     0
102
RTVSPost2010PropOp36
 70
     1
102
RTVSPost2010Prop37
 90
       50
102
RTVSPost2010PropOp37
 70
     1
102
RTVSPost2010Prop38
140
0.0
102
RTVSPost2010PropOp38
 70
     1
102
RTVSPost2010Prop39
140
1.0
102
RTVSPost2010PropOp39
 70
     1
102
RTVSPost2010Prop40
 90
        0
102
RTVSPost2010PropOp40
 70
     1
102
RTVSPost2010Prop41ColorIndex
 90
       18
102
RTVSPost2010Prop41ColorRGB
 90
        0
102
RTVSPost2010PropOp41
 70
     1
102
RTVSPost2010Prop42
 90
       50
102
RTVSPost2010PropOp42
 70
     1
102
RTVSPost2010Prop43
 90
        3
102
RTVSPost2010PropOp43
 70
     1
102
RTVSPost2010Prop44ColorIndex
 90
        5
102
RTVSPost2010Prop44ColorRGB
 90
      255
102
RTVSPost2010PropOp44
 70
     1
102
RTVSPost2010Prop45
280
     0
102
RTVSPost2010PropOp45
 70
     1
102
RTVSPost2010Prop46
 90
       50
102
RTVSPost2010PropOp46
 70
     1
102
RTVSPost2010Prop47
 90
       50
102
RTVSPost2010PropOp47
 70
     1
102
RTVSPost2010Prop48
 90
       50
102
RTVSPost2010PropOp48
 70
     1
102
RTVSPost2010Prop49
280
     0
102
RTVSPost2010PropOp49
 70
     1
102
RTVSPost2010Prop50
 90
       50
102
RTVSPost2010PropOp50
 70
     1
102
RTVSPost2010Prop51ColorIndex
 90
      256
102
RTVSPost2010Prop51ColorRGB
 90
-16777216
102
RTVSPost2010PropOp51
 70
     0
102
RTVSPost2010Prop52
140
1.0
102
RTVSPost2010PropOp52
 70
     0
102
RTVSPost2010Prop53
 90
        2
102
RTVSPost2010PropOp53
 70
     1
102
RTVSPost2010Prop54
  1
strokes_ogs.tif
102
RTVSPost2010PropOp54
 70
     1
102
RTVSPost2010Prop55
280
     0
102
RTVSPost2010PropOp55
 70
     1
102
RTVSPost2010Prop56
140
1.0
102
RTVSPost2010PropOp56
 70
     1
102
RTVSPost2010Prop57
140
1.0
102
RTVSPost2010PropOp57
 70
     1
102
RTVSPropertyOp0
 70
     1
102
RTVSPropertyOp1
 70
     1
102
RTVSPropertyOp2
 70
     1
102
RTVSPropertyOp3
 70
     1
102
RTVSPropertyOp4
 70
     1
102
RTVSPropertyOp5
 70
     1
102
RTVSPropertyOp6
 70
     1
102
RTVSPropertyOp7
 70
     1
102
RTVSPropertyOp8
 70
     1
102
RTVSPropertyOp9
 70
     1
102
RTVSPropertyOp10
 70
     1
102
RTVSPropertyOp11
 70
     1
102
RTVSPropertyOp12
 70
     1
102
RTVSPropertyOp13
 70
     1
102
RTVSPropertyOp14
 70
     1
102
RTVSPropertyOp15
 70
     1
102
RTVSPropertyOp16
 70
     1
102
RTVSPropertyOp17
 70
     1
102
RTVSPropertyOp18
 70
     1
102
RTVSPropertyOp19
 70
     1
102
RTVSPropertyOp20
 70
     1
102
RTVSPropertyOp21
 70
     1
102
RTVSPropertyOp22
 70
     1
102
RTVSPropertyOp23
 70
     1
102
RTVSPropertyOp24
 70
     1
102
RTVSPropertyOp25
 70
     1
102
RTVSPropertyOp26
 70
     1
102
RTVSPropertyOp27
 70
     1
102
RTVSPropertyOp28
 70
     1
102
RTVSPropertyOp29
 70
     1
102
RTVSPropertyOp30
 70
     1
102
RTVSPropertyOp31
 70
     1
102
RTVSPropertyOp32
 70
     1
102
RTVSPropertyOp33
 70
     1
102
RTVSPropertyOp34
 70
     1
102
RTVSPropertyOp35
 70
     1
102
RTVSPropertyOp36
 70
     1
102
RTVSPropertyOp37
 70
     1
102
RTVSPropertyOp38
 70
     1
102
RTVSPropertyOp39
 70
     1
102
RTVSPropertyOp40
 70
     1
102
RTVSPropertyOp41
 70
     1
102
RTVSPropertyOp42
 70
     1
102
RTVSPropertyOp43
 70
     1
102
RTVSPropertyOp44
 70
     1
102
RTVSPropertyOp45
 70
     1
102
RTVSPropertyOp46
 70
     1
102
RTVSPropertyOp47
 70
     1
102
RTVSPropertyOp48
 70
     1
102
RTVSPropertyOp49
 70
     1
102
RTVSPropertyOp50
 70
     1
102
RTVSPropertyOp51
 70
     0
102
RTVSPropertyOp52
 70
     0
102
RTVSPropertyOp53
 70
     1
102
RTVSPropertyOp54
 70
     1
102
RTVSPropertyOp55
 70
     1
102
RTVSPropertyOp56
 70
     1
102
RTVSPropertyOp57
 70
     1
102
RTVSPropertyOp58
 70
     1
102
RTVSPropertyOp59
 70
     1
102
RTVSPropertyOp60
 70
     1
102
RTVSPropertyOp61
 70
     1
102
RTVSPropertyOp62
 70
     1
  0
XRECORD
  5
3FD99
102
{ACAD_REACTORS
330
3FD98
102
}
330
3FD98
100
AcDbXrecord
280
     1
102
RTVSPost2010Prop28
280
     0
102
RTVSPost2010PropOp28
 70
     1
102
RTVSPost2010Prop29
280
     1
102
RTVSPost2010PropOp29
 70
     1
102
RTVSPost2010Prop30
280
     1
102
RTVSPost2010PropOp30
 70
     1
102
RTVSPost2010Prop31
280
     0
102
RTVSPost2010PropOp31
 70
     1
102
RTVSPost2010Prop32
280
     0
102
RTVSPost2010PropOp32
 70
     1
102
RTVSPost2010Prop33
280
     0
102
RTVSPost2010PropOp33
 70
     1
102
RTVSPost2010Prop34
280
     0
102
RTVSPost2010PropOp34
 70
     1
102
RTVSPost2010Prop35
280
     0
102
RTVSPost2010PropOp35
 70
     1
102
RTVSPost2010Prop36
280
     0
102
RTVSPost2010PropOp36
 70
     1
102
RTVSPost2010Prop37
 90
       50
102
RTVSPost2010PropOp37
 70
     1
102
RTVSPost2010Prop38
140
0.0
102
RTVSPost2010PropOp38
 70
     1
102
RTVSPost2010Prop39
140
1.0
102
RTVSPost2010PropOp39
 70
     1
102
RTVSPost2010Prop40
 90
        0
102
RTVSPost2010PropOp40
 70
     1
102
RTVSPost2010Prop41ColorIndex
 90
       18
102
RTVSPost2010Prop41ColorRGB
 90
        0
102
RTVSPost2010PropOp41
 70
     1
102
RTVSPost2010Prop42
 90
       50
102
RTVSPost2010PropOp42
 70
     1
102
RTVSPost2010Prop43
 90
        3
102
RTVSPost2010PropOp43
 70
     1
102
RTVSPost2010Prop44ColorIndex
 90
        5
102
RTVSPost2010Prop44ColorRGB
 90
      255
102
RTVSPost2010PropOp44
 70
     1
102
RTVSPost2010Prop45
280
     0
102
RTVSPost2010PropOp45
 70
     1
102
RTVSPost2010Prop46
 90
       50
102
RTVSPost2010PropOp46
 70
     1
102
RTVSPost2010Prop47
 90
       50
102
RTVSPost2010PropOp47
 70
     1
102
RTVSPost2010Prop48
 90
       50
102
RTVSPost2010PropOp48
 70
     1
102
RTVSPost2010Prop49
280
     0
102
RTVSPost2010PropOp49
 70
     1
102
RTVSPost2010Prop50
 90
       50
102
RTVSPost2010PropOp50
 70
     1
102
RTVSPost2010Prop51ColorIndex
 90
      256
102
RTVSPost2010Prop51ColorRGB
 90
-16777216
102
RTVSPost2010PropOp51
 70
     0
102
RTVSPost2010Prop52
140
1.0
102
RTVSPost2010PropOp52
 70
     0
102
RTVSPost2010Prop53
 90
        2
102
RTVSPost2010PropOp53
 70
     1
102
RTVSPost2010Prop54
  1
strokes_ogs.tif
102
RTVSPost2010PropOp54
 70
     1
102
RTVSPost2010Prop55
280
     0
102
RTVSPost2010PropOp55
 70
     1
102
RTVSPost2010Prop56
140
1.0
102
RTVSPost2010PropOp56
 70
     1
102
RTVSPost2010Prop57
140
1.0
102
RTVSPost2010PropOp57
 70
     1
102
RTVSPropertyOp0
 70
     1
102
RTVSPropertyOp1
 70
     1
102
RTVSPropertyOp2
 70
     1
102
RTVSPropertyOp3
 70
     1
102
RTVSPropertyOp4
 70
     1
102
RTVSPropertyOp5
 70
     1
102
RTVSPropertyOp6
 70
     1
102
RTVSPropertyOp7
 70
     1
102
RTVSPropertyOp8
 70
     1
102
RTVSPropertyOp9
 70
     1
102
RTVSPropertyOp10
 70
     1
102
RTVSPropertyOp11
 70
     1
102
RTVSPropertyOp12
 70
     1
102
RTVSPropertyOp13
 70
     1
102
RTVSPropertyOp14
 70
     1
102
RTVSPropertyOp15
 70
     1
102
RTVSPropertyOp16
 70
     1
102
RTVSPropertyOp17
 70
     1
102
RTVSPropertyOp18
 70
     1
102
RTVSPropertyOp19
 70
     1
102
RTVSPropertyOp20
 70
     1
102
RTVSPropertyOp21
 70
     1
102
RTVSPropertyOp22
 70
     1
102
RTVSPropertyOp23
 70
     1
102
RTVSPropertyOp24
 70
     1
102
RTVSPropertyOp25
 70
     1
102
RTVSPropertyOp26
 70
     1
102
RTVSPropertyOp27
 70
     1
102
RTVSPropertyOp28
 70
     1
102
RTVSPropertyOp29
 70
     1
102
RTVSPropertyOp30
 70
     1
102
RTVSPropertyOp31
 70
     1
102
RTVSPropertyOp32
 70
     1
102
RTVSPropertyOp33
 70
     1
102
RTVSPropertyOp34
 70
     1
102
RTVSPropertyOp35
 70
     1
102
RTVSPropertyOp36
 70
     1
102
RTVSPropertyOp37
 70
     1
102
RTVSPropertyOp38
 70
     1
102
RTVSPropertyOp39
 70
     1
102
RTVSPropertyOp40
 70
     1
102
RTVSPropertyOp41
 70
     1
102
RTVSPropertyOp42
 70
     1
102
RTVSPropertyOp43
 70
     1
102
RTVSPropertyOp44
 70
     1
102
RTVSPropertyOp45
 70
     1
102
RTVSPropertyOp46
 70
     1
102
RTVSPropertyOp47
 70
     1
102
RTVSPropertyOp48
 70
     1
102
RTVSPropertyOp49
 70
     1
102
RTVSPropertyOp50
 70
     1
102
RTVSPropertyOp51
 70
     0
102
RTVSPropertyOp52
 70
     0
102
RTVSPropertyOp53
 70
     1
102
RTVSPropertyOp54
 70
     1
102
RTVSPropertyOp55
 70
     1
102
RTVSPropertyOp56
 70
     1
102
RTVSPropertyOp57
 70
     1
102
RTVSPropertyOp58
 70
     1
102
RTVSPropertyOp59
 70
     1
102
RTVSPropertyOp60
 70
     1
102
RTVSPropertyOp61
 70
     1
102
RTVSPropertyOp62
 70
     1
  0
XRECORD
  5
3FD9B
102
{ACAD_REACTORS
330
3FD9A
102
}
330
3FD9A
100
AcDbXrecord
280
     1
102
RTVSPost2010Prop28
280
     0
102
RTVSPost2010PropOp28
 70
     1
102
RTVSPost2010Prop29
280
     1
102
RTVSPost2010PropOp29
 70
     1
102
RTVSPost2010Prop30
280
     1
102
RTVSPost2010PropOp30
 70
     1
102
RTVSPost2010Prop31
280
     0
102
RTVSPost2010PropOp31
 70
     1
102
RTVSPost2010Prop32
280
     0
102
RTVSPost2010PropOp32
 70
     1
102
RTVSPost2010Prop33
280
     0
102
RTVSPost2010PropOp33
 70
     1
102
RTVSPost2010Prop34
280
     0
102
RTVSPost2010PropOp34
 70
     1
102
RTVSPost2010Prop35
280
     0
102
RTVSPost2010PropOp35
 70
     1
102
RTVSPost2010Prop36
280
     0
102
RTVSPost2010PropOp36
 70
     1
102
RTVSPost2010Prop37
 90
       50
102
RTVSPost2010PropOp37
 70
     1
102
RTVSPost2010Prop38
140
0.0
102
RTVSPost2010PropOp38
 70
     1
102
RTVSPost2010Prop39
140
1.0
102
RTVSPost2010PropOp39
 70
     1
102
RTVSPost2010Prop40
 90
        0
102
RTVSPost2010PropOp40
 70
     1
102
RTVSPost2010Prop41ColorIndex
 90
       18
102
RTVSPost2010Prop41ColorRGB
 90
        0
102
RTVSPost2010PropOp41
 70
     1
102
RTVSPost2010Prop42
 90
       50
102
RTVSPost2010PropOp42
 70
     1
102
RTVSPost2010Prop43
 90
        3
102
RTVSPost2010PropOp43
 70
     1
102
RTVSPost2010Prop44ColorIndex
 90
        5
102
RTVSPost2010Prop44ColorRGB
 90
      255
102
RTVSPost2010PropOp44
 70
     1
102
RTVSPost2010Prop45
280
     0
102
RTVSPost2010PropOp45
 70
     1
102
RTVSPost2010Prop46
 90
       50
102
RTVSPost2010PropOp46
 70
     1
102
RTVSPost2010Prop47
 90
       50
102
RTVSPost2010PropOp47
 70
     1
102
RTVSPost2010Prop48
 90
       50
102
RTVSPost2010PropOp48
 70
     1
102
RTVSPost2010Prop49
280
     0
102
RTVSPost2010PropOp49
 70
     1
102
RTVSPost2010Prop50
 90
       50
102
RTVSPost2010PropOp50
 70
     1
102
RTVSPost2010Prop51ColorIndex
 90
      256
102
RTVSPost2010Prop51ColorRGB
 90
-16777216
102
RTVSPost2010PropOp51
 70
     0
102
RTVSPost2010Prop52
140
1.0
102
RTVSPost2010PropOp52
 70
     0
102
RTVSPost2010Prop53
 90
        2
102
RTVSPost2010PropOp53
 70
     1
102
RTVSPost2010Prop54
  1
strokes_ogs.tif
102
RTVSPost2010PropOp54
 70
     1
102
RTVSPost2010Prop55
280
     0
102
RTVSPost2010PropOp55
 70
     1
102
RTVSPost2010Prop56
140
1.0
102
RTVSPost2010PropOp56
 70
     1
102
RTVSPost2010Prop57
140
1.0
102
RTVSPost2010PropOp57
 70
     1
102
RTVSPropertyOp0
 70
     1
102
RTVSPropertyOp1
 70
     1
102
RTVSPropertyOp2
 70
     1
102
RTVSPropertyOp3
 70
     1
102
RTVSPropertyOp4
 70
     1
102
RTVSPropertyOp5
 70
     1
102
RTVSPropertyOp6
 70
     1
102
RTVSPropertyOp7
 70
     1
102
RTVSPropertyOp8
 70
     1
102
RTVSPropertyOp9
 70
     1
102
RTVSPropertyOp10
 70
     1
102
RTVSPropertyOp11
 70
     1
102
RTVSPropertyOp12
 70
     1
102
RTVSPropertyOp13
 70
     1
102
RTVSPropertyOp14
 70
     1
102
RTVSPropertyOp15
 70
     1
102
RTVSPropertyOp16
 70
     1
102
RTVSPropertyOp17
 70
     1
102
RTVSPropertyOp18
 70
     1
102
RTVSPropertyOp19
 70
     1
102
RTVSPropertyOp20
 70
     1
102
RTVSPropertyOp21
 70
     1
102
RTVSPropertyOp22
 70
     1
102
RTVSPropertyOp23
 70
     1
102
RTVSPropertyOp24
 70
     1
102
RTVSPropertyOp25
 70
     1
102
RTVSPropertyOp26
 70
     1
102
RTVSPropertyOp27
 70
     1
102
RTVSPropertyOp28
 70
     1
102
RTVSPropertyOp29
 70
     1
102
RTVSPropertyOp30
 70
     1
102
RTVSPropertyOp31
 70
     1
102
RTVSPropertyOp32
 70
     1
102
RTVSPropertyOp33
 70
     1
102
RTVSPropertyOp34
 70
     1
102
RTVSPropertyOp35
 70
     1
102
RTVSPropertyOp36
 70
     1
102
RTVSPropertyOp37
 70
     1
102
RTVSPropertyOp38
 70
     1
102
RTVSPropertyOp39
 70
     1
102
RTVSPropertyOp40
 70
     1
102
RTVSPropertyOp41
 70
     1
102
RTVSPropertyOp42
 70
     1
102
RTVSPropertyOp43
 70
     1
102
RTVSPropertyOp44
 70
     1
102
RTVSPropertyOp45
 70
     1
102
RTVSPropertyOp46
 70
     1
102
RTVSPropertyOp47
 70
     1
102
RTVSPropertyOp48
 70
     1
102
RTVSPropertyOp49
 70
     1
102
RTVSPropertyOp50
 70
     1
102
RTVSPropertyOp51
 70
     0
102
RTVSPropertyOp52
 70
     0
102
RTVSPropertyOp53
 70
     1
102
RTVSPropertyOp54
 70
     1
102
RTVSPropertyOp55
 70
     1
102
RTVSPropertyOp56
 70
     1
102
RTVSPropertyOp57
 70
     1
102
RTVSPropertyOp58
 70
     1
102
RTVSPropertyOp59
 70
     1
102
RTVSPropertyOp60
 70
     1
102
RTVSPropertyOp61
 70
     1
102
RTVSPropertyOp62
 70
     1
  0
XRECORD
  5
3FD9D
102
{ACAD_REACTORS
330
3FD9C
102
}
330
3FD9C
100
AcDbXrecord
280
     1
102
RTVSPost2010Prop28
280
     0
102
RTVSPost2010PropOp28
 70
     1
102
RTVSPost2010Prop29
280
     1
102
RTVSPost2010PropOp29
 70
     1
102
RTVSPost2010Prop30
280
     1
102
RTVSPost2010PropOp30
 70
     1
102
RTVSPost2010Prop31
280
     0
102
RTVSPost2010PropOp31
 70
     1
102
RTVSPost2010Prop32
280
     0
102
RTVSPost2010PropOp32
 70
     1
102
RTVSPost2010Prop33
280
     0
102
RTVSPost2010PropOp33
 70
     1
102
RTVSPost2010Prop34
280
     0
102
RTVSPost2010PropOp34
 70
     1
102
RTVSPost2010Prop35
280
     0
102
RTVSPost2010PropOp35
 70
     1
102
RTVSPost2010Prop36
280
     0
102
RTVSPost2010PropOp36
 70
     1
102
RTVSPost2010Prop37
 90
       50
102
RTVSPost2010PropOp37
 70
     1
102
RTVSPost2010Prop38
140
0.0
102
RTVSPost2010PropOp38
 70
     1
102
RTVSPost2010Prop39
140
1.0
102
RTVSPost2010PropOp39
 70
     1
102
RTVSPost2010Prop40
 90
        0
102
RTVSPost2010PropOp40
 70
     1
102
RTVSPost2010Prop41ColorIndex
 90
       18
102
RTVSPost2010Prop41ColorRGB
 90
        0
102
RTVSPost2010PropOp41
 70
     1
102
RTVSPost2010Prop42
 90
       50
102
RTVSPost2010PropOp42
 70
     1
102
RTVSPost2010Prop43
 90
        3
102
RTVSPost2010PropOp43
 70
     1
102
RTVSPost2010Prop44ColorIndex
 90
        5
102
RTVSPost2010Prop44ColorRGB
 90
      255
102
RTVSPost2010PropOp44
 70
     1
102
RTVSPost2010Prop45
280
     0
102
RTVSPost2010PropOp45
 70
     1
102
RTVSPost2010Prop46
 90
       50
102
RTVSPost2010PropOp46
 70
     1
102
RTVSPost2010Prop47
 90
       50
102
RTVSPost2010PropOp47
 70
     1
102
RTVSPost2010Prop48
 90
       50
102
RTVSPost2010PropOp48
 70
     1
102
RTVSPost2010Prop49
280
     0
102
RTVSPost2010PropOp49
 70
     1
102
RTVSPost2010Prop50
 90
       50
102
RTVSPost2010PropOp50
 70
     1
102
RTVSPost2010Prop51ColorIndex
 90
      256
102
RTVSPost2010Prop51ColorRGB
 90
-16777216
102
RTVSPost2010PropOp51
 70
     0
102
RTVSPost2010Prop52
140
1.0
102
RTVSPost2010PropOp52
 70
     0
102
RTVSPost2010Prop53
 90
        2
102
RTVSPost2010PropOp53
 70
     1
102
RTVSPost2010Prop54
  1
strokes_ogs.tif
102
RTVSPost2010PropOp54
 70
     1
102
RTVSPost2010Prop55
280
     0
102
RTVSPost2010PropOp55
 70
     1
102
RTVSPost2010Prop56
140
1.0
102
RTVSPost2010PropOp56
 70
     1
102
RTVSPost2010Prop57
140
1.0
102
RTVSPost2010PropOp57
 70
     1
102
RTVSPropertyOp0
 70
     1
102
RTVSPropertyOp1
 70
     1
102
RTVSPropertyOp2
 70
     1
102
RTVSPropertyOp3
 70
     1
102
RTVSPropertyOp4
 70
     1
102
RTVSPropertyOp5
 70
     1
102
RTVSPropertyOp6
 70
     1
102
RTVSPropertyOp7
 70
     1
102
RTVSPropertyOp8
 70
     1
102
RTVSPropertyOp9
 70
     1
102
RTVSPropertyOp10
 70
     1
102
RTVSPropertyOp11
 70
     1
102
RTVSPropertyOp12
 70
     1
102
RTVSPropertyOp13
 70
     1
102
RTVSPropertyOp14
 70
     1
102
RTVSPropertyOp15
 70
     1
102
RTVSPropertyOp16
 70
     1
102
RTVSPropertyOp17
 70
     1
102
RTVSPropertyOp18
 70
     1
102
RTVSPropertyOp19
 70
     1
102
RTVSPropertyOp20
 70
     1
102
RTVSPropertyOp21
 70
     1
102
RTVSPropertyOp22
 70
     1
102
RTVSPropertyOp23
 70
     1
102
RTVSPropertyOp24
 70
     1
102
RTVSPropertyOp25
 70
     1
102
RTVSPropertyOp26
 70
     1
102
RTVSPropertyOp27
 70
     1
102
RTVSPropertyOp28
 70
     1
102
RTVSPropertyOp29
 70
     1
102
RTVSPropertyOp30
 70
     1
102
RTVSPropertyOp31
 70
     1
102
RTVSPropertyOp32
 70
     1
102
RTVSPropertyOp33
 70
     1
102
RTVSPropertyOp34
 70
     1
102
RTVSPropertyOp35
 70
     1
102
RTVSPropertyOp36
 70
     1
102
RTVSPropertyOp37
 70
     1
102
RTVSPropertyOp38
 70
     1
102
RTVSPropertyOp39
 70
     1
102
RTVSPropertyOp40
 70
     1
102
RTVSPropertyOp41
 70
     1
102
RTVSPropertyOp42
 70
     1
102
RTVSPropertyOp43
 70
     1
102
RTVSPropertyOp44
 70
     1
102
RTVSPropertyOp45
 70
     1
102
RTVSPropertyOp46
 70
     1
102
RTVSPropertyOp47
 70
     1
102
RTVSPropertyOp48
 70
     1
102
RTVSPropertyOp49
 70
     1
102
RTVSPropertyOp50
 70
     1
102
RTVSPropertyOp51
 70
     0
102
RTVSPropertyOp52
 70
     0
102
RTVSPropertyOp53
 70
     1
102
RTVSPropertyOp54
 70
     1
102
RTVSPropertyOp55
 70
     1
102
RTVSPropertyOp56
 70
     1
102
RTVSPropertyOp57
 70
     1
102
RTVSPropertyOp58
 70
     1
102
RTVSPropertyOp59
 70
     1
102
RTVSPropertyOp60
 70
     1
102
RTVSPropertyOp61
 70
     1
102
RTVSPropertyOp62
 70
     1
  0
XRECORD
  5
3FDBF
102
{ACAD_REACTORS
330
3FDBE
102
}
330
3FDBE
100
AcDbXrecord
280
     1
102
RTVSPost2010Prop28
280
     0
102
RTVSPost2010PropOp28
 70
     1
102
RTVSPost2010Prop29
280
     1
102
RTVSPost2010PropOp29
 70
     1
102
RTVSPost2010Prop30
280
     1
102
RTVSPost2010PropOp30
 70
     1
102
RTVSPost2010Prop31
280
     0
102
RTVSPost2010PropOp31
 70
     1
102
RTVSPost2010Prop32
280
     0
102
RTVSPost2010PropOp32
 70
     1
102
RTVSPost2010Prop33
280
     0
102
RTVSPost2010PropOp33
 70
     1
102
RTVSPost2010Prop34
280
     0
102
RTVSPost2010PropOp34
 70
     1
102
RTVSPost2010Prop35
280
     0
102
RTVSPost2010PropOp35
 70
     1
102
RTVSPost2010Prop36
280
     0
102
RTVSPost2010PropOp36
 70
     1
102
RTVSPost2010Prop37
 90
       50
102
RTVSPost2010PropOp37
 70
     1
102
RTVSPost2010Prop38
140
0.0
102
RTVSPost2010PropOp38
 70
     1
102
RTVSPost2010Prop39
140
1.0
102
RTVSPost2010PropOp39
 70
     1
102
RTVSPost2010Prop40
 90
        0
102
RTVSPost2010PropOp40
 70
     1
102
RTVSPost2010Prop41ColorIndex
 90
       18
102
RTVSPost2010Prop41ColorRGB
 90
        0
102
RTVSPost2010PropOp41
 70
     1
102
RTVSPost2010Prop42
 90
       50
102
RTVSPost2010PropOp42
 70
     1
102
RTVSPost2010Prop43
 90
        3
102
RTVSPost2010PropOp43
 70
     1
102
RTVSPost2010Prop44ColorIndex
 90
        5
102
RTVSPost2010Prop44ColorRGB
 90
      255
102
RTVSPost2010PropOp44
 70
     1
102
RTVSPost2010Prop45
280
     0
102
RTVSPost2010PropOp45
 70
     1
102
RTVSPost2010Prop46
 90
       50
102
RTVSPost2010PropOp46
 70
     1
102
RTVSPost2010Prop47
 90
       50
102
RTVSPost2010PropOp47
 70
     1
102
RTVSPost2010Prop48
 90
       50
102
RTVSPost2010PropOp48
 70
     1
102
RTVSPost2010Prop49
280
     0
102
RTVSPost2010PropOp49
 70
     1
102
RTVSPost2010Prop50
 90
       50
102
RTVSPost2010PropOp50
 70
     1
102
RTVSPost2010Prop51ColorIndex
 90
      256
102
RTVSPost2010Prop51ColorRGB
 90
-16777216
102
RTVSPost2010PropOp51
 70
     0
102
RTVSPost2010Prop52
140
1.0
102
RTVSPost2010PropOp52
 70
     0
102
RTVSPost2010Prop53
 90
        2
102
RTVSPost2010PropOp53
 70
     1
102
RTVSPost2010Prop54
  1
strokes_ogs.tif
102
RTVSPost2010PropOp54
 70
     1
102
RTVSPost2010Prop55
280
     0
102
RTVSPost2010PropOp55
 70
     1
102
RTVSPost2010Prop56
140
1.0
102
RTVSPost2010PropOp56
 70
     1
102
RTVSPost2010Prop57
140
1.0
102
RTVSPost2010PropOp57
 70
     1
102
RTVSPropertyOp0
 70
     1
102
RTVSPropertyOp1
 70
     1
102
RTVSPropertyOp2
 70
     1
102
RTVSPropertyOp3
 70
     1
102
RTVSPropertyOp4
 70
     1
102
RTVSPropertyOp5
 70
     1
102
RTVSPropertyOp6
 70
     1
102
RTVSPropertyOp7
 70
     1
102
RTVSPropertyOp8
 70
     1
102
RTVSPropertyOp9
 70
     1
102
RTVSPropertyOp10
 70
     1
102
RTVSPropertyOp11
 70
     1
102
RTVSPropertyOp12
 70
     1
102
RTVSPropertyOp13
 70
     1
102
RTVSPropertyOp14
 70
     1
102
RTVSPropertyOp15
 70
     1
102
RTVSPropertyOp16
 70
     1
102
RTVSPropertyOp17
 70
     1
102
RTVSPropertyOp18
 70
     1
102
RTVSPropertyOp19
 70
     1
102
RTVSPropertyOp20
 70
     1
102
RTVSPropertyOp21
 70
     1
102
RTVSPropertyOp22
 70
     1
102
RTVSPropertyOp23
 70
     1
102
RTVSPropertyOp24
 70
     1
102
RTVSPropertyOp25
 70
     1
102
RTVSPropertyOp26
 70
     1
102
RTVSPropertyOp27
 70
     1
102
RTVSPropertyOp28
 70
     1
102
RTVSPropertyOp29
 70
     1
102
RTVSPropertyOp30
 70
     1
102
RTVSPropertyOp31
 70
     1
102
RTVSPropertyOp32
 70
     1
102
RTVSPropertyOp33
 70
     1
102
RTVSPropertyOp34
 70
     1
102
RTVSPropertyOp35
 70
     1
102
RTVSPropertyOp36
 70
     1
102
RTVSPropertyOp37
 70
     1
102
RTVSPropertyOp38
 70
     1
102
RTVSPropertyOp39
 70
     1
102
RTVSPropertyOp40
 70
     1
102
RTVSPropertyOp41
 70
     1
102
RTVSPropertyOp42
 70
     1
102
RTVSPropertyOp43
 70
     1
102
RTVSPropertyOp44
 70
     1
102
RTVSPropertyOp45
 70
     1
102
RTVSPropertyOp46
 70
     1
102
RTVSPropertyOp47
 70
     1
102
RTVSPropertyOp48
 70
     1
102
RTVSPropertyOp49
 70
     1
102
RTVSPropertyOp50
 70
     1
102
RTVSPropertyOp51
 70
     0
102
RTVSPropertyOp52
 70
     0
102
RTVSPropertyOp53
 70
     1
102
RTVSPropertyOp54
 70
     1
102
RTVSPropertyOp55
 70
     1
102
RTVSPropertyOp56
 70
     1
102
RTVSPropertyOp57
 70
     1
102
RTVSPropertyOp58
 70
     1
102
RTVSPropertyOp59
 70
     1
102
RTVSPropertyOp60
 70
     1
102
RTVSPropertyOp61
 70
     1
102
RTVSPropertyOp62
 70
     1
  0
XRECORD
  5
3FDB7
102
{ACAD_REACTORS
330
3FDB6
102
}
330
3FDB6
100
AcDbXrecord
280
     1
102
RTVSPost2010Prop28
280
     0
102
RTVSPost2010PropOp28
 70
     1
102
RTVSPost2010Prop29
280
     1
102
RTVSPost2010PropOp29
 70
     1
102
RTVSPost2010Prop30
280
     1
102
RTVSPost2010PropOp30
 70
     1
102
RTVSPost2010Prop31
280
     0
102
RTVSPost2010PropOp31
 70
     1
102
RTVSPost2010Prop32
280
     0
102
RTVSPost2010PropOp32
 70
     1
102
RTVSPost2010Prop33
280
     0
102
RTVSPost2010PropOp33
 70
     1
102
RTVSPost2010Prop34
280
     0
102
RTVSPost2010PropOp34
 70
     1
102
RTVSPost2010Prop35
280
     0
102
RTVSPost2010PropOp35
 70
     1
102
RTVSPost2010Prop36
280
     0
102
RTVSPost2010PropOp36
 70
     1
102
RTVSPost2010Prop37
 90
       50
102
RTVSPost2010PropOp37
 70
     1
102
RTVSPost2010Prop38
140
0.0
102
RTVSPost2010PropOp38
 70
     1
102
RTVSPost2010Prop39
140
1.0
102
RTVSPost2010PropOp39
 70
     1
102
RTVSPost2010Prop40
 90
        0
102
RTVSPost2010PropOp40
 70
     1
102
RTVSPost2010Prop41ColorIndex
 90
       18
102
RTVSPost2010Prop41ColorRGB
 90
        0
102
RTVSPost2010PropOp41
 70
     1
102
RTVSPost2010Prop42
 90
       50
102
RTVSPost2010PropOp42
 70
     1
102
RTVSPost2010Prop43
 90
        3
102
RTVSPost2010PropOp43
 70
     1
102
RTVSPost2010Prop44ColorIndex
 90
        5
102
RTVSPost2010Prop44ColorRGB
 90
      255
102
RTVSPost2010PropOp44
 70
     1
102
RTVSPost2010Prop45
280
     0
102
RTVSPost2010PropOp45
 70
     1
102
RTVSPost2010Prop46
 90
       50
102
RTVSPost2010PropOp46
 70
     1
102
RTVSPost2010Prop47
 90
       50
102
RTVSPost2010PropOp47
 70
     1
102
RTVSPost2010Prop48
 90
       50
102
RTVSPost2010PropOp48
 70
     1
102
RTVSPost2010Prop49
280
     0
102
RTVSPost2010PropOp49
 70
     1
102
RTVSPost2010Prop50
 90
       50
102
RTVSPost2010PropOp50
 70
     1
102
RTVSPost2010Prop51ColorIndex
 90
      256
102
RTVSPost2010Prop51ColorRGB
 90
-16777216
102
RTVSPost2010PropOp51
 70
     0
102
RTVSPost2010Prop52
140
1.0
102
RTVSPost2010PropOp52
 70
     0
102
RTVSPost2010Prop53
 90
        2
102
RTVSPost2010PropOp53
 70
     1
102
RTVSPost2010Prop54
  1
strokes_ogs.tif
102
RTVSPost2010PropOp54
 70
     1
102
RTVSPost2010Prop55
280
     0
102
RTVSPost2010PropOp55
 70
     1
102
RTVSPost2010Prop56
140
1.0
102
RTVSPost2010PropOp56
 70
     1
102
RTVSPost2010Prop57
140
1.0
102
RTVSPost2010PropOp57
 70
     1
102
RTVSPropertyOp0
 70
     0
102
RTVSPropertyOp1
 70
     0
102
RTVSPropertyOp2
 70
     0
102
RTVSPropertyOp3
 70
     0
102
RTVSPropertyOp4
 70
     0
102
RTVSPropertyOp5
 70
     0
102
RTVSPropertyOp6
 70
     0
102
RTVSPropertyOp7
 70
     0
102
RTVSPropertyOp8
 70
     0
102
RTVSPropertyOp9
 70
     0
102
RTVSPropertyOp10
 70
     0
102
RTVSPropertyOp11
 70
     0
102
RTVSPropertyOp12
 70
     0
102
RTVSPropertyOp13
 70
     0
102
RTVSPropertyOp14
 70
     2
102
RTVSPropertyOp15
 70
     0
102
RTVSPropertyOp16
 70
     0
102
RTVSPropertyOp17
 70
     0
102
RTVSPropertyOp18
 70
     0
102
RTVSPropertyOp19
 70
     0
102
RTVSPropertyOp20
 70
     0
102
RTVSPropertyOp21
 70
     0
102
RTVSPropertyOp22
 70
     0
102
RTVSPropertyOp23
 70
     0
102
RTVSPropertyOp24
 70
     0
102
RTVSPropertyOp25
 70
     0
102
RTVSPropertyOp26
 70
     0
102
RTVSPropertyOp27
 70
     0
102
RTVSPropertyOp28
 70
     1
102
RTVSPropertyOp29
 70
     1
102
RTVSPropertyOp30
 70
     1
102
RTVSPropertyOp31
 70
     1
102
RTVSPropertyOp32
 70
     1
102
RTVSPropertyOp33
 70
     1
102
RTVSPropertyOp34
 70
     1
102
RTVSPropertyOp35
 70
     1
102
RTVSPropertyOp36
 70
     1
102
RTVSPropertyOp37
 70
     1
102
RTVSPropertyOp38
 70
     1
102
RTVSPropertyOp39
 70
     1
102
RTVSPropertyOp40
 70
     1
102
RTVSPropertyOp41
 70
     1
102
RTVSPropertyOp42
 70
     1
102
RTVSPropertyOp43
 70
     1
102
RTVSPropertyOp44
 70
     1
102
RTVSPropertyOp45
 70
     1
102
RTVSPropertyOp46
 70
     1
102
RTVSPropertyOp47
 70
     1
102
RTVSPropertyOp48
 70
     1
102
RTVSPropertyOp49
 70
     1
102
RTVSPropertyOp50
 70
     1
102
RTVSPropertyOp51
 70
     0
102
RTVSPropertyOp52
 70
     0
102
RTVSPropertyOp53
 70
     1
102
RTVSPropertyOp54
 70
     1
102
RTVSPropertyOp55
 70
     1
102
RTVSPropertyOp56
 70
     1
102
RTVSPropertyOp57
 70
     1
102
RTVSPropertyOp58
 70
     1
102
RTVSPropertyOp59
 70
     1
102
RTVSPropertyOp60
 70
     1
102
RTVSPropertyOp61
 70
     1
102
RTVSPropertyOp62
 70
     1
  0
XRECORD
  5
3FDB1
102
{ACAD_REACTORS
330
3FDB0
102
}
330
3FDB0
100
AcDbXrecord
280
     1
102
RTVSPost2010Prop28
280
     0
102
RTVSPost2010PropOp28
 70
     1
102
RTVSPost2010Prop29
280
     1
102
RTVSPost2010PropOp29
 70
     1
102
RTVSPost2010Prop30
280
     1
102
RTVSPost2010PropOp30
 70
     1
102
RTVSPost2010Prop31
280
     0
102
RTVSPost2010PropOp31
 70
     1
102
RTVSPost2010Prop32
280
     0
102
RTVSPost2010PropOp32
 70
     1
102
RTVSPost2010Prop33
280
     0
102
RTVSPost2010PropOp33
 70
     1
102
RTVSPost2010Prop34
280
     0
102
RTVSPost2010PropOp34
 70
     1
102
RTVSPost2010Prop35
280
     0
102
RTVSPost2010PropOp35
 70
     1
102
RTVSPost2010Prop36
280
     0
102
RTVSPost2010PropOp36
 70
     1
102
RTVSPost2010Prop37
 90
       50
102
RTVSPost2010PropOp37
 70
     1
102
RTVSPost2010Prop38
140
0.0
102
RTVSPost2010PropOp38
 70
     1
102
RTVSPost2010Prop39
140
1.0
102
RTVSPost2010PropOp39
 70
     1
102
RTVSPost2010Prop40
 90
        0
102
RTVSPost2010PropOp40
 70
     1
102
RTVSPost2010Prop41ColorIndex
 90
       18
102
RTVSPost2010Prop41ColorRGB
 90
        0
102
RTVSPost2010PropOp41
 70
     1
102
RTVSPost2010Prop42
 90
       50
102
RTVSPost2010PropOp42
 70
     1
102
RTVSPost2010Prop43
 90
        3
102
RTVSPost2010PropOp43
 70
     1
102
RTVSPost2010Prop44ColorIndex
 90
        5
102
RTVSPost2010Prop44ColorRGB
 90
      255
102
RTVSPost2010PropOp44
 70
     1
102
RTVSPost2010Prop45
280
     0
102
RTVSPost2010PropOp45
 70
     1
102
RTVSPost2010Prop46
 90
       50
102
RTVSPost2010PropOp46
 70
     1
102
RTVSPost2010Prop47
 90
       50
102
RTVSPost2010PropOp47
 70
     1
102
RTVSPost2010Prop48
 90
       50
102
RTVSPost2010PropOp48
 70
     1
102
RTVSPost2010Prop49
280
     0
102
RTVSPost2010PropOp49
 70
     1
102
RTVSPost2010Prop50
 90
       50
102
RTVSPost2010PropOp50
 70
     1
102
RTVSPost2010Prop51ColorIndex
 90
      256
102
RTVSPost2010Prop51ColorRGB
 90
-16777216
102
RTVSPost2010PropOp51
 70
     0
102
RTVSPost2010Prop52
140
1.0
102
RTVSPost2010PropOp52
 70
     0
102
RTVSPost2010Prop53
 90
        2
102
RTVSPost2010PropOp53
 70
     1
102
RTVSPost2010Prop54
  1
strokes_ogs.tif
102
RTVSPost2010PropOp54
 70
     1
102
RTVSPost2010Prop55
280
     0
102
RTVSPost2010PropOp55
 70
     1
102
RTVSPost2010Prop56
140
1.0
102
RTVSPost2010PropOp56
 70
     1
102
RTVSPost2010Prop57
140
1.0
102
RTVSPost2010PropOp57
 70
     1
102
RTVSPropertyOp0
 70
     1
102
RTVSPropertyOp1
 70
     1
102
RTVSPropertyOp2
 70
     1
102
RTVSPropertyOp3
 70
     1
102
RTVSPropertyOp4
 70
     1
102
RTVSPropertyOp5
 70
     1
102
RTVSPropertyOp6
 70
     1
102
RTVSPropertyOp7
 70
     1
102
RTVSPropertyOp8
 70
     1
102
RTVSPropertyOp9
 70
     1
102
RTVSPropertyOp10
 70
     1
102
RTVSPropertyOp11
 70
     1
102
RTVSPropertyOp12
 70
     1
102
RTVSPropertyOp13
 70
     1
102
RTVSPropertyOp14
 70
     1
102
RTVSPropertyOp15
 70
     1
102
RTVSPropertyOp16
 70
     1
102
RTVSPropertyOp17
 70
     1
102
RTVSPropertyOp18
 70
     1
102
RTVSPropertyOp19
 70
     1
102
RTVSPropertyOp20
 70
     1
102
RTVSPropertyOp21
 70
     1
102
RTVSPropertyOp22
 70
     1
102
RTVSPropertyOp23
 70
     1
102
RTVSPropertyOp24
 70
     1
102
RTVSPropertyOp25
 70
     1
102
RTVSPropertyOp26
 70
     1
102
RTVSPropertyOp27
 70
     1
102
RTVSPropertyOp28
 70
     1
102
RTVSPropertyOp29
 70
     1
102
RTVSPropertyOp30
 70
     1
102
RTVSPropertyOp31
 70
     1
102
RTVSPropertyOp32
 70
     1
102
RTVSPropertyOp33
 70
     1
102
RTVSPropertyOp34
 70
     1
102
RTVSPropertyOp35
 70
     1
102
RTVSPropertyOp36
 70
     1
102
RTVSPropertyOp37
 70
     1
102
RTVSPropertyOp38
 70
     1
102
RTVSPropertyOp39
 70
     1
102
RTVSPropertyOp40
 70
     1
102
RTVSPropertyOp41
 70
     1
102
RTVSPropertyOp42
 70
     1
102
RTVSPropertyOp43
 70
     1
102
RTVSPropertyOp44
 70
     1
102
RTVSPropertyOp45
 70
     1
102
RTVSPropertyOp46
 70
     1
102
RTVSPropertyOp47
 70
     1
102
RTVSPropertyOp48
 70
     1
102
RTVSPropertyOp49
 70
     1
102
RTVSPropertyOp50
 70
     1
102
RTVSPropertyOp51
 70
     0
102
RTVSPropertyOp52
 70
     0
102
RTVSPropertyOp53
 70
     1
102
RTVSPropertyOp54
 70
     1
102
RTVSPropertyOp55
 70
     1
102
RTVSPropertyOp56
 70
     1
102
RTVSPropertyOp57
 70
     1
102
RTVSPropertyOp58
 70
     1
102
RTVSPropertyOp59
 70
     1
102
RTVSPropertyOp60
 70
     1
102
RTVSPropertyOp61
 70
     1
102
RTVSPropertyOp62
 70
     1
  0
XRECORD
  5
3FDB9
102
{ACAD_REACTORS
330
3FDB8
102
}
330
3FDB8
100
AcDbXrecord
280
     1
102
RTVSPost2010Prop28
280
     0
102
RTVSPost2010PropOp28
 70
     1
102
RTVSPost2010Prop29
280
     1
102
RTVSPost2010PropOp29
 70
     1
102
RTVSPost2010Prop30
280
     1
102
RTVSPost2010PropOp30
 70
     1
102
RTVSPost2010Prop31
280
     0
102
RTVSPost2010PropOp31
 70
     1
102
RTVSPost2010Prop32
280
     0
102
RTVSPost2010PropOp32
 70
     1
102
RTVSPost2010Prop33
280
     0
102
RTVSPost2010PropOp33
 70
     1
102
RTVSPost2010Prop34
280
     0
102
RTVSPost2010PropOp34
 70
     1
102
RTVSPost2010Prop35
280
     0
102
RTVSPost2010PropOp35
 70
     1
102
RTVSPost2010Prop36
280
     0
102
RTVSPost2010PropOp36
 70
     1
102
RTVSPost2010Prop37
 90
       50
102
RTVSPost2010PropOp37
 70
     1
102
RTVSPost2010Prop38
140
0.0
102
RTVSPost2010PropOp38
 70
     1
102
RTVSPost2010Prop39
140
1.0
102
RTVSPost2010PropOp39
 70
     1
102
RTVSPost2010Prop40
 90
        0
102
RTVSPost2010PropOp40
 70
     1
102
RTVSPost2010Prop41ColorIndex
 90
       18
102
RTVSPost2010Prop41ColorRGB
 90
        0
102
RTVSPost2010PropOp41
 70
     1
102
RTVSPost2010Prop42
 90
       50
102
RTVSPost2010PropOp42
 70
     1
102
RTVSPost2010Prop43
 90
        3
102
RTVSPost2010PropOp43
 70
     1
102
RTVSPost2010Prop44ColorIndex
 90
        5
102
RTVSPost2010Prop44ColorRGB
 90
      255
102
RTVSPost2010PropOp44
 70
     1
102
RTVSPost2010Prop45
280
     0
102
RTVSPost2010PropOp45
 70
     1
102
RTVSPost2010Prop46
 90
       50
102
RTVSPost2010PropOp46
 70
     1
102
RTVSPost2010Prop47
 90
       50
102
RTVSPost2010PropOp47
 70
     1
102
RTVSPost2010Prop48
 90
       50
102
RTVSPost2010PropOp48
 70
     1
102
RTVSPost2010Prop49
280
     0
102
RTVSPost2010PropOp49
 70
     1
102
RTVSPost2010Prop50
 90
       50
102
RTVSPost2010PropOp50
 70
     1
102
RTVSPost2010Prop51ColorIndex
 90
      256
102
RTVSPost2010Prop51ColorRGB
 90
-16777216
102
RTVSPost2010PropOp51
 70
     0
102
RTVSPost2010Prop52
140
1.0
102
RTVSPost2010PropOp52
 70
     0
102
RTVSPost2010Prop53
 90
        2
102
RTVSPost2010PropOp53
 70
     1
102
RTVSPost2010Prop54
  1
strokes_ogs.tif
102
RTVSPost2010PropOp54
 70
     1
102
RTVSPost2010Prop55
280
     0
102
RTVSPost2010PropOp55
 70
     1
102
RTVSPost2010Prop56
140
1.0
102
RTVSPost2010PropOp56
 70
     1
102
RTVSPost2010Prop57
140
1.0
102
RTVSPost2010PropOp57
 70
     1
102
RTVSPropertyOp0
 70
     0
102
RTVSPropertyOp1
 70
     0
102
RTVSPropertyOp2
 70
     0
102
RTVSPropertyOp3
 70
     0
102
RTVSPropertyOp4
 70
     0
102
RTVSPropertyOp5
 70
     0
102
RTVSPropertyOp6
 70
     0
102
RTVSPropertyOp7
 70
     0
102
RTVSPropertyOp8
 70
     0
102
RTVSPropertyOp9
 70
     0
102
RTVSPropertyOp10
 70
     0
102
RTVSPropertyOp11
 70
     0
102
RTVSPropertyOp12
 70
     0
102
RTVSPropertyOp13
 70
     0
102
RTVSPropertyOp14
 70
     2
102
RTVSPropertyOp15
 70
     0
102
RTVSPropertyOp16
 70
     0
102
RTVSPropertyOp17
 70
     0
102
RTVSPropertyOp18
 70
     0
102
RTVSPropertyOp19
 70
     0
102
RTVSPropertyOp20
 70
     0
102
RTVSPropertyOp21
 70
     0
102
RTVSPropertyOp22
 70
     0
102
RTVSPropertyOp23
 70
     0
102
RTVSPropertyOp24
 70
     0
102
RTVSPropertyOp25
 70
     0
102
RTVSPropertyOp26
 70
     0
102
RTVSPropertyOp27
 70
     0
102
RTVSPropertyOp28
 70
     1
102
RTVSPropertyOp29
 70
     1
102
RTVSPropertyOp30
 70
     1
102
RTVSPropertyOp31
 70
     1
102
RTVSPropertyOp32
 70
     1
102
RTVSPropertyOp33
 70
     1
102
RTVSPropertyOp34
 70
     1
102
RTVSPropertyOp35
 70
     1
102
RTVSPropertyOp36
 70
     1
102
RTVSPropertyOp37
 70
     1
102
RTVSPropertyOp38
 70
     1
102
RTVSPropertyOp39
 70
     1
102
RTVSPropertyOp40
 70
     1
102
RTVSPropertyOp41
 70
     1
102
RTVSPropertyOp42
 70
     1
102
RTVSPropertyOp43
 70
     1
102
RTVSPropertyOp44
 70
     1
102
RTVSPropertyOp45
 70
     1
102
RTVSPropertyOp46
 70
     1
102
RTVSPropertyOp47
 70
     1
102
RTVSPropertyOp48
 70
     1
102
RTVSPropertyOp49
 70
     1
102
RTVSPropertyOp50
 70
     1
102
RTVSPropertyOp51
 70
     0
102
RTVSPropertyOp52
 70
     0
102
RTVSPropertyOp53
 70
     1
102
RTVSPropertyOp54
 70
     1
102
RTVSPropertyOp55
 70
     1
102
RTVSPropertyOp56
 70
     1
102
RTVSPropertyOp57
 70
     1
102
RTVSPropertyOp58
 70
     1
102
RTVSPropertyOp59
 70
     1
102
RTVSPropertyOp60
 70
     1
102
RTVSPropertyOp61
 70
     1
102
RTVSPropertyOp62
 70
     1
  0
XRECORD
  5
3FDA9
102
{ACAD_REACTORS
330
3FDA8
102
}
330
3FDA8
100
AcDbXrecord
280
     1
102
RTVSPost2010Prop28
280
     0
102
RTVSPost2010PropOp28
 70
     1
102
RTVSPost2010Prop29
280
     1
102
RTVSPost2010PropOp29
 70
     1
102
RTVSPost2010Prop30
280
     1
102
RTVSPost2010PropOp30
 70
     1
102
RTVSPost2010Prop31
280
     0
102
RTVSPost2010PropOp31
 70
     1
102
RTVSPost2010Prop32
280
     0
102
RTVSPost2010PropOp32
 70
     1
102
RTVSPost2010Prop33
280
     0
102
RTVSPost2010PropOp33
 70
     1
102
RTVSPost2010Prop34
280
     0
102
RTVSPost2010PropOp34
 70
     1
102
RTVSPost2010Prop35
280
     0
102
RTVSPost2010PropOp35
 70
     1
102
RTVSPost2010Prop36
280
     0
102
RTVSPost2010PropOp36
 70
     1
102
RTVSPost2010Prop37
 90
       50
102
RTVSPost2010PropOp37
 70
     1
102
RTVSPost2010Prop38
140
0.0
102
RTVSPost2010PropOp38
 70
     1
102
RTVSPost2010Prop39
140
1.0
102
RTVSPost2010PropOp39
 70
     1
102
RTVSPost2010Prop40
 90
        0
102
RTVSPost2010PropOp40
 70
     1
102
RTVSPost2010Prop41ColorIndex
 90
       18
102
RTVSPost2010Prop41ColorRGB
 90
        0
102
RTVSPost2010PropOp41
 70
     1
102
RTVSPost2010Prop42
 90
       50
102
RTVSPost2010PropOp42
 70
     1
102
RTVSPost2010Prop43
 90
        3
102
RTVSPost2010PropOp43
 70
     1
102
RTVSPost2010Prop44ColorIndex
 90
        5
102
RTVSPost2010Prop44ColorRGB
 90
      255
102
RTVSPost2010PropOp44
 70
     1
102
RTVSPost2010Prop45
280
     0
102
RTVSPost2010PropOp45
 70
     1
102
RTVSPost2010Prop46
 90
       50
102
RTVSPost2010PropOp46
 70
     1
102
RTVSPost2010Prop47
 90
       50
102
RTVSPost2010PropOp47
 70
     1
102
RTVSPost2010Prop48
 90
       50
102
RTVSPost2010PropOp48
 70
     1
102
RTVSPost2010Prop49
280
     0
102
RTVSPost2010PropOp49
 70
     1
102
RTVSPost2010Prop50
 90
       50
102
RTVSPost2010PropOp50
 70
     1
102
RTVSPost2010Prop51ColorIndex
 90
      256
102
RTVSPost2010Prop51ColorRGB
 90
-16777216
102
RTVSPost2010PropOp51
 70
     0
102
RTVSPost2010Prop52
140
1.0
102
RTVSPost2010PropOp52
 70
     0
102
RTVSPost2010Prop53
 90
        2
102
RTVSPost2010PropOp53
 70
     1
102
RTVSPost2010Prop54
  1
strokes_ogs.tif
102
RTVSPost2010PropOp54
 70
     1
102
RTVSPost2010Prop55
280
     0
102
RTVSPost2010PropOp55
 70
     1
102
RTVSPost2010Prop56
140
1.0
102
RTVSPost2010PropOp56
 70
     1
102
RTVSPost2010Prop57
140
1.0
102
RTVSPost2010PropOp57
 70
     1
102
RTVSPropertyOp0
 70
     1
102
RTVSPropertyOp1
 70
     1
102
RTVSPropertyOp2
 70
     1
102
RTVSPropertyOp3
 70
     1
102
RTVSPropertyOp4
 70
     1
102
RTVSPropertyOp5
 70
     1
102
RTVSPropertyOp6
 70
     1
102
RTVSPropertyOp7
 70
     1
102
RTVSPropertyOp8
 70
     1
102
RTVSPropertyOp9
 70
     1
102
RTVSPropertyOp10
 70
     1
102
RTVSPropertyOp11
 70
     1
102
RTVSPropertyOp12
 70
     1
102
RTVSPropertyOp13
 70
     1
102
RTVSPropertyOp14
 70
     1
102
RTVSPropertyOp15
 70
     1
102
RTVSPropertyOp16
 70
     1
102
RTVSPropertyOp17
 70
     1
102
RTVSPropertyOp18
 70
     1
102
RTVSPropertyOp19
 70
     1
102
RTVSPropertyOp20
 70
     1
102
RTVSPropertyOp21
 70
     1
102
RTVSPropertyOp22
 70
     1
102
RTVSPropertyOp23
 70
     1
102
RTVSPropertyOp24
 70
     1
102
RTVSPropertyOp25
 70
     1
102
RTVSPropertyOp26
 70
     1
102
RTVSPropertyOp27
 70
     1
102
RTVSPropertyOp28
 70
     1
102
RTVSPropertyOp29
 70
     1
102
RTVSPropertyOp30
 70
     1
102
RTVSPropertyOp31
 70
     1
102
RTVSPropertyOp32
 70
     1
102
RTVSPropertyOp33
 70
     1
102
RTVSPropertyOp34
 70
     1
102
RTVSPropertyOp35
 70
     1
102
RTVSPropertyOp36
 70
     1
102
RTVSPropertyOp37
 70
     1
102
RTVSPropertyOp38
 70
     1
102
RTVSPropertyOp39
 70
     1
102
RTVSPropertyOp40
 70
     1
102
RTVSPropertyOp41
 70
     1
102
RTVSPropertyOp42
 70
     1
102
RTVSPropertyOp43
 70
     1
102
RTVSPropertyOp44
 70
     1
102
RTVSPropertyOp45
 70
     1
102
RTVSPropertyOp46
 70
     1
102
RTVSPropertyOp47
 70
     1
102
RTVSPropertyOp48
 70
     1
102
RTVSPropertyOp49
 70
     1
102
RTVSPropertyOp50
 70
     1
102
RTVSPropertyOp51
 70
     0
102
RTVSPropertyOp52
 70
     0
102
RTVSPropertyOp53
 70
     1
102
RTVSPropertyOp54
 70
     1
102
RTVSPropertyOp55
 70
     1
102
RTVSPropertyOp56
 70
     1
102
RTVSPropertyOp57
 70
     1
102
RTVSPropertyOp58
 70
     1
102
RTVSPropertyOp59
 70
     1
102
RTVSPropertyOp60
 70
     1
102
RTVSPropertyOp61
 70
     1
102
RTVSPropertyOp62
 70
     1
  0
XRECORD
  5
3FDC9
102
{ACAD_REACTORS
330
3FDC8
102
}
330
3FDC8
100
AcDbXrecord
280
     1
102
RTVSPost2010Prop28
280
     0
102
RTVSPost2010PropOp28
 70
     1
102
RTVSPost2010Prop29
280
     1
102
RTVSPost2010PropOp29
 70
     1
102
RTVSPost2010Prop30
280
     1
102
RTVSPost2010PropOp30
 70
     1
102
RTVSPost2010Prop31
280
     0
102
RTVSPost2010PropOp31
 70
     1
102
RTVSPost2010Prop32
280
     0
102
RTVSPost2010PropOp32
 70
     1
102
RTVSPost2010Prop33
280
     0
102
RTVSPost2010PropOp33
 70
     1
102
RTVSPost2010Prop34
280
     0
102
RTVSPost2010PropOp34
 70
     1
102
RTVSPost2010Prop35
280
     0
102
RTVSPost2010PropOp35
 70
     1
102
RTVSPost2010Prop36
280
     0
102
RTVSPost2010PropOp36
 70
     1
102
RTVSPost2010Prop37
 90
       50
102
RTVSPost2010PropOp37
 70
     1
102
RTVSPost2010Prop38
140
0.0
102
RTVSPost2010PropOp38
 70
     1
102
RTVSPost2010Prop39
140
1.0
102
RTVSPost2010PropOp39
 70
     1
102
RTVSPost2010Prop40
 90
        0
102
RTVSPost2010PropOp40
 70
     1
102
RTVSPost2010Prop41ColorIndex
 90
       18
102
RTVSPost2010Prop41ColorRGB
 90
        0
102
RTVSPost2010PropOp41
 70
     1
102
RTVSPost2010Prop42
 90
       50
102
RTVSPost2010PropOp42
 70
     1
102
RTVSPost2010Prop43
 90
        3
102
RTVSPost2010PropOp43
 70
     1
102
RTVSPost2010Prop44ColorIndex
 90
        5
102
RTVSPost2010Prop44ColorRGB
 90
      255
102
RTVSPost2010PropOp44
 70
     1
102
RTVSPost2010Prop45
280
     0
102
RTVSPost2010PropOp45
 70
     1
102
RTVSPost2010Prop46
 90
       50
102
RTVSPost2010PropOp46
 70
     1
102
RTVSPost2010Prop47
 90
       50
102
RTVSPost2010PropOp47
 70
     1
102
RTVSPost2010Prop48
 90
       50
102
RTVSPost2010PropOp48
 70
     1
102
RTVSPost2010Prop49
280
     0
102
RTVSPost2010PropOp49
 70
     1
102
RTVSPost2010Prop50
 90
       50
102
RTVSPost2010PropOp50
 70
     1
102
RTVSPost2010Prop51ColorIndex
 90
      256
102
RTVSPost2010Prop51ColorRGB
 90
-16777216
102
RTVSPost2010PropOp51
 70
     0
102
RTVSPost2010Prop52
140
1.0
102
RTVSPost2010PropOp52
 70
     0
102
RTVSPost2010Prop53
 90
        2
102
RTVSPost2010PropOp53
 70
     1
102
RTVSPost2010Prop54
  1
strokes_ogs.tif
102
RTVSPost2010PropOp54
 70
     1
102
RTVSPost2010Prop55
280
     0
102
RTVSPost2010PropOp55
 70
     1
102
RTVSPost2010Prop56
140
1.0
102
RTVSPost2010PropOp56
 70
     1
102
RTVSPost2010Prop57
140
1.0
102
RTVSPost2010PropOp57
 70
     1
102
RTVSPropertyOp0
 70
     1
102
RTVSPropertyOp1
 70
     1
102
RTVSPropertyOp2
 70
     1
102
RTVSPropertyOp3
 70
     1
102
RTVSPropertyOp4
 70
     1
102
RTVSPropertyOp5
 70
     1
102
RTVSPropertyOp6
 70
     1
102
RTVSPropertyOp7
 70
     1
102
RTVSPropertyOp8
 70
     1
102
RTVSPropertyOp9
 70
     1
102
RTVSPropertyOp10
 70
     1
102
RTVSPropertyOp11
 70
     1
102
RTVSPropertyOp12
 70
     1
102
RTVSPropertyOp13
 70
     1
102
RTVSPropertyOp14
 70
     1
102
RTVSPropertyOp15
 70
     1
102
RTVSPropertyOp16
 70
     1
102
RTVSPropertyOp17
 70
     1
102
RTVSPropertyOp18
 70
     1
102
RTVSPropertyOp19
 70
     1
102
RTVSPropertyOp20
 70
     1
102
RTVSPropertyOp21
 70
     1
102
RTVSPropertyOp22
 70
     1
102
RTVSPropertyOp23
 70
     1
102
RTVSPropertyOp24
 70
     1
102
RTVSPropertyOp25
 70
     1
102
RTVSPropertyOp26
 70
     1
102
RTVSPropertyOp27
 70
     1
102
RTVSPropertyOp28
 70
     1
102
RTVSPropertyOp29
 70
     1
102
RTVSPropertyOp30
 70
     1
102
RTVSPropertyOp31
 70
     1
102
RTVSPropertyOp32
 70
     1
102
RTVSPropertyOp33
 70
     1
102
RTVSPropertyOp34
 70
     1
102
RTVSPropertyOp35
 70
     1
102
RTVSPropertyOp36
 70
     1
102
RTVSPropertyOp37
 70
     1
102
RTVSPropertyOp38
 70
     1
102
RTVSPropertyOp39
 70
     1
102
RTVSPropertyOp40
 70
     1
102
RTVSPropertyOp41
 70
     1
102
RTVSPropertyOp42
 70
     1
102
RTVSPropertyOp43
 70
     1
102
RTVSPropertyOp44
 70
     1
102
RTVSPropertyOp45
 70
     1
102
RTVSPropertyOp46
 70
     1
102
RTVSPropertyOp47
 70
     1
102
RTVSPropertyOp48
 70
     1
102
RTVSPropertyOp49
 70
     1
102
RTVSPropertyOp50
 70
     1
102
RTVSPropertyOp51
 70
     0
102
RTVSPropertyOp52
 70
     0
102
RTVSPropertyOp53
 70
     1
102
RTVSPropertyOp54
 70
     1
102
RTVSPropertyOp55
 70
     1
102
RTVSPropertyOp56
 70
     1
102
RTVSPropertyOp57
 70
     1
102
RTVSPropertyOp58
 70
     1
102
RTVSPropertyOp59
 70
     1
102
RTVSPropertyOp60
 70
     1
102
RTVSPropertyOp61
 70
     1
102
RTVSPropertyOp62
 70
     1
  0
XRECORD
  5
3FDC7
102
{ACAD_REACTORS
330
3FDC6
102
}
330
3FDC6
100
AcDbXrecord
280
     1
102
RTVSPost2010Prop28
280
     0
102
RTVSPost2010PropOp28
 70
     1
102
RTVSPost2010Prop29
280
     1
102
RTVSPost2010PropOp29
 70
     1
102
RTVSPost2010Prop30
280
     1
102
RTVSPost2010PropOp30
 70
     1
102
RTVSPost2010Prop31
280
     0
102
RTVSPost2010PropOp31
 70
     1
102
RTVSPost2010Prop32
280
     0
102
RTVSPost2010PropOp32
 70
     1
102
RTVSPost2010Prop33
280
     0
102
RTVSPost2010PropOp33
 70
     1
102
RTVSPost2010Prop34
280
     0
102
RTVSPost2010PropOp34
 70
     1
102
RTVSPost2010Prop35
280
     0
102
RTVSPost2010PropOp35
 70
     1
102
RTVSPost2010Prop36
280
     0
102
RTVSPost2010PropOp36
 70
     1
102
RTVSPost2010Prop37
 90
       50
102
RTVSPost2010PropOp37
 70
     1
102
RTVSPost2010Prop38
140
0.0
102
RTVSPost2010PropOp38
 70
     1
102
RTVSPost2010Prop39
140
1.0
102
RTVSPost2010PropOp39
 70
     1
102
RTVSPost2010Prop40
 90
        0
102
RTVSPost2010PropOp40
 70
     1
102
RTVSPost2010Prop41ColorIndex
 90
       18
102
RTVSPost2010Prop41ColorRGB
 90
        0
102
RTVSPost2010PropOp41
 70
     1
102
RTVSPost2010Prop42
 90
       50
102
RTVSPost2010PropOp42
 70
     1
102
RTVSPost2010Prop43
 90
        3
102
RTVSPost2010PropOp43
 70
     1
102
RTVSPost2010Prop44ColorIndex
 90
        5
102
RTVSPost2010Prop44ColorRGB
 90
      255
102
RTVSPost2010PropOp44
 70
     1
102
RTVSPost2010Prop45
280
     0
102
RTVSPost2010PropOp45
 70
     1
102
RTVSPost2010Prop46
 90
       50
102
RTVSPost2010PropOp46
 70
     1
102
RTVSPost2010Prop47
 90
       50
102
RTVSPost2010PropOp47
 70
     1
102
RTVSPost2010Prop48
 90
       50
102
RTVSPost2010PropOp48
 70
     1
102
RTVSPost2010Prop49
280
     0
102
RTVSPost2010PropOp49
 70
     1
102
RTVSPost2010Prop50
 90
       50
102
RTVSPost2010PropOp50
 70
     1
102
RTVSPost2010Prop51ColorIndex
 90
      256
102
RTVSPost2010Prop51ColorRGB
 90
-16777216
102
RTVSPost2010PropOp51
 70
     0
102
RTVSPost2010Prop52
140
1.0
102
RTVSPost2010PropOp52
 70
     0
102
RTVSPost2010Prop53
 90
        2
102
RTVSPost2010PropOp53
 70
     1
102
RTVSPost2010Prop54
  1
strokes_ogs.tif
102
RTVSPost2010PropOp54
 70
     1
102
RTVSPost2010Prop55
280
     0
102
RTVSPost2010PropOp55
 70
     1
102
RTVSPost2010Prop56
140
1.0
102
RTVSPost2010PropOp56
 70
     1
102
RTVSPost2010Prop57
140
1.0
102
RTVSPost2010PropOp57
 70
     1
102
RTVSPropertyOp0
 70
     1
102
RTVSPropertyOp1
 70
     1
102
RTVSPropertyOp2
 70
     1
102
RTVSPropertyOp3
 70
     1
102
RTVSPropertyOp4
 70
     1
102
RTVSPropertyOp5
 70
     1
102
RTVSPropertyOp6
 70
     1
102
RTVSPropertyOp7
 70
     1
102
RTVSPropertyOp8
 70
     1
102
RTVSPropertyOp9
 70
     1
102
RTVSPropertyOp10
 70
     1
102
RTVSPropertyOp11
 70
     1
102
RTVSPropertyOp12
 70
     1
102
RTVSPropertyOp13
 70
     1
102
RTVSPropertyOp14
 70
     1
102
RTVSPropertyOp15
 70
     1
102
RTVSPropertyOp16
 70
     1
102
RTVSPropertyOp17
 70
     1
102
RTVSPropertyOp18
 70
     1
102
RTVSPropertyOp19
 70
     1
102
RTVSPropertyOp20
 70
     1
102
RTVSPropertyOp21
 70
     1
102
RTVSPropertyOp22
 70
     1
102
RTVSPropertyOp23
 70
     1
102
RTVSPropertyOp24
 70
     1
102
RTVSPropertyOp25
 70
     1
102
RTVSPropertyOp26
 70
     1
102
RTVSPropertyOp27
 70
     1
102
RTVSPropertyOp28
 70
     1
102
RTVSPropertyOp29
 70
     1
102
RTVSPropertyOp30
 70
     1
102
RTVSPropertyOp31
 70
     1
102
RTVSPropertyOp32
 70
     1
102
RTVSPropertyOp33
 70
     1
102
RTVSPropertyOp34
 70
     1
102
RTVSPropertyOp35
 70
     1
102
RTVSPropertyOp36
 70
     1
102
RTVSPropertyOp37
 70
     1
102
RTVSPropertyOp38
 70
     1
102
RTVSPropertyOp39
 70
     1
102
RTVSPropertyOp40
 70
     1
102
RTVSPropertyOp41
 70
     1
102
RTVSPropertyOp42
 70
     1
102
RTVSPropertyOp43
 70
     1
102
RTVSPropertyOp44
 70
     1
102
RTVSPropertyOp45
 70
     1
102
RTVSPropertyOp46
 70
     1
102
RTVSPropertyOp47
 70
     1
102
RTVSPropertyOp48
 70
     1
102
RTVSPropertyOp49
 70
     1
102
RTVSPropertyOp50
 70
     1
102
RTVSPropertyOp51
 70
     0
102
RTVSPropertyOp52
 70
     0
102
RTVSPropertyOp53
 70
     1
102
RTVSPropertyOp54
 70
     1
102
RTVSPropertyOp55
 70
     1
102
RTVSPropertyOp56
 70
     1
102
RTVSPropertyOp57
 70
     1
102
RTVSPropertyOp58
 70
     1
102
RTVSPropertyOp59
 70
     1
102
RTVSPropertyOp60
 70
     1
102
RTVSPropertyOp61
 70
     1
102
RTVSPropertyOp62
 70
     1
  0
XRECORD
  5
3FDC1
102
{ACAD_REACTORS
330
3FDC0
102
}
330
3FDC0
100
AcDbXrecord
280
     1
102
RTVSPost2010Prop28
280
     0
102
RTVSPost2010PropOp28
 70
     1
102
RTVSPost2010Prop29
280
     1
102
RTVSPost2010PropOp29
 70
     1
102
RTVSPost2010Prop30
280
     1
102
RTVSPost2010PropOp30
 70
     1
102
RTVSPost2010Prop31
280
     0
102
RTVSPost2010PropOp31
 70
     1
102
RTVSPost2010Prop32
280
     0
102
RTVSPost2010PropOp32
 70
     1
102
RTVSPost2010Prop33
280
     0
102
RTVSPost2010PropOp33
 70
     1
102
RTVSPost2010Prop34
280
     0
102
RTVSPost2010PropOp34
 70
     1
102
RTVSPost2010Prop35
280
     0
102
RTVSPost2010PropOp35
 70
     1
102
RTVSPost2010Prop36
280
     0
102
RTVSPost2010PropOp36
 70
     1
102
RTVSPost2010Prop37
 90
       50
102
RTVSPost2010PropOp37
 70
     1
102
RTVSPost2010Prop38
140
0.0
102
RTVSPost2010PropOp38
 70
     1
102
RTVSPost2010Prop39
140
1.0
102
RTVSPost2010PropOp39
 70
     1
102
RTVSPost2010Prop40
 90
        0
102
RTVSPost2010PropOp40
 70
     1
102
RTVSPost2010Prop41ColorIndex
 90
       18
102
RTVSPost2010Prop41ColorRGB
 90
        0
102
RTVSPost2010PropOp41
 70
     1
102
RTVSPost2010Prop42
 90
       50
102
RTVSPost2010PropOp42
 70
     1
102
RTVSPost2010Prop43
 90
        3
102
RTVSPost2010PropOp43
 70
     1
102
RTVSPost2010Prop44ColorIndex
 90
        5
102
RTVSPost2010Prop44ColorRGB
 90
      255
102
RTVSPost2010PropOp44
 70
     1
102
RTVSPost2010Prop45
280
     0
102
RTVSPost2010PropOp45
 70
     1
102
RTVSPost2010Prop46
 90
       50
102
RTVSPost2010PropOp46
 70
     1
102
RTVSPost2010Prop47
 90
       50
102
RTVSPost2010PropOp47
 70
     1
102
RTVSPost2010Prop48
 90
       50
102
RTVSPost2010PropOp48
 70
     1
102
RTVSPost2010Prop49
280
     0
102
RTVSPost2010PropOp49
 70
     1
102
RTVSPost2010Prop50
 90
       50
102
RTVSPost2010PropOp50
 70
     1
102
RTVSPost2010Prop51ColorIndex
 90
      256
102
RTVSPost2010Prop51ColorRGB
 90
-16777216
102
RTVSPost2010PropOp51
 70
     0
102
RTVSPost2010Prop52
140
1.0
102
RTVSPost2010PropOp52
 70
     0
102
RTVSPost2010Prop53
 90
        2
102
RTVSPost2010PropOp53
 70
     1
102
RTVSPost2010Prop54
  1
strokes_ogs.tif
102
RTVSPost2010PropOp54
 70
     1
102
RTVSPost2010Prop55
280
     0
102
RTVSPost2010PropOp55
 70
     1
102
RTVSPost2010Prop56
140
1.0
102
RTVSPost2010PropOp56
 70
     1
102
RTVSPost2010Prop57
140
1.0
102
RTVSPost2010PropOp57
 70
     1
102
RTVSPropertyOp0
 70
     1
102
RTVSPropertyOp1
 70
     1
102
RTVSPropertyOp2
 70
     1
102
RTVSPropertyOp3
 70
     1
102
RTVSPropertyOp4
 70
     1
102
RTVSPropertyOp5
 70
     1
102
RTVSPropertyOp6
 70
     1
102
RTVSPropertyOp7
 70
     1
102
RTVSPropertyOp8
 70
     1
102
RTVSPropertyOp9
 70
     1
102
RTVSPropertyOp10
 70
     1
102
RTVSPropertyOp11
 70
     1
102
RTVSPropertyOp12
 70
     1
102
RTVSPropertyOp13
 70
     1
102
RTVSPropertyOp14
 70
     1
102
RTVSPropertyOp15
 70
     1
102
RTVSPropertyOp16
 70
     1
102
RTVSPropertyOp17
 70
     1
102
RTVSPropertyOp18
 70
     1
102
RTVSPropertyOp19
 70
     1
102
RTVSPropertyOp20
 70
     1
102
RTVSPropertyOp21
 70
     1
102
RTVSPropertyOp22
 70
     1
102
RTVSPropertyOp23
 70
     1
102
RTVSPropertyOp24
 70
     1
102
RTVSPropertyOp25
 70
     1
102
RTVSPropertyOp26
 70
     1
102
RTVSPropertyOp27
 70
     1
102
RTVSPropertyOp28
 70
     1
102
RTVSPropertyOp29
 70
     1
102
RTVSPropertyOp30
 70
     1
102
RTVSPropertyOp31
 70
     1
102
RTVSPropertyOp32
 70
     1
102
RTVSPropertyOp33
 70
     1
102
RTVSPropertyOp34
 70
     1
102
RTVSPropertyOp35
 70
     1
102
RTVSPropertyOp36
 70
     1
102
RTVSPropertyOp37
 70
     1
102
RTVSPropertyOp38
 70
     1
102
RTVSPropertyOp39
 70
     1
102
RTVSPropertyOp40
 70
     1
102
RTVSPropertyOp41
 70
     1
102
RTVSPropertyOp42
 70
     1
102
RTVSPropertyOp43
 70
     1
102
RTVSPropertyOp44
 70
     1
102
RTVSPropertyOp45
 70
     1
102
RTVSPropertyOp46
 70
     1
102
RTVSPropertyOp47
 70
     1
102
RTVSPropertyOp48
 70
     1
102
RTVSPropertyOp49
 70
     1
102
RTVSPropertyOp50
 70
     1
102
RTVSPropertyOp51
 70
     0
102
RTVSPropertyOp52
 70
     0
102
RTVSPropertyOp53
 70
     1
102
RTVSPropertyOp54
 70
     1
102
RTVSPropertyOp55
 70
     1
102
RTVSPropertyOp56
 70
     1
102
RTVSPropertyOp57
 70
     1
102
RTVSPropertyOp58
 70
     1
102
RTVSPropertyOp59
 70
     1
102
RTVSPropertyOp60
 70
     1
102
RTVSPropertyOp61
 70
     1
102
RTVSPropertyOp62
 70
     1
  0
XRECORD
  5
3FDC3
102
{ACAD_REACTORS
330
3FDC2
102
}
330
3FDC2
100
AcDbXrecord
280
     1
102
RTVSPost2010Prop28
280
     0
102
RTVSPost2010PropOp28
 70
     1
102
RTVSPost2010Prop29
280
     1
102
RTVSPost2010PropOp29
 70
     1
102
RTVSPost2010Prop30
280
     1
102
RTVSPost2010PropOp30
 70
     1
102
RTVSPost2010Prop31
280
     0
102
RTVSPost2010PropOp31
 70
     1
102
RTVSPost2010Prop32
280
     0
102
RTVSPost2010PropOp32
 70
     1
102
RTVSPost2010Prop33
280
     0
102
RTVSPost2010PropOp33
 70
     1
102
RTVSPost2010Prop34
280
     0
102
RTVSPost2010PropOp34
 70
     1
102
RTVSPost2010Prop35
280
     0
102
RTVSPost2010PropOp35
 70
     1
102
RTVSPost2010Prop36
280
     0
102
RTVSPost2010PropOp36
 70
     1
102
RTVSPost2010Prop37
 90
       50
102
RTVSPost2010PropOp37
 70
     1
102
RTVSPost2010Prop38
140
0.0
102
RTVSPost2010PropOp38
 70
     1
102
RTVSPost2010Prop39
140
1.0
102
RTVSPost2010PropOp39
 70
     1
102
RTVSPost2010Prop40
 90
        0
102
RTVSPost2010PropOp40
 70
     1
102
RTVSPost2010Prop41ColorIndex
 90
       18
102
RTVSPost2010Prop41ColorRGB
 90
        0
102
RTVSPost2010PropOp41
 70
     1
102
RTVSPost2010Prop42
 90
       50
102
RTVSPost2010PropOp42
 70
     1
102
RTVSPost2010Prop43
 90
        3
102
RTVSPost2010PropOp43
 70
     1
102
RTVSPost2010Prop44ColorIndex
 90
        5
102
RTVSPost2010Prop44ColorRGB
 90
      255
102
RTVSPost2010PropOp44
 70
     1
102
RTVSPost2010Prop45
280
     0
102
RTVSPost2010PropOp45
 70
     1
102
RTVSPost2010Prop46
 90
       50
102
RTVSPost2010PropOp46
 70
     1
102
RTVSPost2010Prop47
 90
       50
102
RTVSPost2010PropOp47
 70
     1
102
RTVSPost2010Prop48
 90
       50
102
RTVSPost2010PropOp48
 70
     1
102
RTVSPost2010Prop49
280
     0
102
RTVSPost2010PropOp49
 70
     1
102
RTVSPost2010Prop50
 90
       50
102
RTVSPost2010PropOp50
 70
     1
102
RTVSPost2010Prop51ColorIndex
 90
      256
102
RTVSPost2010Prop51ColorRGB
 90
-16777216
102
RTVSPost2010PropOp51
 70
     0
102
RTVSPost2010Prop52
140
1.0
102
RTVSPost2010PropOp52
 70
     0
102
RTVSPost2010Prop53
 90
        2
102
RTVSPost2010PropOp53
 70
     1
102
RTVSPost2010Prop54
  1
strokes_ogs.tif
102
RTVSPost2010PropOp54
 70
     1
102
RTVSPost2010Prop55
280
     0
102
RTVSPost2010PropOp55
 70
     1
102
RTVSPost2010Prop56
140
1.0
102
RTVSPost2010PropOp56
 70
     1
102
RTVSPost2010Prop57
140
1.0
102
RTVSPost2010PropOp57
 70
     1
102
RTVSPropertyOp0
 70
     1
102
RTVSPropertyOp1
 70
     1
102
RTVSPropertyOp2
 70
     1
102
RTVSPropertyOp3
 70
     1
102
RTVSPropertyOp4
 70
     1
102
RTVSPropertyOp5
 70
     1
102
RTVSPropertyOp6
 70
     1
102
RTVSPropertyOp7
 70
     1
102
RTVSPropertyOp8
 70
     1
102
RTVSPropertyOp9
 70
     1
102
RTVSPropertyOp10
 70
     1
102
RTVSPropertyOp11
 70
     1
102
RTVSPropertyOp12
 70
     1
102
RTVSPropertyOp13
 70
     1
102
RTVSPropertyOp14
 70
     1
102
RTVSPropertyOp15
 70
     1
102
RTVSPropertyOp16
 70
     1
102
RTVSPropertyOp17
 70
     1
102
RTVSPropertyOp18
 70
     1
102
RTVSPropertyOp19
 70
     1
102
RTVSPropertyOp20
 70
     1
102
RTVSPropertyOp21
 70
     1
102
RTVSPropertyOp22
 70
     1
102
RTVSPropertyOp23
 70
     1
102
RTVSPropertyOp24
 70
     1
102
RTVSPropertyOp25
 70
     1
102
RTVSPropertyOp26
 70
     1
102
RTVSPropertyOp27
 70
     1
102
RTVSPropertyOp28
 70
     1
102
RTVSPropertyOp29
 70
     1
102
RTVSPropertyOp30
 70
     1
102
RTVSPropertyOp31
 70
     1
102
RTVSPropertyOp32
 70
     1
102
RTVSPropertyOp33
 70
     1
102
RTVSPropertyOp34
 70
     1
102
RTVSPropertyOp35
 70
     1
102
RTVSPropertyOp36
 70
     1
102
RTVSPropertyOp37
 70
     1
102
RTVSPropertyOp38
 70
     1
102
RTVSPropertyOp39
 70
     1
102
RTVSPropertyOp40
 70
     1
102
RTVSPropertyOp41
 70
     1
102
RTVSPropertyOp42
 70
     1
102
RTVSPropertyOp43
 70
     1
102
RTVSPropertyOp44
 70
     1
102
RTVSPropertyOp45
 70
     1
102
RTVSPropertyOp46
 70
     1
102
RTVSPropertyOp47
 70
     1
102
RTVSPropertyOp48
 70
     1
102
RTVSPropertyOp49
 70
     1
102
RTVSPropertyOp50
 70
     1
102
RTVSPropertyOp51
 70
     0
102
RTVSPropertyOp52
 70
     0
102
RTVSPropertyOp53
 70
     1
102
RTVSPropertyOp54
 70
     1
102
RTVSPropertyOp55
 70
     1
102
RTVSPropertyOp56
 70
     1
102
RTVSPropertyOp57
 70
     1
102
RTVSPropertyOp58
 70
     1
102
RTVSPropertyOp59
 70
     1
102
RTVSPropertyOp60
 70
     1
102
RTVSPropertyOp61
 70
     1
102
RTVSPropertyOp62
 70
     1
  0
XRECORD
  5
3FDAF
102
{ACAD_REACTORS
330
3FDAE
102
}
330
3FDAE
100
AcDbXrecord
280
     1
102
RTVSPost2010Prop28
280
     0
102
RTVSPost2010PropOp28
 70
     1
102
RTVSPost2010Prop29
280
     1
102
RTVSPost2010PropOp29
 70
     1
102
RTVSPost2010Prop30
280
     1
102
RTVSPost2010PropOp30
 70
     1
102
RTVSPost2010Prop31
280
     0
102
RTVSPost2010PropOp31
 70
     1
102
RTVSPost2010Prop32
280
     0
102
RTVSPost2010PropOp32
 70
     1
102
RTVSPost2010Prop33
280
     0
102
RTVSPost2010PropOp33
 70
     1
102
RTVSPost2010Prop34
280
     0
102
RTVSPost2010PropOp34
 70
     1
102
RTVSPost2010Prop35
280
     0
102
RTVSPost2010PropOp35
 70
     1
102
RTVSPost2010Prop36
280
     0
102
RTVSPost2010PropOp36
 70
     1
102
RTVSPost2010Prop37
 90
       50
102
RTVSPost2010PropOp37
 70
     1
102
RTVSPost2010Prop38
140
0.0
102
RTVSPost2010PropOp38
 70
     1
102
RTVSPost2010Prop39
140
1.0
102
RTVSPost2010PropOp39
 70
     1
102
RTVSPost2010Prop40
 90
        0
102
RTVSPost2010PropOp40
 70
     1
102
RTVSPost2010Prop41ColorIndex
 90
       18
102
RTVSPost2010Prop41ColorRGB
 90
        0
102
RTVSPost2010PropOp41
 70
     1
102
RTVSPost2010Prop42
 90
       50
102
RTVSPost2010PropOp42
 70
     1
102
RTVSPost2010Prop43
 90
        3
102
RTVSPost2010PropOp43
 70
     1
102
RTVSPost2010Prop44ColorIndex
 90
        5
102
RTVSPost2010Prop44ColorRGB
 90
      255
102
RTVSPost2010PropOp44
 70
     1
102
RTVSPost2010Prop45
280
     0
102
RTVSPost2010PropOp45
 70
     1
102
RTVSPost2010Prop46
 90
       50
102
RTVSPost2010PropOp46
 70
     1
102
RTVSPost2010Prop47
 90
       50
102
RTVSPost2010PropOp47
 70
     1
102
RTVSPost2010Prop48
 90
       50
102
RTVSPost2010PropOp48
 70
     1
102
RTVSPost2010Prop49
280
     0
102
RTVSPost2010PropOp49
 70
     1
102
RTVSPost2010Prop50
 90
       50
102
RTVSPost2010PropOp50
 70
     1
102
RTVSPost2010Prop51ColorIndex
 90
      256
102
RTVSPost2010Prop51ColorRGB
 90
-16777216
102
RTVSPost2010PropOp51
 70
     0
102
RTVSPost2010Prop52
140
1.0
102
RTVSPost2010PropOp52
 70
     0
102
RTVSPost2010Prop53
 90
        2
102
RTVSPost2010PropOp53
 70
     1
102
RTVSPost2010Prop54
  1
strokes_ogs.tif
102
RTVSPost2010PropOp54
 70
     1
102
RTVSPost2010Prop55
280
     0
102
RTVSPost2010PropOp55
 70
     1
102
RTVSPost2010Prop56
140
1.0
102
RTVSPost2010PropOp56
 70
     1
102
RTVSPost2010Prop57
140
1.0
102
RTVSPost2010PropOp57
 70
     1
102
RTVSPropertyOp0
 70
     1
102
RTVSPropertyOp1
 70
     1
102
RTVSPropertyOp2
 70
     1
102
RTVSPropertyOp3
 70
     1
102
RTVSPropertyOp4
 70
     1
102
RTVSPropertyOp5
 70
     1
102
RTVSPropertyOp6
 70
     1
102
RTVSPropertyOp7
 70
     1
102
RTVSPropertyOp8
 70
     1
102
RTVSPropertyOp9
 70
     1
102
RTVSPropertyOp10
 70
     1
102
RTVSPropertyOp11
 70
     1
102
RTVSPropertyOp12
 70
     1
102
RTVSPropertyOp13
 70
     1
102
RTVSPropertyOp14
 70
     1
102
RTVSPropertyOp15
 70
     1
102
RTVSPropertyOp16
 70
     1
102
RTVSPropertyOp17
 70
     1
102
RTVSPropertyOp18
 70
     1
102
RTVSPropertyOp19
 70
     1
102
RTVSPropertyOp20
 70
     1
102
RTVSPropertyOp21
 70
     1
102
RTVSPropertyOp22
 70
     1
102
RTVSPropertyOp23
 70
     1
102
RTVSPropertyOp24
 70
     1
102
RTVSPropertyOp25
 70
     1
102
RTVSPropertyOp26
 70
     1
102
RTVSPropertyOp27
 70
     1
102
RTVSPropertyOp28
 70
     1
102
RTVSPropertyOp29
 70
     1
102
RTVSPropertyOp30
 70
     1
102
RTVSPropertyOp31
 70
     1
102
RTVSPropertyOp32
 70
     1
102
RTVSPropertyOp33
 70
     1
102
RTVSPropertyOp34
 70
     1
102
RTVSPropertyOp35
 70
     1
102
RTVSPropertyOp36
 70
     1
102
RTVSPropertyOp37
 70
     1
102
RTVSPropertyOp38
 70
     1
102
RTVSPropertyOp39
 70
     1
102
RTVSPropertyOp40
 70
     1
102
RTVSPropertyOp41
 70
     1
102
RTVSPropertyOp42
 70
     1
102
RTVSPropertyOp43
 70
     1
102
RTVSPropertyOp44
 70
     1
102
RTVSPropertyOp45
 70
     1
102
RTVSPropertyOp46
 70
     1
102
RTVSPropertyOp47
 70
     1
102
RTVSPropertyOp48
 70
     1
102
RTVSPropertyOp49
 70
     1
102
RTVSPropertyOp50
 70
     1
102
RTVSPropertyOp51
 70
     0
102
RTVSPropertyOp52
 70
     0
102
RTVSPropertyOp53
 70
     1
102
RTVSPropertyOp54
 70
     1
102
RTVSPropertyOp55
 70
     1
102
RTVSPropertyOp56
 70
     1
102
RTVSPropertyOp57
 70
     1
102
RTVSPropertyOp58
 70
     1
102
RTVSPropertyOp59
 70
     1
102
RTVSPropertyOp60
 70
     1
102
RTVSPropertyOp61
 70
     1
102
RTVSPropertyOp62
 70
     1
  0
XRECORD
  5
3FDBD
102
{ACAD_REACTORS
330
3FDBC
102
}
330
3FDBC
100
AcDbXrecord
280
     1
102
RTVSPost2010Prop28
280
     0
102
RTVSPost2010PropOp28
 70
     1
102
RTVSPost2010Prop29
280
     1
102
RTVSPost2010PropOp29
 70
     1
102
RTVSPost2010Prop30
280
     1
102
RTVSPost2010PropOp30
 70
     1
102
RTVSPost2010Prop31
280
     0
102
RTVSPost2010PropOp31
 70
     1
102
RTVSPost2010Prop32
280
     0
102
RTVSPost2010PropOp32
 70
     1
102
RTVSPost2010Prop33
280
     0
102
RTVSPost2010PropOp33
 70
     1
102
RTVSPost2010Prop34
280
     0
102
RTVSPost2010PropOp34
 70
     1
102
RTVSPost2010Prop35
280
     0
102
RTVSPost2010PropOp35
 70
     1
102
RTVSPost2010Prop36
280
     0
102
RTVSPost2010PropOp36
 70
     1
102
RTVSPost2010Prop37
 90
       50
102
RTVSPost2010PropOp37
 70
     1
102
RTVSPost2010Prop38
140
0.0
102
RTVSPost2010PropOp38
 70
     1
102
RTVSPost2010Prop39
140
1.0
102
RTVSPost2010PropOp39
 70
     1
102
RTVSPost2010Prop40
 90
        0
102
RTVSPost2010PropOp40
 70
     1
102
RTVSPost2010Prop41ColorIndex
 90
       18
102
RTVSPost2010Prop41ColorRGB
 90
        0
102
RTVSPost2010PropOp41
 70
     1
102
RTVSPost2010Prop42
 90
       50
102
RTVSPost2010PropOp42
 70
     1
102
RTVSPost2010Prop43
 90
        3
102
RTVSPost2010PropOp43
 70
     1
102
RTVSPost2010Prop44ColorIndex
 90
        5
102
RTVSPost2010Prop44ColorRGB
 90
      255
102
RTVSPost2010PropOp44
 70
     1
102
RTVSPost2010Prop45
280
     0
102
RTVSPost2010PropOp45
 70
     1
102
RTVSPost2010Prop46
 90
       50
102
RTVSPost2010PropOp46
 70
     1
102
RTVSPost2010Prop47
 90
       50
102
RTVSPost2010PropOp47
 70
     1
102
RTVSPost2010Prop48
 90
       50
102
RTVSPost2010PropOp48
 70
     1
102
RTVSPost2010Prop49
280
     0
102
RTVSPost2010PropOp49
 70
     1
102
RTVSPost2010Prop50
 90
       50
102
RTVSPost2010PropOp50
 70
     1
102
RTVSPost2010Prop51ColorIndex
 90
      256
102
RTVSPost2010Prop51ColorRGB
 90
-16777216
102
RTVSPost2010PropOp51
 70
     0
102
RTVSPost2010Prop52
140
1.0
102
RTVSPost2010PropOp52
 70
     0
102
RTVSPost2010Prop53
 90
        2
102
RTVSPost2010PropOp53
 70
     1
102
RTVSPost2010Prop54
  1
strokes_ogs.tif
102
RTVSPost2010PropOp54
 70
     1
102
RTVSPost2010Prop55
280
     0
102
RTVSPost2010PropOp55
 70
     1
102
RTVSPost2010Prop56
140
1.0
102
RTVSPost2010PropOp56
 70
     1
102
RTVSPost2010Prop57
140
1.0
102
RTVSPost2010PropOp57
 70
     1
102
RTVSPropertyOp0
 70
     1
102
RTVSPropertyOp1
 70
     1
102
RTVSPropertyOp2
 70
     1
102
RTVSPropertyOp3
 70
     1
102
RTVSPropertyOp4
 70
     1
102
RTVSPropertyOp5
 70
     1
102
RTVSPropertyOp6
 70
     1
102
RTVSPropertyOp7
 70
     1
102
RTVSPropertyOp8
 70
     1
102
RTVSPropertyOp9
 70
     1
102
RTVSPropertyOp10
 70
     1
102
RTVSPropertyOp11
 70
     1
102
RTVSPropertyOp12
 70
     1
102
RTVSPropertyOp13
 70
     1
102
RTVSPropertyOp14
 70
     1
102
RTVSPropertyOp15
 70
     1
102
RTVSPropertyOp16
 70
     1
102
RTVSPropertyOp17
 70
     1
102
RTVSPropertyOp18
 70
     1
102
RTVSPropertyOp19
 70
     1
102
RTVSPropertyOp20
 70
     1
102
RTVSPropertyOp21
 70
     1
102
RTVSPropertyOp22
 70
     1
102
RTVSPropertyOp23
 70
     1
102
RTVSPropertyOp24
 70
     1
102
RTVSPropertyOp25
 70
     1
102
RTVSPropertyOp26
 70
     1
102
RTVSPropertyOp27
 70
     1
102
RTVSPropertyOp28
 70
     1
102
RTVSPropertyOp29
 70
     1
102
RTVSPropertyOp30
 70
     1
102
RTVSPropertyOp31
 70
     1
102
RTVSPropertyOp32
 70
     1
102
RTVSPropertyOp33
 70
     1
102
RTVSPropertyOp34
 70
     1
102
RTVSPropertyOp35
 70
     1
102
RTVSPropertyOp36
 70
     1
102
RTVSPropertyOp37
 70
     1
102
RTVSPropertyOp38
 70
     1
102
RTVSPropertyOp39
 70
     1
102
RTVSPropertyOp40
 70
     1
102
RTVSPropertyOp41
 70
     1
102
RTVSPropertyOp42
 70
     1
102
RTVSPropertyOp43
 70
     1
102
RTVSPropertyOp44
 70
     1
102
RTVSPropertyOp45
 70
     1
102
RTVSPropertyOp46
 70
     1
102
RTVSPropertyOp47
 70
     1
102
RTVSPropertyOp48
 70
     1
102
RTVSPropertyOp49
 70
     1
102
RTVSPropertyOp50
 70
     1
102
RTVSPropertyOp51
 70
     0
102
RTVSPropertyOp52
 70
     0
102
RTVSPropertyOp53
 70
     1
102
RTVSPropertyOp54
 70
     1
102
RTVSPropertyOp55
 70
     1
102
RTVSPropertyOp56
 70
     1
102
RTVSPropertyOp57
 70
     1
102
RTVSPropertyOp58
 70
     1
102
RTVSPropertyOp59
 70
     1
102
RTVSPropertyOp60
 70
     1
102
RTVSPropertyOp61
 70
     1
102
RTVSPropertyOp62
 70
     1
  0
XRECORD
  5
3FDC5
102
{ACAD_REACTORS
330
3FDC4
102
}
330
3FDC4
100
AcDbXrecord
280
     1
102
RTVSPost2010Prop28
280
     0
102
RTVSPost2010PropOp28
 70
     1
102
RTVSPost2010Prop29
280
     1
102
RTVSPost2010PropOp29
 70
     1
102
RTVSPost2010Prop30
280
     1
102
RTVSPost2010PropOp30
 70
     1
102
RTVSPost2010Prop31
280
     0
102
RTVSPost2010PropOp31
 70
     1
102
RTVSPost2010Prop32
280
     0
102
RTVSPost2010PropOp32
 70
     1
102
RTVSPost2010Prop33
280
     0
102
RTVSPost2010PropOp33
 70
     1
102
RTVSPost2010Prop34
280
     0
102
RTVSPost2010PropOp34
 70
     1
102
RTVSPost2010Prop35
280
     0
102
RTVSPost2010PropOp35
 70
     1
102
RTVSPost2010Prop36
280
     0
102
RTVSPost2010PropOp36
 70
     1
102
RTVSPost2010Prop37
 90
       50
102
RTVSPost2010PropOp37
 70
     1
102
RTVSPost2010Prop38
140
0.0
102
RTVSPost2010PropOp38
 70
     1
102
RTVSPost2010Prop39
140
1.0
102
RTVSPost2010PropOp39
 70
     1
102
RTVSPost2010Prop40
 90
        0
102
RTVSPost2010PropOp40
 70
     1
102
RTVSPost2010Prop41ColorIndex
 90
       18
102
RTVSPost2010Prop41ColorRGB
 90
        0
102
RTVSPost2010PropOp41
 70
     1
102
RTVSPost2010Prop42
 90
       50
102
RTVSPost2010PropOp42
 70
     1
102
RTVSPost2010Prop43
 90
        3
102
RTVSPost2010PropOp43
 70
     1
102
RTVSPost2010Prop44ColorIndex
 90
        5
102
RTVSPost2010Prop44ColorRGB
 90
      255
102
RTVSPost2010PropOp44
 70
     1
102
RTVSPost2010Prop45
280
     0
102
RTVSPost2010PropOp45
 70
     1
102
RTVSPost2010Prop46
 90
       50
102
RTVSPost2010PropOp46
 70
     1
102
RTVSPost2010Prop47
 90
       50
102
RTVSPost2010PropOp47
 70
     1
102
RTVSPost2010Prop48
 90
       50
102
RTVSPost2010PropOp48
 70
     1
102
RTVSPost2010Prop49
280
     0
102
RTVSPost2010PropOp49
 70
     1
102
RTVSPost2010Prop50
 90
       50
102
RTVSPost2010PropOp50
 70
     1
102
RTVSPost2010Prop51ColorIndex
 90
      256
102
RTVSPost2010Prop51ColorRGB
 90
-16777216
102
RTVSPost2010PropOp51
 70
     0
102
RTVSPost2010Prop52
140
1.0
102
RTVSPost2010PropOp52
 70
     0
102
RTVSPost2010Prop53
 90
        2
102
RTVSPost2010PropOp53
 70
     1
102
RTVSPost2010Prop54
  1
strokes_ogs.tif
102
RTVSPost2010PropOp54
 70
     1
102
RTVSPost2010Prop55
280
     0
102
RTVSPost2010PropOp55
 70
     1
102
RTVSPost2010Prop56
140
1.0
102
RTVSPost2010PropOp56
 70
     1
102
RTVSPost2010Prop57
140
1.0
102
RTVSPost2010PropOp57
 70
     1
102
RTVSPropertyOp0
 70
     1
102
RTVSPropertyOp1
 70
     1
102
RTVSPropertyOp2
 70
     1
102
RTVSPropertyOp3
 70
     1
102
RTVSPropertyOp4
 70
     1
102
RTVSPropertyOp5
 70
     1
102
RTVSPropertyOp6
 70
     1
102
RTVSPropertyOp7
 70
     1
102
RTVSPropertyOp8
 70
     1
102
RTVSPropertyOp9
 70
     1
102
RTVSPropertyOp10
 70
     1
102
RTVSPropertyOp11
 70
     1
102
RTVSPropertyOp12
 70
     1
102
RTVSPropertyOp13
 70
     1
102
RTVSPropertyOp14
 70
     1
102
RTVSPropertyOp15
 70
     1
102
RTVSPropertyOp16
 70
     1
102
RTVSPropertyOp17
 70
     1
102
RTVSPropertyOp18
 70
     1
102
RTVSPropertyOp19
 70
     1
102
RTVSPropertyOp20
 70
     1
102
RTVSPropertyOp21
 70
     1
102
RTVSPropertyOp22
 70
     1
102
RTVSPropertyOp23
 70
     1
102
RTVSPropertyOp24
 70
     1
102
RTVSPropertyOp25
 70
     1
102
RTVSPropertyOp26
 70
     1
102
RTVSPropertyOp27
 70
     1
102
RTVSPropertyOp28
 70
     1
102
RTVSPropertyOp29
 70
     1
102
RTVSPropertyOp30
 70
     1
102
RTVSPropertyOp31
 70
     1
102
RTVSPropertyOp32
 70
     1
102
RTVSPropertyOp33
 70
     1
102
RTVSPropertyOp34
 70
     1
102
RTVSPropertyOp35
 70
     1
102
RTVSPropertyOp36
 70
     1
102
RTVSPropertyOp37
 70
     1
102
RTVSPropertyOp38
 70
     1
102
RTVSPropertyOp39
 70
     1
102
RTVSPropertyOp40
 70
     1
102
RTVSPropertyOp41
 70
     1
102
RTVSPropertyOp42
 70
     1
102
RTVSPropertyOp43
 70
     1
102
RTVSPropertyOp44
 70
     1
102
RTVSPropertyOp45
 70
     1
102
RTVSPropertyOp46
 70
     1
102
RTVSPropertyOp47
 70
     1
102
RTVSPropertyOp48
 70
     1
102
RTVSPropertyOp49
 70
     1
102
RTVSPropertyOp50
 70
     1
102
RTVSPropertyOp51
 70
     0
102
RTVSPropertyOp52
 70
     0
102
RTVSPropertyOp53
 70
     1
102
RTVSPropertyOp54
 70
     1
102
RTVSPropertyOp55
 70
     1
102
RTVSPropertyOp56
 70
     1
102
RTVSPropertyOp57
 70
     1
102
RTVSPropertyOp58
 70
     1
102
RTVSPropertyOp59
 70
     1
102
RTVSPropertyOp60
 70
     1
102
RTVSPropertyOp61
 70
     1
102
RTVSPropertyOp62
 70
     1
  0
ENDSEC
  0
EOF
