  0
SECTION
  2
HEADER
  9
$ACADVER
  1
AC1009
  9
$INSBASE
 10
0.0
 20
0.0
 30
0.0
  9
$EXTMIN
 10
-1100.2667561445719
 20
-113.5908753482363
 30
-0.000000000000013
  9
$EXTMAX
 10
2955.7413036697039
 20
2197.8981460213322
 30
0.0000000000000023
  9
$LIMMIN
 10
0.0
 20
0.0
  9
$LIMMAX
 10
2940.0
 20
2079.0
  9
$ORTHOMODE
 70
     1
  9
$REGENMODE
 70
     1
  9
$FILLMODE
 70
     1
  9
$QTEXTMODE
 70
     0
  9
$MIRRTEXT
 70
     0
  9
$DRAGMODE
 70
     2
  9
$LTSCALE
 40
50.0
  9
$OSMODE
 70
     0
  9
$ATTMODE
 70
     1
  9
$TEXTSIZE
 40
0.2
  9
$TRACEWID
 40
0.05
  9
$TEXTSTYLE
  7
STANDARD
  9
$CLAYER
  8
0
  9
$CELTYPE
  6
BYLAYER
  9
$CECOLOR
 62
   256
  9
$DIMSCALE
 40
1.0
  9
$DIMASZ
 40
1.799999999999994
  9
$DIMEXO
 40
0.0625
  9
$DIMDLI
 40
0.38
  9
$DIMRND
 40
0.0
  9
$DIMDLE
 40
0.0
  9
$DIMEXE
 40
0.18
  9
$DIMTP
 40
0.0
  9
$DIMTM
 40
0.0
  9
$DIMTXT
 40
1.799999999999994
  9
$DIMCEN
 40
0.09
  9
$DIMTSZ
 40
0.0
  9
$DIMTOL
 70
     0
  9
$DIMLIM
 70
     0
  9
$DIMTIH
 70
     1
  9
$DIMTOH
 70
     1
  9
$DIMSE1
 70
     0
  9
$DIMSE2
 70
     0
  9
$DIMTAD
 70
     0
  9
$DIMZIN
 70
     0
  9
$DIMBLK
  1

  9
$DIMASO
 70
     1
  9
$DIMSHO
 70
     1
  9
$DIMPOST
  1

  9
$DIMAPOST
  1

  9
$DIMALT
 70
     0
  9
$DIMALTD
 70
     2
  9
$DIMALTF
 40
25.399999999999999
  9
$DIMLFAC
 40
1.0
  9
$DIMTOFL
 70
     0
  9
$DIMTVP
 40
0.0
  9
$DIMTIX
 70
     0
  9
$DIMSOXD
 70
     0
  9
$DIMSAH
 70
     0
  9
$DIMBLK1
  1

  9
$DIMBLK2
  1

  9
$DIMSTYLE
  2
STANDARD
  9
$DIMCLRD
 70
     0
  9
$DIMCLRE
 70
     0
  9
$DIMCLRT
 70
     0
  9
$DIMTFAC
 40
1.0
  9
$DIMGAP
 40
0.09
  9
$LUNITS
 70
     2
  9
$LUPREC
 70
     4
  9
$SKETCHINC
 40
0.1
  9
$FILLETRAD
 40
0.0
  9
$AUNITS
 70
     0
  9
$AUPREC
 70
     0
  9
$MENU
  1
.
  9
$ELEVATION
 40
0.0
  9
$PELEVATION
 40
0.0
  9
$THICKNESS
 40
0.0
  9
$LIMCHECK
 70
     0
  9
$BLIPMODE
 70
     0
  9
$CHAMFERA
 40
0.0
  9
$CHAMFERB
 40
0.0
  9
$SKPOLY
 70
     0
  9
$TDCREATE
 40
2455961.6453587161
  9
$TDUPDATE
 40
2456647.3794347569
  9
$TDINDWG
 40
0.1922272801
  9
$TDUSRTIMER
 40
0.1922229514
  9
$USRTIMER
 70
     1
  9
$ANGBASE
 50
0.0
  9
$ANGDIR
 70
     0
  9
$PDMODE
 70
     0
  9
$PDSIZE
 40
0.0
  9
$PLINEWID
 40
0.0
  9
$COORDS
 70
     1
  9
$SPLFRAME
 70
     0
  9
$SPLINETYPE
 70
     6
  9
$SPLINESEGS
 70
     8
  9
$ATTDIA
 70
     1
  9
$ATTREQ
 70
     1
  9
$HANDLING
 70
     1
  9
$HANDSEED
  5
423467
  9
$SURFTAB1
 70
     6
  9
$SURFTAB2
 70
     6
  9
$SURFTYPE
 70
     6
  9
$SURFU
 70
     6
  9
$SURFV
 70
     6
  9
$UCSNAME
  2

  9
$UCSORG
 10
0.0
 20
0.0
 30
0.0
  9
$UCSXDIR
 10
1.0
 20
0.0
 30
0.0
  9
$UCSYDIR
 10
0.0
 20
1.0
 30
0.0
  9
$PUCSNAME
  2

  9
$PUCSORG
 10
0.0
 20
0.0
 30
0.0
  9
$PUCSXDIR
 10
1.0
 20
0.0
 30
0.0
  9
$PUCSYDIR
 10
0.0
 20
1.0
 30
0.0
  9
$USERI1
 70
     0
  9
$USERI2
 70
     0
  9
$USERI3
 70
     0
  9
$USERI4
 70
     0
  9
$USERI5
 70
     0
  9
$USERR1
 40
0.0
  9
$USERR2
 40
0.0
  9
$USERR3
 40
0.0
  9
$USERR4
 40
0.0
  9
$USERR5
 40
0.0
  9
$WORLDVIEW
 70
     1
  9
$SHADEDGE
 70
     3
  9
$SHADEDIF
 70
    70
  9
$TILEMODE
 70
     1
  9
$MAXACTVP
 70
    64
  9
$PLIMCHECK
 70
     0
  9
$PEXTMIN
 10
0.0
 20
0.0
 30
0.0
  9
$PEXTMAX
 10
2940.0
 20
2079.0
 30
0.0
  9
$PLIMMIN
 10
0.0
 20
0.0
  9
$PLIMMAX
 10
2940.0
 20
2079.0
  9
$UNITMODE
 70
     0
  9
$VISRETAIN
 70
     1
  9
$PLINEGEN
 70
     0
  9
$PSLTSCALE
 70
     1
  0
ENDSEC
  0
SECTION
  2
TABLES
  0
TABLE
  2
VPORT
 70
     1
  0
VPORT
  2
*ACTIVE
 70
     0
 10
0.0
 20
0.0
 11
1.0
 21
1.0
 12
927.73727376256556
 22
1042.153635336547
 13
0.0
 23
0.0
 14
1.0
 24
1.0
 15
0.0
 25
0.0
 16
0.0
 26
0.0
 36
1.0
 17
0.0
 27
0.0
 37
0.0
 40
2466.515032496628
 41
1.6508620689655169
 42
50.0
 43
0.0
 44
0.0
 50
0.0
 51
0.0
 71
     0
 72
   100
 73
     1
 74
     1
 75
     0
 76
     0
 77
     0
 78
     0
  0
ENDTAB
  0
TABLE
  2
LTYPE
 70
    15
  0
LTYPE
  2
CONTINUOUS
 70
     0
  3
Solid line
 72
    65
 73
     0
 40
0.0
  0
LTYPE
  2
PHANTOM2
 70
     0
  3
Phantom (.5x) ___ _ _ ___ _ _ ___ _ _ ___ _ _
 72
    65
 73
     6
 40
1.25
 49
0.625
 49
-0.125
 49
0.125
 49
-0.125
 49
0.125
 49
-0.125
  0
LTYPE
  2
CENTER
 70
     0
  3
Center ____ _ ____ _ ____ _ ____ _ ____ _ ____
 72
    65
 73
     4
 40
2.0
 49
1.25
 49
-0.25
 49
0.25
 49
-0.25
  0
LTYPE
  2
CENTER2
 70
     0
  3
Center (.5x) ___ _ ___ _ ___ _ ___ _ ___ _ ___
 72
    65
 73
     4
 40
1.125
 49
0.75
 49
-0.125
 49
0.125
 49
-0.125
  0
LTYPE
  2
HIDDEN
 70
     0
  3
Hidden __ __ __ __ __ __ __ __ __ __ __ __ __ _
 72
    65
 73
     2
 40
0.375
 49
0.25
 49
-0.125
  0
LTYPE
  2
HIDDEN2
 70
     0
  3
Hidden (.5x) _ _ _ _ _ _ _ _ _ _ _ _ _ _ _ _ _
 72
    65
 73
     2
 40
0.1875
 49
0.125
 49
-0.0625
  0
LTYPE
  2
AMCONSTR
 70
     0
  3
_______________________
 72
    65
 73
     2
 40
9999.0
 49
9999.0
 49
0.0
  0
LTYPE
  2
AMZIGZAG2
 70
     0
  3
/\/-/\/-/\/-/\/-/\/-/\/
 72
    65
 73
     2
 40
0.4401
 49
0.0001
 49
-0.4400000000000003
  0
LTYPE
  2
ACANSTGB
 70
     0
  3
__ . . __ . .
 72
    65
 73
     6
 40
0.35433070866
 49
0.15748031496
 49
-0.03937007874
 49
0.03937007874
 49
-0.03937007874
 49
0.03937007874
 49
-0.03937007874
  0
LTYPE
  2
ACANSTGL
 70
     0
  3
_ _ _ _ _
 72
    65
 73
     2
 40
0.11811023622
 49
0.07874015748
 49
-0.03937007874
  0
LTYPE
  2
ACISOWELD
 70
     0
  3
_ _ _ _ _
 72
    65
 73
     2
 40
2.0
 49
2.0
 49
-1.0
  0
LTYPE
  2
ACISOTGL
 70
     0
  3
_ _ _ _ _
 72
    65
 73
     2
 40
3.0
 49
2.0
 49
-1.0
  0
LTYPE
  2
ACISOTGB
 70
     0
  3
__ . . __ . .
 72
    65
 73
     6
 40
9.0
 49
4.0
 49
-1.0
 49
1.0
 49
-1.0
 49
1.0
 49
-1.0
  0
ENDTAB
  0
TABLE
  2
LAYER
 70
     9
  0
LAYER
  2
0
 70
     0
 62
     7
  6
CONTINUOUS
  0
LAYER
  2
OUTLINE
 70
     0
 62
     7
  6
CONTINUOUS
  0
LAYER
  2
SKETCH_GEOMETRY__ANSI_
 70
     0
 62
     7
  6
CONTINUOUS
  0
LAYER
  2
DIMENSION
 70
     0
 62
     7
  6
CONTINUOUS
  0
LAYER
  2
SYMBOL
 70
     0
 62
     7
  6
CONTINUOUS
  0
LAYER
  2
VISIBLE
 70
     0
 62
     7
  6
CONTINUOUS
  0
LAYER
  2
DEFPOINTS
 70
     0
 62
     7
  6
CONTINUOUS
  0
LAYER
  2
TEXT
 70
     0
 62
   100
  6
CONTINUOUS
  0
LAYER
  2
OVERLAY-A3
 70
     0
 62
     7
  6
CONTINUOUS
  0
ENDTAB
  0
TABLE
  2
STYLE
 70
    10
  0
STYLE
  2
STANDARD
 70
     0
 40
0.0
 41
1.0
 50
0.0
 71
     0
 42
0.2
  3
txt
  4

  0
STYLE
  2
ANNOTATIVE
 70
     0
 40
0.0
 41
1.0
 50
0.0
 71
     0
 42
0.2
  3
txt
  4

  0
STYLE
  2
NOTE_TEXT
 70
     0
 40
0.0
 41
1.0
 50
0.0
 71
     0
 42
0.2
  3
txt.shx
  4
bigfont.shx
  0
STYLE
  2
ACANSGDT
 70
     0
 40
0.0
 41
1.0
 50
0.0
 71
     0
 42
0.2
  3
amgdt.shx
  4

  0
STYLE
  2
SIMPLEX
 70
     0
 40
30.0
 41
1.0
 50
0.0
 71
     0
 42
25.0
  3
SIMPLEX.shx
  4

  0
STYLE
  2
TITLE3
 70
     0
 40
25.0
 41
1.0
 50
0.0
 71
     0
 42
25.0
  3
SIMPLEX
  4

  0
STYLE
  2
TITLE5
 70
     0
 40
50.0
 41
1.0
 50
0.0
 71
     0
 42
50.0
  3
SIMPLEX
  4

  0
STYLE
  2
NOTE_TEXT0
 70
     0
 40
0.0
 41
1.0
 50
0.0
 71
     0
 42
0.2
  3
txt
  4

  0
STYLE
  2
ACISOGDT
 70
     0
 40
0.0
 41
1.0
 50
0.0
 71
     0
 42
0.2
  3
amgdt.shx
  4

  0
STYLE
  2
ACANSTS
 70
     0
 40
1.0
 41
1.0
 50
0.0
 71
     0
 42
0.2
  3
romans.shx
  4

  0
ENDTAB
  0
TABLE
  2
VIEW
 70
     0
  0
ENDTAB
  0
TABLE
  2
UCS
 70
     0
  0
ENDTAB
  0
TABLE
  2
APPID
 70
    17
  0
APPID
  2
ACAD
 70
     0
  0
APPID
  2
ACADANNOTATIVE
 70
     0
  0
APPID
  2
ACADANNOPO
 70
     0
  0
APPID
  2
ACAD_MLEADERVER
 70
     0
  0
APPID
  2
MCAD_NO_VIS
 70
     0
  0
APPID
  2
ACAD_TEMP_GRAPHIC
 70
     0
  0
APPID
  2
ACATTRIBSERVICES
 70
     0
  0
APPID
  2
DESIGNERASSEMBLIES
 70
     0
  0
APPID
  2
ACAD_DSTYLE_DIMJAG
 70
     0
  0
APPID
  2
ACAD_DSTYLE_DIMBREAK
 70
     0
  0
APPID
  2
ACAD_NAV_VCDISPLAY
 70
     0
  0
APPID
  2
ACAD_EXEMPT_FROM_CAD_STANDARDS
 70
     0
  0
APPID
  2
ACAD_PSEXT
 70
     0
  0
APPID
  2
ACAD_DSTYLE_DIMARC_LENGTH_
 70
     0
  0
APPID
  2
ACAD_DSTYLE_DIM_LINETYPE
 70
     0
  0
APPID
  2
ACAD_DSTYLE_DIM_EXT1_LINETYPE
 70
     0
  0
APPID
  2
ACAD_DSTYLE_DIM_EXT2_LINETYPE
 70
     0
  0
ENDTAB
  0
TABLE
  2
DIMSTYLE
 70
    18
  0
DIMSTYLE
  2
STANDARD
 70
     0
  3

  4

  5

  6

  7

 40
1.0
 41
0.18
 42
0.0625
 43
0.38
 44
0.18
 45
0.0
 46
0.0
 47
0.0
 48
0.0
140
0.18
141
0.09
142
0.0
143
25.399999999999999
144
1.0
145
0.0
146
1.0
147
0.09
 71
     0
 72
     0
 73
     1
 74
     1
 75
     0
 76
     0
 77
     0
 78
     0
170
     0
171
     2
172
     0
173
     0
174
     0
175
     0
176
     0
177
     0
178
     0
  0
DIMSTYLE
  2
ANNOTATIVE
 70
     0
  3

  4

  5

  6

  7

 40
1.0
 41
0.18
 42
0.0625
 43
0.38
 44
0.18
 45
0.0
 46
0.0
 47
0.0
 48
0.0
140
0.18
141
0.09
142
0.0
143
25.399999999999999
144
1.0
145
0.0
146
1.0
147
0.09
 71
     0
 72
     0
 73
     1
 74
     1
 75
     0
 76
     0
 77
     0
 78
     0
170
     0
171
     2
172
     0
173
     0
174
     0
175
     0
176
     0
177
     0
178
     0
  0
DIMSTYLE
  2
AM_ANSI
 70
     0
  3

  4
mm
  5

  6

  7

 40
1.0
 41
0.12
 42
0.05
 43
0.5
 44
0.1
 45
0.0
 46
0.0
 47
0.1
 48
0.1
140
0.12
141
0.0
142
0.0
143
25.399999999999999
144
1.0
145
0.0
146
0.71
147
0.06
 71
     0
 72
     0
 73
     1
 74
     1
 75
     0
 76
     0
 77
     0
 78
     7
170
     0
171
     2
172
     0
173
     0
174
     0
175
     0
176
   256
177
   256
178
     2
  0
DIMSTYLE
  2
AM_ANSI$3
 70
     0
  3

  4
mm
  5

  6

  7

 40
1.0
 41
0.12
 42
0.05
 43
0.5
 44
0.1
 45
0.0
 46
0.0
 47
0.1
 48
0.1
140
0.12
141
0.0
142
0.0
143
25.399999999999999
144
1.0
145
0.0
146
0.71
147
0.06
 71
     0
 72
     0
 73
     1
 74
     1
 75
     0
 76
     0
 77
     0
 78
     7
170
     0
171
     2
172
     0
173
     0
174
     0
175
     0
176
   256
177
   256
178
     2
  0
DIMSTYLE
  2
AM_ANSI$4
 70
     0
  3

  4
mm
  5

  6

  7

 40
1.0
 41
0.12
 42
0.05
 43
0.5
 44
0.1
 45
0.0
 46
0.0
 47
0.1
 48
0.1
140
0.12
141
0.0
142
0.0
143
25.399999999999999
144
1.0
145
0.0
146
0.71
147
0.06
 71
     0
 72
     0
 73
     1
 74
     1
 75
     0
 76
     0
 77
     0
 78
     7
170
     0
171
     2
172
     0
173
     0
174
     0
175
     0
176
   256
177
   256
178
     2
  0
DIMSTYLE
  2
AM_ANSI$7
 70
     0
  3

  4
mm
  5

  6

  7

 40
1.0
 41
0.12
 42
0.05
 43
0.5
 44
0.1
 45
0.0
 46
0.0
 47
0.1
 48
0.1
140
0.12
141
0.0
142
0.0
143
25.399999999999999
144
1.0
145
0.0
146
0.71
147
0.06
 71
     0
 72
     0
 73
     1
 74
     1
 75
     0
 76
     0
 77
     0
 78
     7
170
     0
171
     2
172
     0
173
     0
174
     0
175
     0
176
   256
177
   256
178
     2
  0
DIMSTYLE
  2
AM_ANSI$SF
 70
     0
  3

  4
mm
  5

  6

  7

 40
1.0
 41
0.12
 42
0.05
 43
0.5
 44
0.1
 45
0.0
 46
0.0
 47
0.1
 48
0.1
140
0.12
141
0.0
142
0.0
143
25.399999999999999
144
1.0
145
0.0
146
0.71
147
0.06
 71
     0
 72
     0
 73
     1
 74
     1
 75
     1
 76
     1
 77
     0
 78
     7
170
     0
171
     2
172
     0
173
     0
174
     0
175
     0
176
   256
177
   256
178
     2
  0
DIMSTYLE
  2
AM_ANSI$SH
 70
     0
  3

  4
mm
  5

  6

  7

 40
1.0
 41
0.12
 42
0.05
 43
0.5
 44
0.1
 45
0.0
 46
0.0
 47
0.1
 48
0.1
140
0.12
141
0.0
142
0.0
143
25.399999999999999
144
1.0
145
0.0
146
0.71
147
0.06
 71
     0
 72
     0
 73
     1
 74
     1
 75
     1
 76
     1
 77
     0
 78
     7
170
     0
171
     2
172
     0
173
     1
174
     0
175
     0
176
   256
177
   256
178
     2
  0
DIMSTYLE
  2
OUTSIDE_DIMENSION
 70
     0
  3

  4

  5

  6

  7

 40
10.0
 41
2.5
 42
1.600199999999999
 43
5.9999999999999991
 44
3.174999999999998
 45
0.00000001
 46
10.0
 47
0.0
 48
0.0
140
3.0480000972747781
141
0.09
142
0.0
143
1.0
144
1.0
145
0.0
146
1.0
147
0.8
 71
     0
 72
     0
 73
     0
 74
     1
 75
     0
 76
     0
 77
     0
 78
     0
170
     0
171
     1
172
     0
173
     0
174
     0
175
     0
176
   256
177
   256
178
   256
  0
DIMSTYLE
  2
PIPEWORK
 70
     0
  3

  4

  5

  6

  7

 40
10.0
 41
2.5
 42
1.600199999999999
 43
5.9999999999999991
 44
3.174999999999998
 45
0.00000001
 46
10.0
 47
0.0
 48
0.0
140
3.0480000972747781
141
0.09
142
0.0
143
1.0
144
1.0
145
0.0
146
1.0
147
0.8
 71
     0
 72
     0
 73
     0
 74
     1
 75
     0
 76
     0
 77
     0
 78
     8
170
     0
171
     1
172
     0
173
     0
174
     0
175
     0
176
   256
177
   256
178
   256
  0
DIMSTYLE
  2
AM_ISO
 70
     0
  3

  4
"
  5

  6

  7

 40
1.0
 41
3.5
 42
1.0
 43
10.0
 44
1.0
 45
0.0
 46
0.0
 47
0.1
 48
0.1
140
3.5
141
0.0
142
0.0
143
0.0393701
144
1.0
145
0.0
146
0.71
147
1.5
 71
     0
 72
     0
 73
     0
 74
     0
 75
     0
 76
     0
 77
     1
 78
     8
170
     0
171
     2
172
     1
173
     0
174
     0
175
     0
176
   256
177
   256
178
     2
  0
DIMSTYLE
  2
AM_ISO$3
 70
     0
  3

  4
"
  5

  6

  7

 40
1.0
 41
3.5
 42
1.0
 43
10.0
 44
1.0
 45
0.0
 46
0.0
 47
0.1
 48
0.1
140
3.5
141
0.0
142
0.0
143
0.0393701
144
1.0
145
0.0
146
0.71
147
1.5
 71
     0
 72
     0
 73
     0
 74
     1
 75
     0
 76
     0
 77
     1
 78
     8
170
     0
171
     2
172
     0
173
     0
174
     0
175
     0
176
   256
177
   256
178
     2
  0
DIMSTYLE
  2
AM_ISO$4
 70
     0
  3

  4
"
  5

  6

  7

 40
1.0
 41
3.5
 42
1.0
 43
10.0
 44
1.0
 45
0.0
 46
0.0
 47
0.1
 48
0.1
140
3.5
141
0.0
142
0.0
143
0.0393701
144
1.0
145
0.0
146
0.71
147
1.5
 71
     0
 72
     0
 73
     0
 74
     1
 75
     0
 76
     0
 77
     1
 78
     8
170
     0
171
     2
172
     0
173
     0
174
     0
175
     0
176
   256
177
   256
178
     2
  0
DIMSTYLE
  2
AM_ISO$6
 70
     0
  3

  4
"
  5

  6

  7

 40
1.0
 41
3.5
 42
1.0
 43
10.0
 44
1.0
 45
0.0
 46
0.0
 47
0.1
 48
0.1
140
3.5
141
0.0
142
0.0
143
0.0393701
144
1.0
145
0.0
146
0.71
147
1.5
 71
     0
 72
     0
 73
     0
 74
     0
 75
     0
 76
     0
 77
     0
 78
     8
170
     0
171
     2
172
     1
173
     0
174
     0
175
     0
176
   256
177
   256
178
     2
  0
DIMSTYLE
  2
AM_ISO$7
 70
     0
  3

  4
"
  5

  6

  7

 40
1.0
 41
3.5
 42
1.0
 43
10.0
 44
1.0
 45
0.0
 46
0.0
 47
0.1
 48
0.1
140
3.5
141
0.0
142
0.0
143
0.0393701
144
1.0
145
0.0
146
0.71
147
1.5
 71
     0
 72
     0
 73
     0
 74
     0
 75
     0
 76
     0
 77
     1
 78
     8
170
     0
171
     2
172
     1
173
     0
174
     0
175
     0
176
   256
177
   256
178
     2
  0
DIMSTYLE
  2
AM_ISO$SF
 70
     0
  3

  4
"
  5

  6

  7

 40
1.0
 41
3.5
 42
1.0
 43
10.0
 44
1.0
 45
0.0
 46
0.0
 47
0.1
 48
0.1
140
3.5
141
0.0
142
0.0
143
0.0393701
144
1.0
145
0.0
146
0.71
147
1.5
 71
     0
 72
     0
 73
     0
 74
     0
 75
     1
 76
     1
 77
     1
 78
     8
170
     0
171
     2
172
     1
173
     0
174
     0
175
     0
176
   256
177
   256
178
     2
  0
DIMSTYLE
  2
AM_ISO$SH
 70
     0
  3

  4
"
  5

  6

  7

 40
1.0
 41
3.5
 42
1.0
 43
10.0
 44
1.0
 45
0.0
 46
0.0
 47
0.1
 48
0.1
140
3.5
141
0.0
142
0.0
143
0.0393701
144
2.0
145
0.0
146
0.71
147
1.5
 71
     0
 72
     0
 73
     0
 74
     0
 75
     1
 76
     1
 77
     1
 78
     8
170
     0
171
     2
172
     1
173
     1
174
     0
175
     0
176
   256
177
   256
178
     2
  0
ENDTAB
  0
ENDSEC
  0
SECTION
  2
BLOCKS
  0
BLOCK
  8
0
  2
$MODEL_SPACE
 70
     0
 10
0.0
 20
0.0
 30
0.0
  3
$MODEL_SPACE
  1

  0
ENDBLK
  5
422FD9
  8
0
  0
BLOCK
 67
     1
  8
0
  2
$PAPER_SPACE
 70
     0
 10
0.0
 20
0.0
 30
0.0
  3
$PAPER_SPACE
  1

  0
ENDBLK
  5
422FD5
 67
     1
  8
0
  0
BLOCK
  8
0
  2
AIR_FLOW_ARROW
 70
     0
 10
0.0
 20
0.0
 30
0.0
  3
AIR_FLOW_ARROW
  1

  0
INSERT
  5
79
  8
OUTLINE
  6
CONTINUOUS
  2
*U3
 10
0.0
 20
0.0
 30
0.0
1001
ACAD
1002
{
1000
R14_HATCH_DATA
1000
79
1011
1.0
1021
0.0
1031
0.0
1021
0.0
1031
0.0
1011
0.0
1021
0.0
1031
0.0
1021
1.0
1031
0.0
1011
0.0
1021
0.0
1031
0.0
1021
0.0
1031
1.0
1040
0.0
1010
0.0
1020
0.0
1030
1.0
1000
SOLID
1070
     1
1070
     0
1071
        1
1071
        1
1071
        3
1070
     1
1040
0.0
1040
-5.8677570360447362
1040
-1.171875
1040
1.163492963955262
1070
     1
1040
-1.171875
1040
1.163492963955262
1040
1.171875
1040
1.163492963955262
1070
     1
1040
1.171875
1040
1.163492963955262
1040
0.0
1040
-5.8677570360447362
1071
        0
1070
     0
1070
     1
1071
        1
1040
0.0
1040
0.0
1040
0.0
1002
}
  0
LINE
  5
7B
  8
SKETCH_GEOMETRY__ANSI_
 10
1.171875
 20
1.163492963955262
 30
0.0
 11
0.0
 21
-5.8677570360447362
 31
0.0
  0
LINE
  5
7D
  8
SKETCH_GEOMETRY__ANSI_
 10
0.0
 20
-5.8677570360447362
 30
0.0
 11
-1.171875
 21
1.163492963955262
 31
0.0
  0
LINE
  5
7E
  8
SKETCH_GEOMETRY__ANSI_
 10
-1.171875
 20
1.163492963955262
 30
0.0
 11
1.171875
 21
1.163492963955262
 31
0.0
  0
LINE
  5
7F
  8
OUTLINE
 10
0.0
 20
1.157503906667898
 30
0.0
 11
0.0
 21
5.8677570360447362
 31
0.0
  0
ENDBLK
  5
80
  8
0
  0
BLOCK
  8
0
  2
*U3
 70
     1
 10
0.0
 20
0.0
 30
0.0
  3
*U3
  1

  0
SOLID
  5
333F
  8
OUTLINE
  6
CONTINUOUS
 10
1.171875
 20
1.163492963955262
 30
0.0
 11
-1.171875
 21
1.163492963955262
 31
0.0
 12
0.0
 22
-5.8677570360447362
 32
0.0
 13
0.0
 23
-5.8677570360447362
 33
0.0
210
0.0
220
0.0
230
-1.0
  0
LINE
  5
3340
  8
OUTLINE
  6
CONTINUOUS
 10
1.171875
 20
1.163492963955262
 30
0.0
 11
0.0
 21
-5.8677570360447362
 31
0.0
  0
LINE
  5
3341
  8
OUTLINE
  6
CONTINUOUS
 10
0.0
 20
-5.8677570360447362
 30
0.0
 11
-1.171875
 21
1.163492963955262
 31
0.0
  0
ENDBLK
  5
3343
  8
0
  0
BLOCK
  8
0
  2
*U4
 70
     1
 10
0.0
 20
0.0
 30
0.0
  3
*U4
  1

  0
TEXT
  5
33BF
  8
SYMBOL
 10
1895.08987954739
 20
637.02733469744351
 30
0.0
 40
21.336000263690948
  1
AIR
  7
NOTE_TEXT
  0
TEXT
  5
33C0
  8
SYMBOL
 10
1877.3098793276481
 20
601.89817339654599
 30
0.0
 40
21.336000263690948
  1
FLOW
  7
NOTE_TEXT
  0
ENDBLK
  5
33C2
  8
0
  0
BLOCK
  8
0
  2
*U5
 70
     1
 10
0.0
 20
0.0
 30
0.0
  3
*U5
  1

  0
TEXT
  5
33C4
  8
SYMBOL
 10
2811.9317019207729
 20
529.88536144751833
 30
0.0
 40
21.336000263690948
  1
AIR
  7
NOTE_TEXT
  0
TEXT
  5
33C5
  8
SYMBOL
 10
2794.151701701031
 20
494.75620014662081
 30
0.0
 40
21.336000263690948
  1
FLOW
  7
NOTE_TEXT
  0
ENDBLK
  5
33C7
  8
0
  0
BLOCK
  8
0
  2
*U6
 70
     1
 10
0.0
 20
0.0
 30
0.0
  3
*U6
  1

  0
TEXT
  5
33C9
  8
SYMBOL
 10
237.1350234024838
 20
280.27975902101792
 30
0.0
 40
21.336000263690948
  1
Ø19 DRAIN
  7
NOTE_TEXT
  0
TEXT
  5
33CA
  8
SYMBOL
 10
328.1686245275651
 20
244.719758581533
 30
0.0
 40
21.336000263690948
  1
PIPE
  7
NOTE_TEXT
  0
ENDBLK
  5
33CC
  8
0
  0
BLOCK
  8
0
  2
*U7
 70
     1
 10
0.0
 20
0.0
 30
0.0
  3
*U7
  1

  0
SOLID
  5
33CE
  8
SYMBOL
 10
427.71058181523892
 20
337.22207276418271
 30
0.0
 11
433.66577107243592
 21
353.93412426468421
 31
0.0
 12
433.45260874822321
 22
336.19401416728118
 32
0.0
 13
433.45260874822321
 23
336.19401416728118
 33
0.0
  0
POLYLINE
  5
33CF
  8
SYMBOL
 66
     1
 10
0.0
 20
0.0
 30
0.0
  0
VERTEX
  5
33D0
  8
SYMBOL
 10
430.58159528173121
 20
336.70804346573192
 30
0.0
  0
VERTEX
  5
33D1
  8
SYMBOL
 10
422.38862540653452
 20
290.94775915286323
 30
0.0
  0
VERTEX
  5
33D2
  8
SYMBOL
 10
404.88862540653457
 20
290.94775915286323
 30
0.0
  0
SEQEND
  5
33D3
  8
SYMBOL
  0
ENDBLK
  5
33D5
  8
0
  0
BLOCK
  8
0
  2
NEW_BLOCK
 70
     0
 10
0.0
 20
0.0
 30
0.0
  3
NEW_BLOCK
  1

  0
TEXT
  5
41F812
  8
TEXT
 10
27.285946821803002
 20
25.27142175952417
 30
0.0
 40
40.0
  1
available on request
  7
TITLE3
  0
TEXT
  5
41F813
  8
TEXT
 10
27.285946821803002
 20
93.842850330952714
 30
0.0
 40
40.0
  1
Certified dimensions
  7
TITLE3
  0
TEXT
  5
41F814
  8
TEXT
 10
27.285946821803002
 20
162.4142789023812
 30
0.0
 40
40.0
  1
without notice or obligation.
  7
TITLE3
  0
TEXT
  5
41F815
  8
TEXT
 10
27.285946821803002
 20
230.9857074738097
 30
0.0
 40
40.0
  1
specifications at any time
  7
TITLE3
  0
TEXT
  5
41F816
  8
TEXT
 10
27.285946821803002
 20
299.55713604523839
 30
0.0
 40
40.0
  1
the right to change 
  7
TITLE3
  0
TEXT
  5
41F817
  8
TEXT
 10
27.285946821803002
 20
436.69999318809488
 30
0.0
 40
40.0
  1
NOTE
  7
TITLE3
  0
TEXT
  5
41F818
  8
TEXT
 10
27.285946821803002
 20
368.12856461666678
 30
0.0
 40
40.0
  1
The manufacturer reserves
  7
TITLE3
  0
ENDBLK
  5
41F819
  8
0
  0
BLOCK
  8
0
  2
*U9
 70
     1
 10
0.0
 20
0.0
 30
0.0
  3
*U9
  1

  0
SOLID
  5
42055D
  8
SYMBOL
 10
427.71058181523892
 20
337.22207276418271
 30
0.0
 11
433.66577107243592
 21
353.93412426468421
 31
0.0
 12
433.45260874822321
 22
336.19401416728118
 32
0.0
 13
433.45260874822321
 23
336.19401416728118
 33
0.0
  0
POLYLINE
  5
42055E
  8
SYMBOL
 66
     1
 10
0.0
 20
0.0
 30
0.0
  0
VERTEX
  5
42055F
  8
SYMBOL
 10
430.58159528173121
 20
336.70804346573192
 30
0.0
  0
VERTEX
  5
420560
  8
SYMBOL
 10
422.38862540653452
 20
290.94775915286323
 30
0.0
  0
VERTEX
  5
420561
  8
SYMBOL
 10
404.88862540653457
 20
290.94775915286323
 30
0.0
  0
SEQEND
  5
420562
  8
SYMBOL
  0
ENDBLK
  5
420563
  8
0
  0
BLOCK
  8
0
  2
GENAXEH
 70
     0
 10
0.0
 20
0.0
 30
0.0
  3
GENAXEH
  1

  0
LINE
  5
4211F8
  8
0
 10
-1.0
 20
0.0
 30
0.0
 11
1.0
 21
0.0
 31
0.0
  0
ENDBLK
  5
4211F9
  8
0
  0
BLOCK
  8
0
  2
*D11
 70
     1
 10
0.0
 20
0.0
 30
0.0
  3
*D11
  1

  0
LINE
  5
4218DF
  8
DIMENSION
 10
97.366058885016187
 20
1967.611273727957
 30
0.0
 11
97.366058885016187
 21
2045.1155527356109
 31
0.0
  0
LINE
  5
4218E0
  8
DIMENSION
 10
43.366058885000719
 20
1915.5112737280069
 30
0.0
 11
43.366058885000733
 21
2045.1155527356109
 31
0.0
  0
LINE
  5
4218E1
  8
DIMENSION
 10
122.3660588850162
 20
2013.3655527356109
 30
0.0
 11
147.36605888501609
 21
2013.3655527356109
 31
0.0
  0
LINE
  5
4218E2
  8
DIMENSION
 10
18.366058885000719
 20
2013.3655527356109
 30
0.0
 11
-10.84801221879567
 21
2013.3655527356109
 31
0.0
  0
SOLID
  5
4218E3
  8
DIMENSION
 10
122.3660588850162
 20
2017.5322194022781
 30
0.0
 11
122.3660588850162
 21
2009.1988860689439
 31
0.0
 12
97.366058885016187
 22
2013.3655527356109
 32
0.0
 13
97.366058885016187
 23
2013.3655527356109
 33
0.0
  0
SOLID
  5
4218E4
  8
DIMENSION
 10
18.366058885000719
 20
2017.5322194022781
 30
0.0
 11
18.366058885000719
 21
2009.1988860689439
 31
0.0
 12
43.366058885000733
 22
2013.3655527356109
 32
0.0
 13
43.366058885000733
 23
2013.3655527356109
 33
0.0
  0
TEXT
  5
4219A7
  8
DIMENSION
 10
-100.902
 20
1959.4200000000001
 30
0.0
 40
30.48
  1
54
  7
NOTE_TEXT0
  0
POINT
  5
4218E6
  8
DEFPOINTS
 62
     0
 10
97.366058885016187
 20
1951.6092737279571
 30
0.0
  0
POINT
  5
4218E7
  8
DEFPOINTS
 62
     0
 10
43.366058885000719
 20
1899.509273728007
 30
0.0
  0
POINT
  5
4218E8
  8
DEFPOINTS
 62
     0
 10
43.366058885000733
 20
2013.3655527356109
 30
0.0
  0
ENDBLK
  5
421508
  8
0
  0
BLOCK
  8
0
  2
*D12
 70
     1
 10
0.0
 20
0.0
 30
0.0
  3
*D12
  1

  0
LINE
  5
4218E9
  8
DIMENSION
 10
97.366058885016187
 20
1967.611273727957
 30
0.0
 11
97.366058885016187
 21
2045.1155527356109
 31
0.0
  0
LINE
  5
4218EA
  8
DIMENSION
 10
1489.2660588850169
 20
1967.611273727545
 30
0.0
 11
1489.2660588850169
 21
2045.1155527356109
 31
0.0
  0
LINE
  5
4218EB
  8
DIMENSION
 10
122.3660588850162
 20
2013.3655527356109
 30
0.0
 11
742.77916028100753
 21
2013.3655527356109
 31
0.0
  0
LINE
  5
4218EC
  8
DIMENSION
 10
1464.2660588850169
 20
2013.3655527356109
 30
0.0
 11
843.85295748902615
 21
2013.3655527356109
 31
0.0
  0
SOLID
  5
4218ED
  8
DIMENSION
 10
122.3660588850162
 20
2017.5322194022781
 30
0.0
 11
122.3660588850162
 21
2009.1988860689439
 31
0.0
 12
97.366058885016187
 22
2013.3655527356109
 32
0.0
 13
97.366058885016187
 23
2013.3655527356109
 33
0.0
  0
SOLID
  5
4218EE
  8
DIMENSION
 10
1464.2660588850169
 20
2017.5322194022781
 30
0.0
 11
1464.2660588850169
 21
2009.1988860689439
 31
0.0
 12
1489.2660588850169
 22
2013.3655527356109
 32
0.0
 13
1489.2660588850169
 23
2013.3655527356109
 33
0.0
  0
TEXT
  5
4219A8
  8
DIMENSION
 10
732.35600000000011
 20
1959.4200000000001
 30
0.0
 40
30.48
  1
1392
  7
NOTE_TEXT0
  0
POINT
  5
4218F0
  8
DEFPOINTS
 62
     0
 10
97.366058885016187
 20
1951.6092737279571
 30
0.0
  0
POINT
  5
4218F1
  8
DEFPOINTS
 62
     0
 10
1489.2660588850169
 20
1951.6092737275451
 30
0.0
  0
POINT
  5
4218F2
  8
DEFPOINTS
 62
     0
 10
1489.2660588850169
 20
2013.3655527356109
 30
0.0
  0
ENDBLK
  5
421515
  8
0
  0
BLOCK
  8
0
  2
*D13
 70
     1
 10
0.0
 20
0.0
 30
0.0
  3
*D13
  1

  0
LINE
  5
4218F3
  8
DIMENSION
 10
328.63605888480743
 20
1229.6072737278821
 30
0.0
 11
328.63605888480743
 21
1144.0816453405539
 31
0.0
  0
LINE
  5
4218F4
  8
DIMENSION
 10
44.316058884844999
 20
1356.6072737279751
 30
0.0
 11
44.316058884844963
 21
1144.0816453405539
 31
0.0
  0
LINE
  5
4218F5
  8
DIMENSION
 10
303.63605888480743
 20
1175.8316453405539
 30
0.0
 11
227.16683225855189
 21
1175.8316453405539
 31
0.0
  0
LINE
  5
4218F6
  8
DIMENSION
 10
69.316058884844963
 20
1175.8316453405539
 30
0.0
 11
145.7852855110994
 21
1175.8316453405539
 31
0.0
  0
SOLID
  5
4218F7
  8
DIMENSION
 10
303.63605888480743
 20
1179.9983120072211
 30
0.0
 11
303.63605888480743
 21
1171.6649786738869
 31
0.0
 12
328.63605888480743
 22
1175.8316453405539
 32
0.0
 13
328.63605888480743
 23
1175.8316453405539
 33
0.0
  0
SOLID
  5
4218F8
  8
DIMENSION
 10
69.316058884844963
 20
1179.9983120072211
 30
0.0
 11
69.316058884844963
 21
1171.6649786738869
 31
0.0
 12
44.316058884844963
 22
1175.8316453405539
 32
0.0
 13
44.316058884844963
 23
1175.8316453405539
 33
0.0
  0
TEXT
  5
4219A9
  8
DIMENSION
 10
125.51600000000001
 20
1121.8800000000001
 30
0.0
 40
30.48
  1
284
  7
NOTE_TEXT0
  0
POINT
  5
4218FA
  8
DEFPOINTS
 62
     0
 10
328.63605888480743
 20
1245.6092737278821
 30
0.0
  0
POINT
  5
4218FB
  8
DEFPOINTS
 62
     0
 10
44.316058884844999
 20
1372.6092737279751
 30
0.0
  0
POINT
  5
4218FC
  8
DEFPOINTS
 62
     0
 10
44.316058884844963
 20
1175.8316453405539
 30
0.0
  0
ENDBLK
  5
421522
  8
0
  0
BLOCK
  8
0
  2
*D14
 70
     1
 10
0.0
 20
0.0
 30
0.0
  3
*D14
  1

  0
LINE
  5
4218FD
  8
DIMENSION
 10
328.63605888480743
 20
1229.6072737278821
 30
0.0
 11
328.63605888480743
 21
1144.0816453405539
 31
0.0
  0
LINE
  5
4218FE
  8
DIMENSION
 10
1267.996058884808
 20
1229.607273727604
 30
0.0
 11
1267.996058884808
 21
1144.0816453405539
 31
0.0
  0
LINE
  5
4218FF
  8
DIMENSION
 10
353.63605888480743
 20
1175.8316453405539
 30
0.0
 11
757.54340505176503
 21
1175.8316453405539
 31
0.0
  0
LINE
  5
421900
  8
DIMENSION
 10
1242.996058884808
 20
1175.8316453405539
 30
0.0
 11
839.08871271780845
 21
1175.8316453405539
 31
0.0
  0
SOLID
  5
421901
  8
DIMENSION
 10
353.63605888480743
 20
1179.9983120072211
 30
0.0
 11
353.63605888480743
 21
1171.6649786738869
 31
0.0
 12
328.63605888480743
 22
1175.8316453405539
 32
0.0
 13
328.63605888480743
 23
1175.8316453405539
 33
0.0
  0
SOLID
  5
421902
  8
DIMENSION
 10
1242.996058884808
 20
1179.9983120072211
 30
0.0
 11
1242.996058884808
 21
1171.6649786738869
 31
0.0
 12
1267.996058884808
 22
1175.8316453405539
 32
0.0
 13
1267.996058884808
 23
1175.8316453405539
 33
0.0
  0
TEXT
  5
4219AA
  8
DIMENSION
 10
737.35600000000011
 20
1121.8800000000001
 30
0.0
 40
30.48
  1
939
  7
NOTE_TEXT0
  0
POINT
  5
421904
  8
DEFPOINTS
 62
     0
 10
328.63605888480743
 20
1245.6092737278821
 30
0.0
  0
POINT
  5
421905
  8
DEFPOINTS
 62
     0
 10
1267.996058884808
 20
1245.609273727604
 30
0.0
  0
POINT
  5
421906
  8
DEFPOINTS
 62
     0
 10
1267.996058884808
 20
1175.8316453405539
 30
0.0
  0
ENDBLK
  5
42152F
  8
0
  0
BLOCK
  8
0
  2
*D15
 70
     1
 10
0.0
 20
0.0
 30
0.0
  3
*D15
  1

  0
LINE
  5
421907
  8
DIMENSION
 10
2732.3246075226489
 20
909.71858527252994
 30
0.0
 11
2857.7298290819708
 21
909.71858527252994
 31
0.0
  0
LINE
  5
421908
  8
DIMENSION
 10
2780.4246075226488
 20
796.56858527252973
 30
0.0
 11
2857.7298290819708
 21
796.56858527252973
 31
0.0
  0
LINE
  5
421909
  8
DIMENSION
 10
2825.979829081969
 20
821.56858527252973
 30
0.0
 11
2825.979829081969
 21
884.71858527252994
 31
0.0
  0
LINE
  5
42190A
  8
DIMENSION
 10
2825.979829081969
 20
909.71858527252994
 30
0.0
 11
2825.979829081969
 21
946.35338122764711
 31
0.0
  0
SOLID
  5
42190B
  8
DIMENSION
 10
2821.8131624153039
 20
821.56858527252973
 30
0.0
 11
2830.1464957486369
 21
821.56858527252973
 31
0.0
 12
2825.979829081969
 22
796.56858527252973
 32
0.0
 13
2825.979829081969
 23
796.56858527252973
 33
0.0
  0
SOLID
  5
42190C
  8
DIMENSION
 10
2821.8131624153039
 20
884.71858527252994
 30
0.0
 11
2830.1464957486369
 21
884.71858527252994
 31
0.0
 12
2825.979829081969
 22
909.71858527252994
 32
0.0
 13
2825.979829081969
 23
909.71858527252994
 33
0.0
  0
TEXT
  5
4219AB
  8
DIMENSION
 10
2765.02
 20
931.23199999999974
 30
0.0
 40
30.48
  1
113
  7
NOTE_TEXT0
  0
POINT
  5
42190E
  8
DEFPOINTS
 62
     0
 10
2716.3226075226489
 20
909.71858527252994
 30
0.0
  0
POINT
  5
42190F
  8
DEFPOINTS
 62
     0
 10
2764.4226075226488
 20
796.56858527252973
 30
0.0
  0
POINT
  5
421910
  8
DEFPOINTS
 62
     0
 10
2825.979829081969
 20
796.56858527252973
 30
0.0
  0
ENDBLK
  5
42153C
  8
0
  0
BLOCK
  8
0
  2
*D16
 70
     1
 10
0.0
 20
0.0
 30
0.0
  3
*D16
  1

  0
LINE
  5
421911
  8
DIMENSION
 10
2780.4246075226488
 20
431.51858527253017
 30
0.0
 11
2857.7298290819708
 21
431.51858527253017
 31
0.0
  0
LINE
  5
421912
  8
DIMENSION
 10
2780.4246075226488
 20
796.56858527252973
 30
0.0
 11
2857.7298290819708
 21
796.56858527252973
 31
0.0
  0
LINE
  5
421913
  8
DIMENSION
 10
2825.979829081969
 20
456.51858527253017
 30
0.0
 11
2825.979829081969
 21
573.80315442492872
 31
0.0
  0
LINE
  5
421914
  8
DIMENSION
 10
2825.979829081969
 20
771.56858527252973
 30
0.0
 11
2825.979829081969
 21
654.28401612013045
 31
0.0
  0
SOLID
  5
421915
  8
DIMENSION
 10
2821.8131624153039
 20
456.51858527253017
 30
0.0
 11
2830.1464957486369
 21
456.51858527253017
 31
0.0
 12
2825.979829081969
 22
431.51858527253017
 32
0.0
 13
2825.979829081969
 23
431.51858527253017
 33
0.0
  0
SOLID
  5
421916
  8
DIMENSION
 10
2821.8131624153039
 20
771.56858527252973
 30
0.0
 11
2830.1464957486369
 21
771.56858527252973
 31
0.0
 12
2825.979829081969
 22
796.56858527252973
 32
0.0
 13
2825.979829081969
 23
796.56858527252973
 33
0.0
  0
TEXT
  5
4219AC
  8
DIMENSION
 10
2765.02
 20
560.09400000000005
 30
0.0
 40
30.48
  1
365
  7
NOTE_TEXT0
  0
POINT
  5
421918
  8
DEFPOINTS
 62
     0
 10
2764.4226075226488
 20
431.51858527253017
 30
0.0
  0
POINT
  5
421919
  8
DEFPOINTS
 62
     0
 10
2764.4226075226488
 20
796.56858527252973
 30
0.0
  0
POINT
  5
42191A
  8
DEFPOINTS
 62
     0
 10
2825.979829081969
 20
796.56858527252973
 30
0.0
  0
ENDBLK
  5
421549
  8
0
  0
BLOCK
  8
0
  2
*D17
 70
     1
 10
0.0
 20
0.0
 30
0.0
  3
*D17
  1

  0
LINE
  5
42191B
  8
DIMENSION
 10
-338.0973844400072
 20
909.71858527252994
 30
0.0
 11
-134.40287555213931
 21
909.71858527252994
 31
0.0
  0
LINE
  5
42191C
  8
DIMENSION
 10
-213.047384439837
 20
773.61858527253025
 30
0.0
 11
-134.40287555213931
 21
773.61858527253025
 31
0.0
  0
LINE
  5
42191D
  8
DIMENSION
 10
-166.15287555213931
 20
798.61858527253025
 30
0.0
 11
-166.15287555213931
 21
884.71858527252994
 31
0.0
  0
LINE
  5
42191E
  8
DIMENSION
 10
-166.15287555213931
 20
909.71858527252994
 30
0.0
 11
-166.15287555213931
 21
945.85186341446285
 31
0.0
  0
SOLID
  5
42191F
  8
DIMENSION
 10
-170.31954221880591
 20
798.61858527253025
 30
0.0
 11
-161.98620888547259
 21
798.61858527253025
 31
0.0
 12
-166.15287555213931
 22
773.61858527253025
 32
0.0
 13
-166.15287555213931
 23
773.61858527253025
 33
0.0
  0
SOLID
  5
421920
  8
DIMENSION
 10
-170.31954221880591
 20
884.71858527252994
 30
0.0
 11
-161.98620888547259
 21
884.71858527252994
 31
0.0
 12
-166.15287555213931
 22
909.71858527252994
 32
0.0
 13
-166.15287555213931
 23
909.71858527252994
 33
0.0
  0
TEXT
  5
4219AD
  8
DIMENSION
 10
-227.113
 20
931.23199999999974
 30
0.0
 40
30.48
  1
136
  7
NOTE_TEXT0
  0
POINT
  5
421922
  8
DEFPOINTS
 62
     0
 10
-354.09938444000733
 20
909.71858527252994
 30
0.0
  0
POINT
  5
421923
  8
DEFPOINTS
 62
     0
 10
-229.04938443983701
 20
773.61858527253025
 30
0.0
  0
POINT
  5
421924
  8
DEFPOINTS
 62
     0
 10
-166.15287555213931
 20
773.61858527253025
 30
0.0
  0
ENDBLK
  5
421556
  8
0
  0
BLOCK
  8
0
  2
*D18
 70
     1
 10
0.0
 20
0.0
 30
0.0
  3
*D18
  1

  0
LINE
  5
421925
  8
DIMENSION
 10
-213.047384439837
 20
773.61858527253025
 30
0.0
 11
-134.40287555213931
 21
773.61858527253025
 31
0.0
  0
LINE
  5
421926
  8
DIMENSION
 10
-213.047384439837
 20
473.85058527253022
 30
0.0
 11
-134.40287555213931
 21
473.85058527253022
 31
0.0
  0
LINE
  5
421927
  8
DIMENSION
 10
-166.15287555213931
 20
748.61858527253025
 30
0.0
 11
-166.15287555213931
 21
664.22065749801766
 31
0.0
  0
LINE
  5
421928
  8
DIMENSION
 10
-166.15287555213931
 20
498.85058527253022
 30
0.0
 11
-166.15287555213931
 21
583.24851304704282
 31
0.0
  0
SOLID
  5
421929
  8
DIMENSION
 10
-170.31954221880591
 20
748.61858527253025
 30
0.0
 11
-161.98620888547259
 21
748.61858527253025
 31
0.0
 12
-166.15287555213931
 22
773.61858527253025
 32
0.0
 13
-166.15287555213931
 23
773.61858527253025
 33
0.0
  0
SOLID
  5
42192A
  8
DIMENSION
 10
-170.31954221880599
 20
498.85058527253022
 30
0.0
 11
-161.98620888547271
 21
498.85058527253022
 31
0.0
 12
-166.15287555213931
 22
473.85058527253022
 32
0.0
 13
-166.15287555213931
 23
473.85058527253022
 33
0.0
  0
TEXT
  5
4219AE
  8
DIMENSION
 10
-227.113
 20
569.78499999999985
 30
0.0
 40
30.48
  1
300
  7
NOTE_TEXT0
  0
POINT
  5
42192C
  8
DEFPOINTS
 62
     0
 10
-229.04938443983701
 20
773.61858527253025
 30
0.0
  0
POINT
  5
42192D
  8
DEFPOINTS
 62
     0
 10
-229.04938443983701
 20
473.85058527253022
 30
0.0
  0
POINT
  5
42192E
  8
DEFPOINTS
 62
     0
 10
-166.15287555213931
 20
473.85058527253022
 30
0.0
  0
ENDBLK
  5
421563
  8
0
  0
BLOCK
  8
0
  2
*D19
 70
     1
 10
0.0
 20
0.0
 30
0.0
  3
*D19
  1

  0
LINE
  5
42192F
  8
DIMENSION
 10
-229.04938443983789
 20
786.72058527252989
 30
0.0
 11
-229.04938443983789
 21
991.92968153808511
 31
0.0
  0
LINE
  5
421930
  8
DIMENSION
 10
-352.14938443997568
 20
923.77058527253087
 30
0.0
 11
-352.14938443997568
 21
991.92968153808511
 31
0.0
  0
LINE
  5
421931
  8
DIMENSION
 10
-254.04938443983789
 20
960.17968153808522
 30
0.0
 11
-327.14938443997568
 21
960.17968153808522
 31
0.0
  0
LINE
  5
421932
  8
DIMENSION
 10
-352.14938443997568
 20
960.17968153808522
 30
0.0
 11
-404.90397087735857
 21
960.17968153808522
 31
0.0
  0
SOLID
  5
421933
  8
DIMENSION
 10
-254.04938443983789
 20
964.34634820475185
 30
0.0
 11
-254.04938443983789
 21
956.01301487141825
 31
0.0
 12
-229.04938443983789
 22
960.17968153808522
 32
0.0
 13
-229.04938443983789
 23
960.17968153808522
 33
0.0
  0
SOLID
  5
421934
  8
DIMENSION
 10
-327.14938443997568
 20
964.34634820475185
 30
0.0
 11
-327.14938443997568
 21
956.01301487141825
 31
0.0
 12
-352.14938443997568
 22
960.17968153808522
 32
0.0
 13
-352.14938443997568
 23
960.17968153808522
 33
0.0
  0
TEXT
  5
4219AF
  8
DIMENSION
 10
-504.69199999999989
 20
906.23000000000002
 30
0.0
 40
30.48
  1
123
  7
NOTE_TEXT0
  0
POINT
  5
421936
  8
DEFPOINTS
 62
     0
 10
-229.04938443983789
 20
770.71858527252994
 30
0.0
  0
POINT
  5
421937
  8
DEFPOINTS
 62
     0
 10
-352.14938443997568
 20
907.76858527253069
 30
0.0
  0
POINT
  5
421938
  8
DEFPOINTS
 62
     0
 10
-352.14938443997568
 20
960.17968153808522
 30
0.0
  0
ENDBLK
  5
421570
  8
0
  0
BLOCK
  8
0
  2
*D20
 70
     1
 10
0.0
 20
0.0
 30
0.0
  3
*D20
  1

  0
LINE
  5
421939
  8
DIMENSION
 10
-935.04938443997526
 20
809.67058527252959
 30
0.0
 11
-935.04938443997526
 21
991.92968153808511
 31
0.0
  0
LINE
  5
42193A
  8
DIMENSION
 10
-887.94938443997478
 20
923.7705852725303
 30
0.0
 11
-887.94938443997478
 21
991.92968153808511
 31
0.0
  0
LINE
  5
42193B
  8
DIMENSION
 10
-960.04938443997526
 20
960.17968153808522
 30
0.0
 11
-985.04938443997526
 21
960.17968153808522
 31
0.0
  0
LINE
  5
42193C
  8
DIMENSION
 10
-862.94938443997478
 20
960.17968153808522
 30
0.0
 11
-825.6033369626582
 21
960.17968153808522
 31
0.0
  0
SOLID
  5
42193D
  8
DIMENSION
 10
-960.04938443997526
 20
964.34634820475185
 30
0.0
 11
-960.04938443997526
 21
956.01301487141825
 31
0.0
 12
-935.04938443997526
 22
960.17968153808522
 32
0.0
 13
-935.04938443997526
 23
960.17968153808522
 33
0.0
  0
SOLID
  5
42193E
  8
DIMENSION
 10
-862.94938443997478
 20
964.34634820475185
 30
0.0
 11
-862.94938443997478
 21
956.01301487141825
 31
0.0
 12
-887.94938443997478
 22
960.17968153808522
 32
0.0
 13
-887.94938443997478
 23
960.17968153808522
 33
0.0
  0
TEXT
  5
4219B0
  8
DIMENSION
 10
-856.84500000000003
 20
906.23000000000002
 30
0.0
 40
30.48
  1
47
  7
NOTE_TEXT0
  0
POINT
  5
421940
  8
DEFPOINTS
 62
     0
 10
-935.04938443997526
 20
793.66858527252975
 30
0.0
  0
POINT
  5
421941
  8
DEFPOINTS
 62
     0
 10
-887.94938443997478
 20
907.76858527253034
 30
0.0
  0
POINT
  5
421942
  8
DEFPOINTS
 62
     0
 10
-887.94938443997478
 20
960.17968153808522
 30
0.0
  0
ENDBLK
  5
42157D
  8
0
  0
BLOCK
  8
0
  2
*D21
 70
     1
 10
0.0
 20
0.0
 30
0.0
  3
*D21
  1

  0
LINE
  5
421943
  8
DIMENSION
 10
-229.04938443983789
 20
786.72058527252989
 30
0.0
 11
-229.04938443983789
 21
1059.708747547146
 31
0.0
  0
LINE
  5
421944
  8
DIMENSION
 10
-935.04938443997526
 20
809.67058527252959
 30
0.0
 11
-935.04938443997526
 21
1059.708747547146
 31
0.0
  0
LINE
  5
421945
  8
DIMENSION
 10
-254.04938443983789
 20
1027.9587475471469
 30
0.0
 11
-497.77773660615293
 21
1027.9587475471469
 31
0.0
  0
LINE
  5
421946
  8
DIMENSION
 10
-910.04938443997526
 20
1027.9587475471469
 30
0.0
 11
-666.32103227365906
 21
1027.9587475471469
 31
0.0
  0
SOLID
  5
421947
  8
DIMENSION
 10
-254.04938443983789
 20
1032.1254142138141
 30
0.0
 11
-254.04938443983789
 21
1023.7920808804799
 31
0.0
 12
-229.04938443983789
 22
1027.9587475471469
 32
0.0
 13
-229.04938443983789
 23
1027.9587475471469
 33
0.0
  0
SOLID
  5
421948
  8
DIMENSION
 10
-910.04938443997526
 20
1032.1254142138141
 30
0.0
 11
-910.04938443997526
 21
1023.7920808804799
 31
0.0
 12
-935.04938443997526
 22
1027.9587475471469
 32
0.0
 13
-935.04938443997526
 23
1027.9587475471469
 33
0.0
  0
TEXT
  5
4219B1
  8
DIMENSION
 10
-643.00899999999979
 20
974.00899999999979
 30
0.0
 40
30.48
  1
706 O/D
  7
NOTE_TEXT0
  0
POINT
  5
42194A
  8
DEFPOINTS
 62
     0
 10
-229.04938443983789
 20
770.71858527252994
 30
0.0
  0
POINT
  5
42194B
  8
DEFPOINTS
 62
     0
 10
-935.04938443997526
 20
793.66858527252975
 30
0.0
  0
POINT
  5
42194C
  8
DEFPOINTS
 62
     0
 10
-935.04938443997526
 20
1027.9587475471469
 30
0.0
  0
ENDBLK
  5
42158A
  8
0
  0
BLOCK
  8
0
  2
*D22
 70
     1
 10
0.0
 20
0.0
 30
0.0
  3
*D22
  1

  0
LINE
  5
42194D
  8
DIMENSION
 10
27.364058884487761
 20
909.71858527252994
 30
0.0
 11
-48.19331536738882
 21
909.71858527252994
 31
0.0
  0
LINE
  5
42194E
  8
DIMENSION
 10
29.31405888448759
 20
368.46858527253022
 30
0.0
 11
-48.193315367388927
 21
368.46858527253022
 31
0.0
  0
LINE
  5
42194F
  8
DIMENSION
 10
-16.443315367388841
 20
884.71858527252994
 30
0.0
 11
-16.44331536738888
 21
723.10935667098465
 31
0.0
  0
LINE
  5
421950
  8
DIMENSION
 10
-16.443315367388951
 20
393.46858527253022
 30
0.0
 11
-16.443315367388909
 21
555.07781387407545
 31
0.0
  0
SOLID
  5
421951
  8
DIMENSION
 10
-20.609982034055509
 20
884.71858527252994
 30
0.0
 11
-12.27664870072217
 21
884.71858527252994
 31
0.0
 12
-16.443315367388831
 22
909.71858527252994
 32
0.0
 13
-16.443315367388831
 23
909.71858527252994
 33
0.0
  0
SOLID
  5
421952
  8
DIMENSION
 10
-20.609982034055619
 20
393.46858527253022
 30
0.0
 11
-12.27664870072228
 21
393.46858527253022
 31
0.0
 12
-16.443315367388951
 22
368.46858527253022
 32
0.0
 13
-16.443315367388951
 23
368.46858527253022
 33
0.0
  0
TEXT
  5
4219B2
  8
DIMENSION
 10
-77.403300000000002
 20
585.14400000000001
 30
0.0
 40
30.48
  1
541 O/D
  7
NOTE_TEXT0
  0
POINT
  5
421954
  8
DEFPOINTS
 62
     0
 10
43.366058884487749
 20
909.71858527252994
 30
0.0
  0
POINT
  5
421955
  8
DEFPOINTS
 62
     0
 10
45.316058884487582
 20
368.46858527253022
 30
0.0
  0
POINT
  5
421956
  8
DEFPOINTS
 62
     0
 10
-16.443315367388951
 20
368.46858527253022
 30
0.0
  0
ENDBLK
  5
421597
  8
0
  0
BLOCK
  8
0
  2
*D23
 70
     1
 10
0.0
 20
0.0
 30
0.0
  3
*D23
  1

  0
LINE
  5
421957
  8
DIMENSION
 10
41.416058884487917
 20
923.77058527252939
 30
0.0
 11
41.416058884487917
 21
991.92968153808511
 31
0.0
  0
LINE
  5
421958
  8
DIMENSION
 10
1818.216058884487
 20
923.77058527252996
 30
0.0
 11
1818.216058884487
 21
991.92968153808511
 31
0.0
  0
LINE
  5
421959
  8
DIMENSION
 10
66.416058884487924
 20
960.17968153808522
 30
0.0
 11
879.11539936188728
 21
960.17968153808522
 31
0.0
  0
LINE
  5
42195A
  8
DIMENSION
 10
1793.216058884487
 20
960.17968153808522
 30
0.0
 11
980.51671840708741
 21
960.17968153808522
 31
0.0
  0
SOLID
  5
42195B
  8
DIMENSION
 10
66.416058884487924
 20
964.34634820475185
 30
0.0
 11
66.416058884487924
 21
956.01301487141825
 31
0.0
 12
41.416058884487917
 22
960.17968153808522
 32
0.0
 13
41.416058884487917
 23
960.17968153808522
 33
0.0
  0
SOLID
  5
42195C
  8
DIMENSION
 10
1793.216058884487
 20
964.34634820475185
 30
0.0
 11
1793.216058884487
 21
956.01301487141825
 31
0.0
 12
1818.216058884487
 22
960.17968153808522
 32
0.0
 13
1818.216058884487
 23
960.17968153808522
 33
0.0
  0
TEXT
  5
4219B3
  8
DIMENSION
 10
868.85599999999999
 20
906.23000000000002
 30
0.0
 40
30.48
  1
1777
  7
NOTE_TEXT0
  0
POINT
  5
42195E
  8
DEFPOINTS
 62
     0
 10
41.416058884487917
 20
907.76858527252955
 30
0.0
  0
POINT
  5
42195F
  8
DEFPOINTS
 62
     0
 10
1818.216058884487
 20
907.76858527253
 30
0.0
  0
POINT
  5
421960
  8
DEFPOINTS
 62
     0
 10
1818.216058884487
 20
960.17968153808522
 30
0.0
  0
ENDBLK
  5
4215A4
  8
0
  0
BLOCK
  8
0
  2
*D24
 70
     1
 10
0.0
 20
0.0
 30
0.0
  3
*D24
  1

  0
LINE
  5
421961
  8
DIMENSION
 10
2226.677607522648
 20
887.01508020914173
 30
0.0
 11
2226.677607522648
 21
991.92968153808511
 31
0.0
  0
LINE
  5
421962
  8
DIMENSION
 10
2301.677607522648
 20
887.01508020914139
 30
0.0
 11
2301.677607522648
 21
991.92968153808511
 31
0.0
  0
LINE
  5
421963
  8
DIMENSION
 10
2251.677607522648
 20
960.17968153808522
 30
0.0
 11
2276.677607522648
 21
960.17968153808522
 31
0.0
  0
LINE
  5
421964
  8
DIMENSION
 10
2301.677607522648
 20
960.17968153808522
 30
0.0
 11
2331.2089654062129
 21
960.17968153808522
 31
0.0
  0
SOLID
  5
421965
  8
DIMENSION
 10
2251.677607522648
 20
964.34634820475185
 30
0.0
 11
2251.677607522648
 21
956.01301487141825
 31
0.0
 12
2226.677607522648
 22
960.17968153808522
 32
0.0
 13
2226.677607522648
 23
960.17968153808522
 33
0.0
  0
SOLID
  5
421966
  8
DIMENSION
 10
2276.677607522648
 20
964.34634820475185
 30
0.0
 11
2276.677607522648
 21
956.01301487141825
 31
0.0
 12
2301.677607522648
 22
960.17968153808522
 32
0.0
 13
2301.677607522648
 23
960.17968153808522
 33
0.0
  0
TEXT
  5
4219B4
  8
DIMENSION
 10
2299.0300000000002
 20
906.23000000000002
 30
0.0
 40
30.48
  1
75
  7
NOTE_TEXT0
  0
POINT
  5
421968
  8
DEFPOINTS
 62
     0
 10
2226.677607522648
 20
871.01308020914144
 30
0.0
  0
POINT
  5
421969
  8
DEFPOINTS
 62
     0
 10
2301.677607522648
 20
871.01308020914144
 30
0.0
  0
POINT
  5
42196A
  8
DEFPOINTS
 62
     0
 10
2301.677607522648
 20
960.17968153808522
 30
0.0
  0
ENDBLK
  5
4215B1
  8
0
  0
BLOCK
  8
0
  2
*D25
 70
     1
 10
0.0
 20
0.0
 30
0.0
  3
*D25
  1

  0
LINE
  5
42196B
  8
DIMENSION
 10
54.314058885016891
 20
1951.509273727997
 30
0.0
 11
-61.4339411151701
 21
1951.509273727997
 31
0.0
  0
LINE
  5
42196C
  8
DIMENSION
 10
54.314058884829542
 20
1322.6592737279971
 30
0.0
 11
-61.433941115170249
 21
1322.6592737279971
 31
0.0
  0
LINE
  5
42196D
  8
DIMENSION
 10
-29.683941115170128
 20
1926.509273727997
 30
0.0
 11
-29.683941115170182
 21
1762.500852357736
 31
0.0
  0
LINE
  5
42196E
  8
DIMENSION
 10
-29.68394111517026
 20
1347.6592737279971
 30
0.0
 11
-29.683941115170231
 21
1511.667695098258
 31
0.0
  0
SOLID
  5
42196F
  8
DIMENSION
 10
-33.8506077818368
 20
1926.509273727997
 30
0.0
 11
-25.517274448503461
 21
1926.509273727997
 31
0.0
 12
-29.683941115170121
 22
1951.509273727997
 32
0.0
 13
-29.683941115170121
 23
1951.509273727997
 33
0.0
  0
SOLID
  5
421970
  8
DIMENSION
 10
-33.850607781836928
 20
1347.6592737279971
 30
0.0
 11
-25.517274448503589
 21
1347.6592737279971
 31
0.0
 12
-29.683941115170271
 22
1322.6592737279971
 32
0.0
 13
-29.683941115170271
 23
1322.6592737279971
 33
0.0
  0
TEXT
  5
4219B5
  8
DIMENSION
 10
-90.643900000000016
 20
1583.1300000000001
 30
0.0
 40
30.48
  1
629 Mtg Ctrs
  7
NOTE_TEXT0
  0
POINT
  5
421972
  8
DEFPOINTS
 62
     0
 10
70.316058885016901
 20
1951.509273727997
 30
0.0
  0
POINT
  5
421973
  8
DEFPOINTS
 62
     0
 10
70.316058884829545
 20
1322.6592737279971
 30
0.0
  0
POINT
  5
421974
  8
DEFPOINTS
 62
     0
 10
-29.683941115170271
 20
1322.6592737279971
 30
0.0
  0
ENDBLK
  5
4215BE
  8
0
  0
BLOCK
  8
0
  2
*D26
 70
     1
 10
0.0
 20
0.0
 30
0.0
  3
*D26
  1

  0
LINE
  5
421975
  8
DIMENSION
 10
54.314058884829542
 20
1322.6592737279991
 30
0.0
 11
-61.433941115170221
 21
1322.6592737279991
 31
0.0
  0
LINE
  5
421976
  8
DIMENSION
 10
314.58405888480718
 20
1245.6092737278821
 30
0.0
 11
-61.433941115170221
 21
1245.6092737278821
 31
0.0
  0
LINE
  5
421977
  8
DIMENSION
 10
-29.683941115170239
 20
1297.6592737279991
 30
0.0
 11
-29.683941115170249
 21
1270.6092737278821
 31
0.0
  0
LINE
  5
421978
  8
DIMENSION
 10
-29.683941115170249
 20
1245.6092737278821
 30
0.0
 11
-29.68394111517026
 21
1216.4156727389091
 31
0.0
  0
SOLID
  5
421979
  8
DIMENSION
 10
-33.850607781836914
 20
1297.6592737279991
 30
0.0
 11
-25.517274448503571
 21
1297.6592737279991
 31
0.0
 12
-29.683941115170239
 22
1322.6592737279991
 32
0.0
 13
-29.683941115170239
 23
1322.6592737279991
 33
0.0
  0
SOLID
  5
42197A
  8
DIMENSION
 10
-33.850607781836914
 20
1270.6092737278821
 30
0.0
 11
-25.517274448503581
 21
1270.6092737278821
 31
0.0
 12
-29.683941115170249
 22
1245.6092737278821
 32
0.0
 13
-29.683941115170249
 23
1245.6092737278821
 33
0.0
  0
TEXT
  5
4219B6
  8
DIMENSION
 10
-90.643900000000016
 20
1133.3499999999999
 30
0.0
 40
30.48
  1
77
  7
NOTE_TEXT0
  0
POINT
  5
42197C
  8
DEFPOINTS
 62
     0
 10
70.316058884829545
 20
1322.6592737279991
 30
0.0
  0
POINT
  5
42197D
  8
DEFPOINTS
 62
     0
 10
330.58605888480719
 20
1245.6092737278821
 30
0.0
  0
POINT
  5
42197E
  8
DEFPOINTS
 62
     0
 10
-29.683941115170249
 20
1245.6092737278821
 30
0.0
  0
ENDBLK
  5
4215CB
  8
0
  0
BLOCK
  8
0
  2
*D27
 70
     1
 10
0.0
 20
0.0
 30
0.0
  3
*D27
  1

  0
LINE
  5
42197F
  8
DIMENSION
 10
70.316058885016901
 20
1967.511273727999
 30
0.0
 11
70.316058885016915
 21
2114.6078652082729
 31
0.0
  0
LINE
  5
421980
  8
DIMENSION
 10
1775.3160588850169
 20
1966.5612737274951
 30
0.0
 11
1775.3160588850169
 21
2114.6078652082729
 31
0.0
  0
LINE
  5
421981
  8
DIMENSION
 10
95.316058885016915
 20
2082.8578652082729
 30
0.0
 11
787.3998291638153
 21
2082.8578652082729
 31
0.0
  0
LINE
  5
421982
  8
DIMENSION
 10
1750.3160588850169
 20
2082.8578652082729
 30
0.0
 11
1058.2322886062179
 21
2082.8578652082729
 31
0.0
  0
SOLID
  5
421983
  8
DIMENSION
 10
95.316058885016915
 20
2087.0245318749398
 30
0.0
 11
95.316058885016915
 21
2078.6911985416068
 31
0.0
 12
70.316058885016915
 22
2082.8578652082729
 32
0.0
 13
70.316058885016915
 23
2082.8578652082729
 33
0.0
  0
SOLID
  5
421984
  8
DIMENSION
 10
1750.3160588850169
 20
2087.0245318749398
 30
0.0
 11
1750.3160588850169
 21
2078.6911985416068
 31
0.0
 12
1775.3160588850169
 22
2082.8578652082729
 32
0.0
 13
1775.3160588850169
 23
2082.8578652082729
 33
0.0
  0
TEXT
  5
4219B7
  8
DIMENSION
 10
861.85599999999999
 20
2028.9100000000001
 30
0.0
 40
30.48
  1
1705 Mtg Ctrs
  7
NOTE_TEXT0
  0
POINT
  5
421986
  8
DEFPOINTS
 62
     0
 10
70.316058885016901
 20
1951.509273727999
 30
0.0
  0
POINT
  5
421987
  8
DEFPOINTS
 62
     0
 10
1775.3160588850169
 20
1950.5592737274951
 30
0.0
  0
POINT
  5
421988
  8
DEFPOINTS
 62
     0
 10
1775.3160588850169
 20
2082.8578652082729
 30
0.0
  0
ENDBLK
  5
4215D8
  8
0
  0
BLOCK
  8
0
  2
*D28
 70
     1
 10
0.0
 20
0.0
 30
0.0
  3
*D28
  1

  0
LINE
  5
421989
  8
DIMENSION
 10
43.366058885000719
 20
1915.5112737280069
 30
0.0
 11
43.366058885000733
 21
2114.6078652082729
 31
0.0
  0
LINE
  5
42198A
  8
DIMENSION
 10
70.316058885016901
 20
1967.5112737279969
 30
0.0
 11
70.316058885016915
 21
2114.6078652082729
 31
0.0
  0
LINE
  5
42198B
  8
DIMENSION
 10
95.316058885016915
 20
2082.8578652082729
 30
0.0
 11
120.3160588850169
 21
2082.8578652082729
 31
0.0
  0
LINE
  5
42198C
  8
DIMENSION
 10
18.366058885000719
 20
2082.8578652082729
 30
0.0
 11
-10.929892678091161
 21
2082.8578652082729
 31
0.0
  0
SOLID
  5
42198D
  8
DIMENSION
 10
95.316058885016915
 20
2087.0245318749398
 30
0.0
 11
95.316058885016915
 21
2078.6911985416068
 31
0.0
 12
70.316058885016915
 22
2082.8578652082729
 32
0.0
 13
70.316058885016915
 23
2082.8578652082729
 33
0.0
  0
SOLID
  5
42198E
  8
DIMENSION
 10
18.366058885000719
 20
2087.0245318749398
 30
0.0
 11
18.366058885000719
 21
2078.6911985416068
 31
0.0
 12
43.366058885000733
 22
2082.8578652082729
 32
0.0
 13
43.366058885000733
 23
2082.8578652082729
 33
0.0
  0
TEXT
  5
4219B8
  8
DIMENSION
 10
-100.902
 20
2028.9100000000001
 30
0.0
 40
30.48
  1
27
  7
NOTE_TEXT0
  0
POINT
  5
421990
  8
DEFPOINTS
 62
     0
 10
43.366058885000719
 20
1899.509273728007
 30
0.0
  0
POINT
  5
421991
  8
DEFPOINTS
 62
     0
 10
70.316058885016901
 20
1951.509273727997
 30
0.0
  0
POINT
  5
421992
  8
DEFPOINTS
 62
     0
 10
70.316058885016915
 20
2082.8578652082729
 30
0.0
  0
ENDBLK
  5
4215E5
  8
0
  0
BLOCK
  8
0
  2
*D29
 70
     1
 10
0.0
 20
0.0
 30
0.0
  3
*D29
  1

  0
LINE
  5
421993
  8
DIMENSION
 10
1853.2660588844999
 20
892.61558527252976
 30
0.0
 11
1853.2660588844999
 21
1052.6026856078711
 31
0.0
  0
LINE
  5
421994
  8
DIMENSION
 10
41.416058884487917
 20
923.77058527252939
 30
0.0
 11
41.416058884487917
 21
1052.6026856078711
 31
0.0
  0
LINE
  5
421995
  8
DIMENSION
 10
1828.2660588844999
 20
1020.852685607871
 30
0.0
 11
1041.755648613477
 21
1020.852685607871
 31
0.0
  0
LINE
  5
421996
  8
DIMENSION
 10
66.416058884487924
 20
1020.852685607871
 30
0.0
 11
852.92646915551165
 21
1020.852685607871
 31
0.0
  0
SOLID
  5
421997
  8
DIMENSION
 10
1828.2660588844999
 20
1025.019352274536
 30
0.0
 11
1828.2660588844999
 21
1016.686018941204
 31
0.0
 12
1853.2660588844999
 22
1020.852685607871
 32
0.0
 13
1853.2660588844999
 23
1020.852685607871
 33
0.0
  0
SOLID
  5
421998
  8
DIMENSION
 10
66.416058884487924
 20
1025.019352274536
 30
0.0
 11
66.416058884487924
 21
1016.686018941204
 31
0.0
 12
41.416058884487917
 22
1020.852685607871
 32
0.0
 13
41.416058884487917
 23
1020.852685607871
 33
0.0
  0
TEXT
  5
4219B9
  8
DIMENSION
 10
886.38099999999986
 20
966.90300000000013
 30
0.0
 40
30.48
  1
1812 O/D
  7
NOTE_TEXT0
  0
POINT
  5
42199A
  8
DEFPOINTS
 62
     0
 10
1853.2660588844999
 20
876.6135852725298
 30
0.0
  0
POINT
  5
42199B
  8
DEFPOINTS
 62
     0
 10
41.416058884487917
 20
907.76858527252955
 30
0.0
  0
POINT
  5
42199C
  8
DEFPOINTS
 62
     0
 10
41.416058884487917
 20
1020.852685607871
 30
0.0
  0
ENDBLK
  5
4215F2
  8
0
  0
BLOCK
  8
0
  2
*D30
 70
     1
 10
0.0
 20
0.0
 30
0.0
  3
*D30
  1

  0
LINE
  5
42199D
  8
DIMENSION
 10
1832.268058884486
 20
909.71858527252994
 30
0.0
 11
1953.0063481417401
 21
909.71858527252994
 31
0.0
  0
LINE
  5
42199E
  8
DIMENSION
 10
1867.7680588845001
 20
861.11358527252992
 30
0.0
 11
1953.0063481417401
 21
861.11358527252992
 31
0.0
  0
LINE
  5
42199F
  8
DIMENSION
 10
1921.2563481417401
 20
934.71858527252994
 30
0.0
 11
1921.2563481417401
 21
959.71858527252994
 31
0.0
  0
LINE
  5
4219A0
  8
DIMENSION
 10
1921.2563481417401
 20
836.11358527252992
 30
0.0
 11
1921.2563481417401
 21
807.41126703933014
 31
0.0
  0
SOLID
  5
4219A1
  8
DIMENSION
 10
1917.089681475072
 20
934.71858527252994
 30
0.0
 11
1925.4230148084071
 21
934.71858527252994
 31
0.0
 12
1921.2563481417401
 22
909.71858527252994
 32
0.0
 13
1921.2563481417401
 23
909.71858527252994
 33
0.0
  0
SOLID
  5
4219A2
  8
DIMENSION
 10
1917.089681475072
 20
836.11358527252992
 30
0.0
 11
1925.4230148084071
 21
836.11358527252992
 31
0.0
 12
1921.2563481417401
 22
861.11358527252992
 32
0.0
 13
1921.2563481417401
 23
861.11358527252992
 33
0.0
  0
TEXT
  5
4219BA
  8
DIMENSION
 10
1860.3
 20
723.85500000000002
 30
0.0
 40
30.48
  1
49
  7
NOTE_TEXT0
  0
POINT
  5
4219A4
  8
DEFPOINTS
 62
     0
 10
1816.266058884486
 20
909.71858527252994
 30
0.0
  0
POINT
  5
4219A5
  8
DEFPOINTS
 62
     0
 10
1851.7660588844999
 20
861.11358527252992
 30
0.0
  0
POINT
  5
4219A6
  8
DEFPOINTS
 62
     0
 10
1921.2563481417401
 20
861.11358527252992
 30
0.0
  0
ENDBLK
  5
4215FF
  8
0
  0
ENDSEC
  0
SECTION
  2
ENTITIES
  0
INSERT
  5
81
  8
0
  2
AIR_FLOW_ARROW
 10
2021.1212714932219
 20
534.88217997554602
 30
0.0
 41
10.5
 42
10.5
 43
10.5
 50
270.0
  0
INSERT
  5
30CD
  8
0
  2
*U4
 10
-1251.8806991219369
 20
1199.7856267699899
 30
0.0
  0
INSERT
  5
30CE
  8
0
  2
*U5
 10
-813.69363593610331
 20
61.99219137686805
 30
0.0
  0
INSERT
  5
30D0
  8
0
  2
*U7
 10
-251.1100675506091
 20
-13.027368465398469
 30
0.0
 41
-1.0
1001
ACAD
1000
DSTYLE
1002
{
1070
    77
1070
     0
1002
}
  0
TEXT
  5
41F99F
  8
TEXT
 10
1899.721887521805
 20
156.64791105360291
 30
0.0
 40
50.0
  1
temperzone HWP225 UC7
 41
1.022808402857484
  7
TITLE5
 72
     5
 11
2890.8719350527481
 21
156.64791105360291
 31
0.0
  0
TEXT
  5
41F9A0
  8
TEXT
 10
2495.628405088195
 20
-43.581143616626811
 30
0.0
 40
30.0
  1
HWP225 UC7
  7
TITLE3
 72
     5
 11
2785.628405088195
 21
-43.581143616626811
 31
0.0
  0
TEXT
  5
41F9A1
  8
OVERLAY-A3
 10
1912.916949232316
 20
-2.7499297565259431
 30
0.0
 40
24.0
  1
Date
  7
SIMPLEX
  0
TEXT
  5
41F9A2
  8
OVERLAY-A3
 10
2811.7395974617971
 20
15.922158406784551
 30
0.0
 40
24.0
  1
Revision
 41
0.7812095035934671
  7
SIMPLEX
 72
     5
 11
2917.0912790892589
 21
15.922158406784551
 31
0.0
  0
LINE
  5
41F9A3
  8
OVERLAY-A3
 10
2800.119755078355
 20
-92.738650768309512
 30
0.0
 11
2800.119755078355
 21
54.68751209191943
 31
0.0
  0
LINE
  5
41F9A4
  8
OVERLAY-A3
 10
1884.9799345453409
 20
223.76148983774149
 30
0.0
 11
1884.9799345453409
 21
-92.738650768309512
 31
0.0
  0
LINE
  5
41F9A5
  8
OVERLAY-A3
 10
2482.542083101288
 20
-92.738650768309512
 30
0.0
 11
2482.542083101288
 21
54.68751209191943
 31
0.0
  0
LINE
  5
41F9A6
  8
OVERLAY-A3
 10
2482.542083101288
 20
-20.268544347162791
 30
0.0
 11
1884.9799345453409
 21
-20.268544347162791
 31
0.0
  0
LINE
  5
41F9A7
  8
OVERLAY-A3
 10
2927.2038703260359
 20
54.68751209191943
 30
0.0
 11
1884.9799345453409
 21
54.68751209191943
 31
0.0
  0
LINE
  5
41F9A8
  8
OVERLAY-A3
 10
1884.9799345453409
 20
-92.738650768309512
 30
0.0
 11
2926.9063631476861
 21
-92.738650768309512
 31
0.0
  0
LINE
  5
41F9A9
  8
OVERLAY-A3
 10
2926.9063631476861
 20
-92.738650768309512
 30
0.0
 11
2926.9063631476861
 21
223.76148983774149
 31
0.0
  0
LINE
  5
41F9AA
  8
OVERLAY-A3
 10
2926.9063631476861
 20
223.76148983774149
 30
0.0
 11
1884.9799345453409
 21
223.76148983774149
 31
0.0
  0
TEXT
  5
41F9AB
  8
OVERLAY-A3
 10
1910.111624191303
 20
-65.658655551269462
 30
0.0
 40
20.0
  1
Scale
 41
1.3701747965659909
  7
SIMPLEX
 72
     5
 11
2010.591109272809
 21
-65.658655551269462
 31
0.0
  0
TEXT
  5
41F9AC
  8
OVERLAY-A3
 10
2540.4875286889928
 20
15.3122878900831
 30
0.0
 40
20.0
  1
Drawing No.
  7
SIMPLEX
 72
     2
 11
2714.773242974707
 21
15.3122878900831
 31
0.0
  0
LINE
  5
41F9AD
  8
OVERLAY-A3
 10
-1100.130611017978
 20
-113.5811436166268
 30
0.0
 11
2955.628405088351
 21
-113.5811436166268
 31
0.0
  0
LINE
  5
41F9AE
  8
OVERLAY-A3
 10
2955.628405088351
 20
-113.5811436166268
 30
0.0
 11
2955.628405088351
 21
2197.7660563966851
 31
0.0
  0
LINE
  5
41F9AF
  8
OVERLAY-A3
 10
2955.628405088351
 20
2197.7660563966851
 30
0.0
 11
-1100.130611017978
 21
2197.7660563966851
 31
0.0
  0
LINE
  5
41F9B0
  8
OVERLAY-A3
 10
-1100.130611017978
 20
2197.7660563966851
 30
0.0
 11
-1100.130611017978
 21
-113.5811436166268
 31
0.0
  0
TEXT
  5
41F9B1
  8
TEXT
 10
2016.331905750111
 20
-3.58114361662683
 30
0.0
 40
25.0
  1
06-06-13
 41
0.8296296296296143
  7
TITLE3
 72
     5
 11
2176.331905750108
 21
-3.58114361662683
 31
0.0
  0
TEXT
  5
41F9B2
  8
TEXT
 10
2066.6718498633841
 20
-66.082530883817526
 30
0.0
 40
25.0
  1
1:7
  7
TITLE3
  0
INSERT
  5
41F9B3
  8
TEXT
  2
NEW_BLOCK
 10
-1060.151222028848
 20
-82.309484207121841
 30
0.0
 41
0.6999999999999889
 42
0.6999999999999889
 43
0.6999999999999889
  0
INSERT
  5
41FB15
  8
0
  2
AIR_FLOW_ARROW
 10
733.57261016427185
 20
1824.476325782761
 30
0.0
 41
10.5
 42
10.5
 43
10.5
  0
INSERT
  5
41FB16
  8
0
  2
AIR_FLOW_ARROW
 10
773.66909032776437
 20
1445.391974326556
 30
0.0
 41
10.5
 42
10.5
 43
10.5
  0
INSERT
  5
41FB17
  8
0
  2
*U4
 10
-1225.465199811073
 20
815.29167239781464
 30
0.0
  0
TEXT
  5
4208A3
  8
SYMBOL
 10
2394.7070696625442
 20
936.66535937934361
 30
0.0
 40
21.336000263690948
  1
WATER OUT 1" BSP
  7
NOTE_TEXT
  0
INSERT
  5
4208A4
  8
0
  2
*U9
 10
2792.1427666566919
 20
1235.674451030656
 30
0.0
 50
180.0
1001
ACAD
1000
DSTYLE
1002
{
1070
    77
1070
     0
1002
}
  0
LINE
  5
42139B
  8
VISIBLE
 10
2102.392011638558
 20
375.4185852725044
 30
0.0
 11
2102.392011638558
 21
771.66858527252975
 31
0.0
  0
LINE
  5
42139C
  8
VISIBLE
 10
2102.392011638558
 20
771.66858527252975
 30
0.0
 11
2102.392011638558
 21
773.71858527252994
 31
0.0
  0
CIRCLE
  5
42139E
  8
VISIBLE
 10
2270.6470116385572
 20
861.11358527252992
 30
0.0
 40
21.5
  0
CIRCLE
  5
42139F
  8
VISIBLE
 10
2345.6470116385572
 20
861.11358527253014
 30
0.0
 40
21.5
  0
LINE
  5
4213A0
  8
VISIBLE
 10
2762.2420116385588
 20
822.71858527252971
 30
0.0
 11
2759.3420116385591
 21
822.71858527252971
 31
0.0
  0
LINE
  5
4213A1
  8
VISIBLE
 10
2797.3118100324541
 20
909.26858527252989
 30
0.0
 11
2817.3722132446628
 21
909.26858527252989
 31
0.0
  0
LINE
  5
4213A4
  8
VISIBLE
 10
2825.3420116385591
 20
903.76858527252989
 30
0.0
 11
2762.2420116385588
 21
903.76858527252955
 31
0.0
  0
LINE
  5
4213A6
  8
VISIBLE
 10
2825.3420116385591
 20
903.76858527252989
 30
0.0
 11
2825.3420116385591
 21
900.26858527252989
 31
0.0
  0
LINE
  5
4213A7
  8
VISIBLE
 10
2771.3420116385591
 20
829.76858527252989
 30
0.0
 11
2762.2420116385588
 21
829.76858527252989
 31
0.0
  0
LINE
  5
4213A8
  8
VISIBLE
 10
2771.3420116385591
 20
891.76858527253
 30
0.0
 11
2771.3420116385591
 21
829.76858527252989
 31
0.0
  0
LINE
  5
4213AA
  8
VISIBLE
 10
2825.3420116385591
 20
891.76858527253
 30
0.0
 11
2771.3420116385591
 21
891.76858527253
 31
0.0
  0
LINE
  5
4213AB
  8
VISIBLE
 10
2825.3420116385591
 20
900.26858527252989
 30
0.0
 11
2825.3420116385591
 21
891.76858527253
 31
0.0
  0
LINE
  5
4213AE
  8
VISIBLE
 10
2169.411810032454
 20
909.26858527252989
 30
0.0
 11
2189.4722132446609
 21
909.26858527252989
 31
0.0
  0
LINE
  5
4213B1
  8
VISIBLE
 10
2225.492011638557
 20
903.76858527252989
 30
0.0
 11
2161.4420116385568
 21
903.76858527252989
 31
0.0
  0
LINE
  5
4213B2
  8
VISIBLE
 10
2225.492011638557
 20
829.76858527252989
 30
0.0
 11
2223.9420116385568
 21
829.76858527252989
 31
0.0
  0
LINE
  5
4213B4
  8
VISIBLE
 10
2161.4420116385568
 20
900.26858527252989
 30
0.0
 11
2161.4420116385568
 21
903.76858527252989
 31
0.0
  0
LINE
  5
4213B5
  8
VISIBLE
 10
2215.4420116385581
 20
829.76858527252989
 30
0.0
 11
2223.9420116385568
 21
829.76858527252989
 31
0.0
  0
LINE
  5
4213B6
  8
VISIBLE
 10
2215.4420116385581
 20
891.76858527253
 30
0.0
 11
2215.4420116385581
 21
829.76858527252989
 31
0.0
  0
LINE
  5
4213B8
  8
VISIBLE
 10
2161.4420116385568
 20
891.76858527253
 30
0.0
 11
2215.4420116385581
 21
891.76858527253
 31
0.0
  0
LINE
  5
4213B9
  8
VISIBLE
 10
2161.4420116385568
 20
900.26858527252989
 30
0.0
 11
2161.4420116385568
 21
891.76858527253
 31
0.0
  0
LINE
  5
4213BD
  8
VISIBLE
 10
2759.3420116385591
 20
822.71858527252971
 30
0.0
 11
2759.3420116385601
 21
405.71858527252982
 31
0.0
  0
LINE
  5
4213BE
  8
VISIBLE
 10
2808.392011638558
 20
795.61858527252969
 30
0.0
 11
2808.392011638558
 21
796.56858527252973
 31
0.0
  0
LINE
  5
4213BF
  8
VISIBLE
 10
2808.392011638558
 20
796.56858527252973
 30
0.0
 11
2759.3420116385591
 21
796.56858527252973
 31
0.0
  0
LINE
  5
4213C0
  8
VISIBLE
 10
2759.3420116385591
 20
431.51858527253029
 30
0.0
 11
2808.392011638558
 21
431.51858527253017
 31
0.0
  0
LINE
  5
4213C1
  8
VISIBLE
 10
2808.392011638558
 20
432.46858527252982
 30
0.0
 11
2808.392011638558
 21
431.51858527253017
 31
0.0
  0
LINE
  5
4213C2
  8
VISIBLE
 10
2808.392011638558
 20
432.46858527252982
 30
0.0
 11
2808.392011638558
 21
434.41858527252992
 31
0.0
  0
LINE
  5
4213C3
  8
VISIBLE
 10
2808.392011638558
 20
793.66858527252975
 30
0.0
 11
2808.392011638558
 21
795.61858527252969
 31
0.0
  0
LINE
  5
4213C4
  8
VISIBLE
 10
2808.392011638558
 20
793.66858527252975
 30
0.0
 11
2808.392011638558
 21
434.41858527252992
 31
0.0
  0
LINE
  5
4213C5
  8
VISIBLE
 10
2225.4920116385442
 20
375.41858527251071
 30
0.0
 11
2102.392011638558
 21
375.4185852725044
 31
0.0
  0
LINE
  5
4213C6
  8
VISIBLE
 10
2102.392011638558
 20
737.66858527251293
 30
0.0
 11
2225.4920116385538
 21
737.66858527251907
 31
0.0
  0
LINE
  5
4213CA
  8
VISIBLE
 10
2777.5105281643391
 20
470.39220437047959
 30
0.0
 11
2778.6605281643392
 21
470.39220437047959
 31
0.0
  0
LINE
  5
4213CB
  8
VISIBLE
 10
2778.6605281643392
 20
477.39220437047959
 30
0.0
 11
2778.6605281643392
 21
470.39220437047959
 31
0.0
  0
LINE
  5
4213CC
  8
VISIBLE
 10
2777.5105281643391
 20
470.39220437047959
 30
0.0
 11
2777.5105281643391
 21
477.39220437047959
 31
0.0
  0
LINE
  5
4213CD
  8
VISIBLE
 10
2778.6605281643392
 20
477.39220437047959
 30
0.0
 11
2778.6605281643392
 21
478.5506195993301
 31
0.0
  0
LINE
  5
4213CE
  8
VISIBLE
 10
2777.5105281643391
 20
478.5506195993301
 30
0.0
 11
2777.5105281643391
 21
477.39220437047959
 31
0.0
  0
LINE
  5
4213CF
  8
VISIBLE
 10
2776.8816938725849
 20
480.86884158242378
 30
0.0
 11
2762.3631773468042
 21
484.75906636080492
 31
0.0
  0
LINE
  5
4213D0
  8
VISIBLE
 10
2762.0655354449368
 20
483.6482516605721
 30
0.0
 11
2776.5840519707172
 21
479.75802688219142
 31
0.0
  0
LINE
  5
4213D1
  8
VISIBLE
 10
2760.492011638557
 20
450.56858527252967
 30
0.0
 11
2760.492011638557
 21
482.44084437771107
 31
0.0
  0
ARC
  5
4213D2
  8
VISIBLE
 10
2776.2605281643391
 20
478.5506195993301
 30
0.0
 40
1.250000000000004
 50
0.0
 51
75.000000000005556
  0
ARC
  5
4213D3
  8
VISIBLE
 10
2776.2605281643391
 20
478.5506195993301
 30
0.0
 40
2.399999999999999
 50
0.0
 51
75.000000000005556
  0
ARC
  5
4213D4
  8
VISIBLE
 10
2761.7420116385579
 20
482.44084437771107
 30
0.0
 40
1.2500000000000011
 50
75.000000000005556
 51
180.0
  0
ARC
  5
4213D5
  8
VISIBLE
 10
2761.7420116385579
 20
482.44084437771107
 30
0.0
 40
2.399999999999995
 50
75.000000000005556
 51
180.0
  0
LINE
  5
4213D6
  8
VISIBLE
 10
2762.2420116385588
 20
822.71858527252971
 30
0.0
 11
2762.2420116385588
 21
909.71858527252994
 31
0.0
  0
LINE
  5
4213D7
  8
VISIBLE
 10
2225.492011638557
 20
909.71858527252994
 30
0.0
 11
2225.4920116385442
 21
375.41858527251082
 31
0.0
  0
LINE
  5
4213D8
  8
VISIBLE
 10
2762.2420116385588
 20
909.71858527252994
 30
0.0
 11
2225.492011638557
 21
909.71858527252994
 31
0.0
  0
LINE
  5
4213E2
  8
VISIBLE
 10
1816.2660588844881
 20
822.71858527252971
 30
0.0
 11
1817.216058884487
 21
822.71858527252971
 31
0.0
  0
LINE
  5
4213E3
  8
VISIBLE
 10
1817.216058884487
 20
892.21858527252994
 30
0.0
 11
1817.216058884487
 21
822.71858527252971
 31
0.0
  0
LINE
  5
4213E4
  8
VISIBLE
 10
60.285857278369782
 20
909.26858527252989
 30
0.0
 11
80.346260490576242
 21
909.26858527252989
 31
0.0
  0
LINE
  5
4213E7
  8
VISIBLE
 10
93.816058884467566
 20
903.76858527252989
 30
0.0
 11
46.816058884467559
 21
903.76858527252989
 31
0.0
  0
LINE
  5
4213E8
  8
VISIBLE
 10
93.816058884483922
 20
829.76858527252989
 30
0.0
 11
91.316058884483922
 21
829.76858527252989
 31
0.0
  0
LINE
  5
4213E9
  8
VISIBLE
 10
49.316058884483937
 20
829.76858527252989
 30
0.0
 11
46.816058884483937
 21
829.76858527252989
 31
0.0
  0
LINE
  5
4213EA
  8
VISIBLE
 10
46.816058884483937
 20
878.76858527252989
 30
0.0
 11
46.816058884483937
 21
829.76858527252989
 31
0.0
  0
LINE
  5
4213EB
  8
VISIBLE
 10
46.816058884479382
 20
891.76858527253023
 30
0.0
 11
46.816058884483937
 21
878.76858527252989
 31
0.0
  0
LINE
  5
4213EC
  8
VISIBLE
 10
46.816058884467559
 20
903.76858527252989
 30
0.0
 11
46.816058884467559
 21
891.76858527253
 31
0.0
  0
LINE
  5
4213ED
  8
VISIBLE
 10
93.816058884483922
 20
878.76858527252989
 30
0.0
 11
93.816058884483922
 21
829.76858527252989
 31
0.0
  0
LINE
  5
4213EE
  8
VISIBLE
 10
93.816058884479403
 20
891.76858527253023
 30
0.0
 11
93.816058884483922
 21
878.76858527252989
 31
0.0
  0
LINE
  5
4213F1
  8
VISIBLE
 10
93.816058884467566
 20
903.76858527252989
 30
0.0
 11
93.816058884467566
 21
891.76858527253
 31
0.0
  0
LINE
  5
4213F3
  8
VISIBLE
 10
90.316058884485756
 20
829.76858527252989
 30
0.0
 11
50.316058884485749
 21
829.76858527252989
 31
0.0
  0
LINE
  5
4213FB
  8
VISIBLE
 10
90.316058884485756
 20
829.76858527252989
 30
0.0
 11
91.316058884485756
 21
829.76858527252989
 31
0.0
  0
LINE
  5
4213FC
  8
VISIBLE
 10
49.316058884485763
 20
829.76858527252989
 30
0.0
 11
50.316058884485749
 21
829.76858527252989
 31
0.0
  0
LINE
  5
421402
  8
VISIBLE
 10
1765.28585727837
 20
909.26858527252989
 30
0.0
 11
1785.346260490576
 21
909.26858527252989
 31
0.0
  0
LINE
  5
421405
  8
VISIBLE
 10
1798.8160588844671
 20
903.76858527252989
 30
0.0
 11
1751.816058884476
 21
903.76858527252989
 31
0.0
  0
LINE
  5
421406
  8
VISIBLE
 10
1798.8160588844839
 20
829.76858527252989
 30
0.0
 11
1796.3160588844839
 21
829.76858527252989
 31
0.0
  0
LINE
  5
421407
  8
VISIBLE
 10
1754.3160588844839
 20
829.76858527252989
 30
0.0
 11
1751.8160588844839
 21
829.76858527252989
 31
0.0
  0
LINE
  5
421408
  8
VISIBLE
 10
1751.8160588844839
 20
878.76858527252989
 30
0.0
 11
1751.8160588844839
 21
829.76858527252989
 31
0.0
  0
LINE
  5
421409
  8
VISIBLE
 10
1751.816058884476
 20
903.76858527252989
 30
0.0
 11
1751.8160588844839
 21
878.76858527252989
 31
0.0
  0
LINE
  5
42140B
  8
VISIBLE
 10
1798.8160588844839
 20
878.76858527252989
 30
0.0
 11
1798.8160588844839
 21
829.76858527252989
 31
0.0
  0
LINE
  5
42140C
  8
VISIBLE
 10
1798.8160588844801
 20
891.76858527252955
 30
0.0
 11
1798.8160588844839
 21
878.76858527252989
 31
0.0
  0
LINE
  5
42140F
  8
VISIBLE
 10
1798.8160588844671
 20
903.76858527252989
 30
0.0
 11
1798.8160588844671
 21
891.76858527253
 31
0.0
  0
LINE
  5
421411
  8
VISIBLE
 10
1795.3160588844869
 20
829.76858527252989
 30
0.0
 11
1755.3160588844869
 21
829.76858527252989
 31
0.0
  0
LINE
  5
421419
  8
VISIBLE
 10
1795.3160588844869
 20
829.76858527252989
 30
0.0
 11
1796.3160588844851
 21
829.76858527252989
 31
0.0
  0
LINE
  5
42141A
  8
VISIBLE
 10
1754.316058884486
 20
829.76858527252989
 30
0.0
 11
1755.3160588844869
 21
829.76858527252989
 31
0.0
  0
LINE
  5
421420
  8
VISIBLE
 10
1853.2660588844999
 20
878.1136639488185
 30
0.0
 11
1853.2660588844999
 21
844.11350659624145
 31
0.0
  0
LINE
  5
421423
  8
VISIBLE
 10
1828.2660588844999
 20
878.11358527252992
 30
0.0
 11
1828.2660588844999
 21
844.11358527252992
 31
0.0
  0
LINE
  5
421428
  8
VISIBLE
 10
1817.216058884487
 20
844.11350659624145
 30
0.0
 11
1853.2660588844999
 21
844.11350659624145
 31
0.0
  0
LINE
  5
42142C
  8
VISIBLE
 10
1817.216058884487
 20
878.1136639488185
 30
0.0
 11
1853.2660588844999
 21
878.1136639488185
 31
0.0
  0
LINE
  5
42142F
  8
VISIBLE
 10
1816.2660588844881
 20
822.71858527252971
 30
0.0
 11
1816.2660588844881
 21
737.66858527251316
 31
0.0
  0
LINE
  5
421433
  8
VISIBLE
 10
1475.966058884487
 20
732.81858527252962
 30
0.0
 11
1475.966058884487
 21
410.58574149651878
 31
0.0
  0
LINE
  5
421434
  8
VISIBLE
 10
1475.966058884487
 20
410.58574149651878
 30
0.0
 11
1492.391058884486
 21
410.58574149651878
 31
0.0
  0
LINE
  5
421435
  8
VISIBLE
 10
1475.966058884487
 20
732.81858527252962
 30
0.0
 11
1492.391058884486
 21
732.81858527252962
 31
0.0
  0
LINE
  5
421436
  8
VISIBLE
 10
1853.2660588847839
 20
375.41858527250753
 30
0.0
 11
1492.3910588844501
 21
375.41858527250758
 31
0.0
  0
LINE
  5
421437
  8
VISIBLE
 10
1492.3910588844501
 20
377.3685852725074
 30
0.0
 11
1492.3910588844501
 21
375.41858527250753
 31
0.0
  0
LINE
  5
421438
  8
VISIBLE
 10
1818.2160588844449
 20
737.66858527251316
 30
0.0
 11
1815.594307442321
 21
737.66858527251316
 31
0.0
  0
LINE
  5
421439
  8
VISIBLE
 10
1492.3910588844501
 20
737.66858527252123
 30
0.0
 11
1853.2660588848919
 21
737.66858527252043
 31
0.0
  0
LINE
  5
42143B
  8
VISIBLE
 10
1492.3910588844501
 20
377.3685852725074
 30
0.0
 11
1492.3910588844501
 21
737.66858527252123
 31
0.0
  0
LINE
  5
421448
  8
VISIBLE
 10
1817.216058884487
 20
892.21858527252994
 30
0.0
 11
1818.216058884487
 21
892.21858527252994
 31
0.0
  0
LINE
  5
421449
  8
VISIBLE
 10
1818.216058884487
 20
892.21858527252994
 30
0.0
 11
1818.216058884487
 21
909.71858527252994
 31
0.0
  0
LINE
  5
42144A
  8
VISIBLE
 10
41.416058884493403
 20
896.76858527252989
 30
0.0
 11
41.416058884487043
 21
909.71858527252994
 31
0.0
  0
LINE
  5
42144B
  8
VISIBLE
 10
43.36605888448684
 20
896.76858527253034
 30
0.0
 11
41.416058884493403
 21
896.76858527252989
 31
0.0
  0
LINE
  5
42144C
  8
VISIBLE
 10
1818.216058884487
 20
909.71858527252994
 30
0.0
 11
97.366058884487757
 21
909.71858527252994
 31
0.0
  0
LINE
  5
42144D
  8
VISIBLE
 10
97.356058884487567
 20
909.71858527252994
 30
0.0
 11
41.416058884487043
 21
909.71858527252994
 31
0.0
  0
LINE
  5
42144E
  8
VISIBLE
 10
43.36605888448684
 20
392.35858527253021
 30
0.0
 11
43.36605888448684
 21
386.8486425934716
 31
0.0
  0
LINE
  5
42144F
  8
VISIBLE
 10
43.36605888448684
 20
896.76858527253034
 30
0.0
 11
43.36605888448684
 21
827.82858527253018
 31
0.0
  0
LINE
  5
421450
  8
VISIBLE
 10
43.36605888448684
 20
827.81858527253019
 30
0.0
 11
43.36605888448684
 21
392.36858527253008
 31
0.0
  0
LINE
  5
42145C
  8
VISIBLE
 10
125.41605888480809
 20
1245.609273727883
 30
0.0
 11
1415.4160588848081
 21
1245.609273727604
 31
0.0
  0
LINE
  5
42145D
  8
VISIBLE
 10
125.4160588848444
 20
1368.709273727982
 30
0.0
 11
125.41605888480809
 21
1245.609273727883
 31
0.0
  0
LINE
  5
42145F
  8
VISIBLE
 10
50.316058885021448
 20
1969.509273728004
 30
0.0
 11
90.316058885021434
 21
1969.509273727992
 31
0.0
  0
LINE
  5
421460
  8
VISIBLE
 10
46.816058885002349
 20
1904.5092737280061
 30
0.0
 11
46.81605888500961
 21
1928.509273728004
 31
0.0
  0
LINE
  5
421461
  8
VISIBLE
 10
46.816058885021441
 20
1969.509273728004
 30
0.0
 11
50.316058885021448
 21
1969.509273728004
 31
0.0
  0
LINE
  5
421462
  8
VISIBLE
 10
46.816058885021441
 20
1969.509273728004
 30
0.0
 11
46.81605888500961
 21
1928.509273728004
 31
0.0
  0
LINE
  5
421463
  8
VISIBLE
 10
93.816058885009625
 20
1928.509273727989
 30
0.0
 11
93.816058885002363
 21
1904.509273727992
 31
0.0
  0
LINE
  5
421464
  8
VISIBLE
 10
90.316058885021434
 20
1969.509273727992
 30
0.0
 11
93.816058885021434
 21
1969.5092737279899
 31
0.0
  0
LINE
  5
421465
  8
VISIBLE
 10
93.816058885009625
 20
1928.509273727989
 30
0.0
 11
93.816058885021434
 21
1969.5092737279899
 31
0.0
  0
LINE
  5
421466
  8
VISIBLE
 10
1755.316058885021
 20
1968.559273727499
 30
0.0
 11
1795.316058885021
 21
1968.5592737274869
 31
0.0
  0
ARC
  5
421467
  8
VISIBLE
 10
1755.316058885003
 20
1906.059273727491
 30
0.0
 40
3.499999999999996
 50
180.0
 51
189.87088960612149
  0
LINE
  5
421468
  8
VISIBLE
 10
1751.8160588850019
 20
1904.5092737274999
 30
0.0
 11
1751.8160588850101
 21
1927.559273727499
 31
0.0
  0
LINE
  5
421469
  8
VISIBLE
 10
1751.816058885021
 20
1968.559273727499
 30
0.0
 11
1755.316058885021
 21
1968.559273727499
 31
0.0
  0
LINE
  5
42146A
  8
VISIBLE
 10
1751.816058885021
 20
1968.559273727499
 30
0.0
 11
1751.8160588850101
 21
1927.559273727499
 31
0.0
  0
LINE
  5
42146B
  8
VISIBLE
 10
1798.8160588850089
 20
1927.559273727484
 30
0.0
 11
1798.8160588850019
 21
1904.509273727487
 31
0.0
  0
LINE
  5
42146C
  8
VISIBLE
 10
1795.316058885021
 20
1968.5592737274869
 30
0.0
 11
1798.816058885021
 21
1968.559273727484
 31
0.0
  0
LINE
  5
42146D
  8
VISIBLE
 10
1798.8160588850089
 20
1927.559273727484
 30
0.0
 11
1798.816058885021
 21
1968.559273727484
 31
0.0
  0
LINE
  5
42146E
  8
VISIBLE
 10
90.316058884824074
 20
1304.6592737279921
 30
0.0
 11
50.316058884824102
 21
1304.6592737280041
 31
0.0
  0
LINE
  5
42146F
  8
VISIBLE
 10
93.816058884843216
 20
1368.7092737279929
 30
0.0
 11
93.816058884836792
 21
1345.65927372799
 31
0.0
  0
LINE
  5
421470
  8
VISIBLE
 10
93.816058884824088
 20
1304.6592737279891
 30
0.0
 11
90.316058884824074
 21
1304.6592737279921
 31
0.0
  0
LINE
  5
421471
  8
VISIBLE
 10
93.816058884824088
 20
1304.6592737279891
 30
0.0
 11
93.816058884836792
 21
1345.65927372799
 31
0.0
  0
LINE
  5
421472
  8
VISIBLE
 10
46.816058884836814
 20
1345.659273728003
 30
0.0
 11
46.816058884843187
 21
1368.709273728007
 31
0.0
  0
LINE
  5
421473
  8
VISIBLE
 10
50.316058884824102
 20
1304.6592737280041
 30
0.0
 11
46.816058884824074
 21
1304.6592737280041
 31
0.0
  0
LINE
  5
421474
  8
VISIBLE
 10
46.816058884836814
 20
1345.659273728003
 30
0.0
 11
46.816058884824074
 21
1304.6592737280041
 31
0.0
  0
LINE
  5
421477
  8
VISIBLE
 10
1795.316058884823
 20
1304.6592737274859
 30
0.0
 11
1755.316058884825
 21
1304.659273727498
 31
0.0
  0
LINE
  5
421478
  8
VISIBLE
 10
1798.8160588848241
 20
1304.6592737274841
 30
0.0
 11
1795.316058884823
 21
1304.6592737274859
 31
0.0
  0
LINE
  5
421479
  8
VISIBLE
 10
1798.8160588848241
 20
1304.6592737274841
 30
0.0
 11
1798.8160588848441
 21
1368.709273727487
 31
0.0
  0
LINE
  5
42147A
  8
VISIBLE
 10
1751.816058884837
 20
1345.659273727498
 30
0.0
 11
1751.816058884843
 21
1368.7092737275011
 31
0.0
  0
LINE
  5
42147B
  8
VISIBLE
 10
1755.316058884825
 20
1304.659273727498
 30
0.0
 11
1751.816058884825
 21
1304.659273727498
 31
0.0
  0
LINE
  5
42147C
  8
VISIBLE
 10
1751.816058884837
 20
1345.659273727498
 30
0.0
 11
1751.816058884825
 21
1304.659273727498
 31
0.0
  0
LINE
  5
42147D
  8
VISIBLE
 10
1853.2660588848839
 20
1505.8642737274561
 30
0.0
 11
1853.2660588848751
 21
1471.8642737274561
 31
0.0
  0
LINE
  5
421480
  8
VISIBLE
 10
1828.266058884883
 20
1508.494273727463
 30
0.0
 11
1828.2660588848721
 21
1469.2342737274651
 31
0.0
  0
LINE
  5
421481
  8
VISIBLE
 10
1853.2660588848751
 20
1471.8642737274561
 30
0.0
 11
1828.266058884873
 21
1471.864273727464
 31
0.0
  0
LINE
  5
421482
  8
VISIBLE
 10
1853.2660588848839
 20
1505.8642737274561
 30
0.0
 11
1828.266058884883
 21
1505.864273727464
 31
0.0
  0
LINE
  5
421485
  8
VISIBLE
 10
1818.2160588848849
 20
1508.4942737274671
 30
0.0
 11
1828.266058884883
 21
1508.494273727463
 31
0.0
  0
LINE
  5
421486
  8
VISIBLE
 10
1828.2660588848721
 20
1469.2342737274651
 30
0.0
 11
1818.2160588848731
 21
1469.2342737274671
 31
0.0
  0
LINE
  5
42148C
  8
VISIBLE
 10
1853.2660588848621
 20
1430.8642737274561
 30
0.0
 11
1853.2660588848521
 21
1396.8642737274561
 31
0.0
  0
LINE
  5
42148F
  8
VISIBLE
 10
1828.266058884863
 20
1433.4942737274639
 30
0.0
 11
1828.266058884851
 21
1394.2342737274651
 31
0.0
  0
LINE
  5
421490
  8
VISIBLE
 10
1853.2660588848521
 20
1396.8642737274561
 30
0.0
 11
1828.2660588848521
 21
1396.8642737274649
 31
0.0
  0
LINE
  5
421491
  8
VISIBLE
 10
1853.2660588848621
 20
1430.8642737274561
 30
0.0
 11
1828.2660588848621
 21
1430.8642737274649
 31
0.0
  0
LINE
  5
421494
  8
VISIBLE
 10
1818.216058884861
 20
1433.4942737274671
 30
0.0
 11
1828.266058884863
 21
1433.4942737274639
 31
0.0
  0
LINE
  5
421495
  8
VISIBLE
 10
1828.266058884851
 20
1394.2342737274651
 30
0.0
 11
1818.216058884851
 21
1394.2342737274671
 31
0.0
  0
LINE
  5
42149B
  8
VISIBLE
 10
97.366058885016187
 20
1951.6092737279589
 30
0.0
 11
1489.2660588850169
 21
1951.6092737275451
 31
0.0
  0
LINE
  5
42149D
  8
VISIBLE
 10
97.366058885016187
 20
1951.6092737279589
 30
0.0
 11
97.366058885002516
 21
1904.5092737279581
 31
0.0
  0
LINE
  5
42149E
  8
VISIBLE
 10
1489.2660588850031
 20
1904.509273727545
 30
0.0
 11
1489.2660588850169
 21
1951.6092737275451
 31
0.0
  0
LINE
  5
4214A0
  8
VISIBLE
 10
1492.3910588848071
 20
1246.6092737275369
 30
0.0
 11
1492.391058884846
 21
1368.709273727578
 31
0.0
  0
LINE
  5
4214A1
  8
VISIBLE
 10
1492.3910588848071
 20
1246.609273727536
 30
0.0
 11
1492.3910588848071
 21
1244.6592737275359
 31
0.0
  0
LINE
  5
4214A2
  8
VISIBLE
 10
1492.3910588848071
 20
1244.6592737275389
 30
0.0
 11
1853.266058884838
 21
1244.65927372743
 31
0.0
  0
LINE
  5
4214A4
  8
VISIBLE
 10
1555.3910588850069
 20
1921.8777902532131
 30
0.0
 11
1695.3910588850081
 21
1921.877790253172
 31
0.0
  0
LINE
  5
4214A5
  8
VISIBLE
 10
1695.3910588850069
 20
1920.098955961417
 30
0.0
 11
1695.3910588850081
 21
1921.877790253172
 31
0.0
  0
LINE
  5
4214A6
  8
VISIBLE
 10
1555.3910588850069
 20
1921.8777902532131
 30
0.0
 11
1555.3910588850069
 21
1920.09895596146
 31
0.0
  0
LINE
  5
4214A7
  8
VISIBLE
 10
1555.3910588850031
 20
1904.509273727559
 30
0.0
 11
1555.3910588850069
 21
1920.09895596146
 31
0.0
  0
LINE
  5
4214A8
  8
VISIBLE
 10
1695.3910588850069
 20
1920.098955961417
 30
0.0
 11
1695.3910588850031
 21
1904.509273727517
 31
0.0
  0
LINE
  5
4214A9
  8
VISIBLE
 10
1835.584575410727
 20
1706.6092737273491
 30
0.0
 11
1835.5845754106861
 21
1566.6092737273491
 31
0.0
  0
LINE
  5
4214AA
  8
VISIBLE
 10
1833.8057411189329
 20
1566.6092737273491
 30
0.0
 11
1835.5845754106861
 21
1566.6092737273491
 31
0.0
  0
LINE
  5
4214AB
  8
VISIBLE
 10
1835.584575410727
 20
1706.6092737273491
 30
0.0
 11
1833.8057411189729
 21
1706.6092737273491
 31
0.0
  0
LINE
  5
4214AC
  8
VISIBLE
 10
1818.2160588849031
 20
1566.609273727355
 30
0.0
 11
1819.2872245931501
 21
1566.609273727355
 31
0.0
  0
LINE
  5
4214AD
  8
VISIBLE
 10
1819.2872245931919
 20
1706.609273727355
 30
0.0
 11
1818.216058884944
 21
1706.609273727355
 31
0.0
  0
LINE
  5
4214AE
  8
VISIBLE
 10
1819.287224593191
 20
1706.609273727355
 30
0.0
 11
1833.8057411189729
 21
1706.6092737273491
 31
0.0
  0
LINE
  5
4214AF
  8
VISIBLE
 10
1833.8057411189329
 20
1566.6092737273491
 30
0.0
 11
1819.2872245931501
 21
1566.609273727355
 31
0.0
  0
LINE
  5
4214B0
  8
VISIBLE
 10
1853.2660588848751
 20
1368.7092737274711
 30
0.0
 11
1504.4660588848431
 21
1368.7092737275741
 31
0.0
  0
LINE
  5
4214B1
  8
VISIBLE
 10
1818.216058885002
 20
1904.5092737274811
 30
0.0
 11
1818.2160588848431
 21
1368.7092737274811
 31
0.0
  0
LINE
  5
4214B2
  8
VISIBLE
 10
1504.4660588848431
 20
1368.709273727575
 30
0.0
 11
41.41605888484446
 21
1368.7092737280079
 31
0.0
  0
LINE
  5
4214B3
  8
VISIBLE
 10
1504.466058885002
 20
1904.5092737275741
 30
0.0
 11
1504.4660588848431
 21
1368.7092737275741
 31
0.0
  0
LINE
  5
4214B4
  8
VISIBLE
 10
41.416058885002712
 20
1904.5092737280081
 30
0.0
 11
1818.216058885002
 21
1904.5092737274811
 31
0.0
  0
LINE
  5
4214B5
  8
VISIBLE
 10
41.41605888484446
 20
1368.7092737280079
 30
0.0
 11
41.416058885002712
 21
1904.5092737280081
 31
0.0
  0
CIRCLE
  5
4214B6
  8
VISIBLE
 10
1775.3160588848291
 20
1322.6592737274909
 30
0.0
 40
7.0
  0
CIRCLE
  5
4214B7
  8
VISIBLE
 10
70.316058885016901
 20
1951.509273727997
 30
0.0
 40
7.0
  0
CIRCLE
  5
4214B8
  8
VISIBLE
 10
1775.3160588850169
 20
1950.5592737274919
 30
0.0
 40
7.0
  0
CIRCLE
  5
4214B9
  8
VISIBLE
 10
70.316058884829545
 20
1322.6592737279971
 30
0.0
 40
7.0
  0
LINE
  5
4214BB
  8
VISIBLE
 10
-299.48915474603729
 20
773.71858527252994
 30
0.0
 11
-299.48915474603729
 21
772.76858527252944
 31
0.0
  0
LINE
  5
4214BC
  8
VISIBLE
 10
-422.58915474603759
 20
773.71858527252994
 30
0.0
 11
-299.48915474603729
 21
773.71858527252994
 31
0.0
  0
LINE
  5
4214BD
  8
VISIBLE
 10
-299.48915474603831
 20
770.8185852725295
 30
0.0
 11
-299.48915474603729
 21
772.49265217680818
 31
0.0
  0
LINE
  5
4214BE
  8
VISIBLE
 10
-299.4891547458692
 20
770.71858527252994
 30
0.0
 11
-299.4891547458692
 21
375.4185852725044
 31
0.0
  0
LINE
  5
4214C0
  8
VISIBLE
 10
-1015.419356352126
 20
909.26858527252989
 30
0.0
 11
-995.35895313991944
 21
909.26858527252989
 31
0.0
  0
LINE
  5
4214C3
  8
VISIBLE
 10
-958.38915474600356
 20
903.76858527252989
 30
0.0
 11
-1023.389154746034
 21
903.76858527252989
 31
0.0
  0
LINE
  5
4214C5
  8
VISIBLE
 10
-1023.389154746036
 20
900.26858527252989
 30
0.0
 11
-1023.389154746034
 21
903.76858527252989
 31
0.0
  0
LINE
  5
4214C6
  8
VISIBLE
 10
-969.3891547460363
 20
829.76858527253034
 30
0.0
 11
-958.38915474596035
 21
829.76858527253034
 31
0.0
  0
LINE
  5
4214C7
  8
VISIBLE
 10
-969.3891547460363
 20
891.76858527253023
 30
0.0
 11
-969.3891547460363
 21
829.76858527253034
 31
0.0
  0
LINE
  5
4214C9
  8
VISIBLE
 10
-1023.389154746036
 20
891.76858527253023
 30
0.0
 11
-969.3891547460363
 21
891.76858527253023
 31
0.0
  0
LINE
  5
4214CA
  8
VISIBLE
 10
-1023.389154746036
 20
900.26858527252989
 30
0.0
 11
-1023.389154746036
 21
891.76858527253023
 31
0.0
  0
LINE
  5
4214CD
  8
VISIBLE
 10
-386.56935635212523
 20
909.26858527252989
 30
0.0
 11
-366.50895313991907
 21
909.26858527252989
 31
0.0
  0
LINE
  5
4214D0
  8
VISIBLE
 10
-358.539154746034
 20
903.76858527252989
 30
0.0
 11
-422.58915474600468
 21
903.76858527252989
 31
0.0
  0
LINE
  5
4214D2
  8
VISIBLE
 10
-358.539154746034
 20
903.76858527252989
 30
0.0
 11
-358.53915474603582
 21
900.26858527252989
 31
0.0
  0
LINE
  5
4214D3
  8
VISIBLE
 10
-412.53915474603582
 20
829.76858527252989
 30
0.0
 11
-422.58915474595932
 21
829.76858527252989
 31
0.0
  0
LINE
  5
4214D4
  8
VISIBLE
 10
-412.53915474603582
 20
891.76858527253
 30
0.0
 11
-412.53915474603582
 21
829.76858527252989
 31
0.0
  0
LINE
  5
4214D6
  8
VISIBLE
 10
-358.53915474603582
 20
891.76858527253
 30
0.0
 11
-412.53915474603582
 21
891.76858527253
 31
0.0
  0
LINE
  5
4214D7
  8
VISIBLE
 10
-358.53915474603582
 20
900.26858527252989
 30
0.0
 11
-358.53915474603582
 21
891.76858527253
 31
0.0
  0
LINE
  5
4214DA
  8
VISIBLE
 10
-959.33915474600565
 20
796.56858527252973
 30
0.0
 11
-1005.489154746006
 21
796.56858527252973
 31
0.0
  0
LINE
  5
4214DB
  8
VISIBLE
 10
-1005.489154746006
 20
795.61858527252969
 30
0.0
 11
-1005.489154746006
 21
796.56858527252973
 31
0.0
  0
LINE
  5
4214DD
  8
VISIBLE
 10
-1005.489154746006
 20
434.41858527253038
 30
0.0
 11
-1005.489154746006
 21
432.46858527253062
 31
0.0
  0
LINE
  5
4214DE
  8
VISIBLE
 10
-1005.489154746006
 20
795.61858527252934
 30
0.0
 11
-1005.489154746006
 21
793.66858527252975
 31
0.0
  0
LINE
  5
4214DF
  8
VISIBLE
 10
-1005.489154746006
 20
434.41858527253021
 30
0.0
 11
-1005.489154746006
 21
793.66858527252975
 31
0.0
  0
LINE
  5
4214E0
  8
VISIBLE
 10
-1005.489154746006
 20
432.46858527252982
 30
0.0
 11
-1005.489154746006
 21
431.51858527253017
 31
0.0
  0
LINE
  5
4214E1
  8
VISIBLE
 10
-1005.489154746006
 20
431.51858527253017
 30
0.0
 11
-959.33915474600565
 21
431.51858527253017
 31
0.0
  0
LINE
  5
4214E2
  8
VISIBLE
 10
-409.58915474498798
 20
375.41858527250997
 30
0.0
 11
-299.4891547458692
 21
375.4185852725044
 31
0.0
  0
LINE
  5
4214E3
  8
VISIBLE
 10
-409.58915474498798
 20
375.41858527250997
 30
0.0
 11
-415.4391547460358
 21
375.41858527251031
 31
0.0
  0
LINE
  5
4214E7
  8
VISIBLE
 10
-958.38915474596035
 20
829.76858527253034
 30
0.0
 11
-958.38915474600674
 21
909.71858527252994
 31
0.0
  0
LINE
  5
4214E8
  8
VISIBLE
 10
-422.58915474600849
 20
909.71858527252994
 30
0.0
 11
-422.58915474595932
 21
829.76858527252989
 31
0.0
  0
LINE
  5
4214E9
  8
VISIBLE
 10
-422.58915474600849
 20
909.71858527252994
 30
0.0
 11
-958.38915474600674
 21
909.71858527252994
 31
0.0
  0
LINE
  5
4214EA
  8
VISIBLE
 10
-959.33915474603702
 20
386.71858527252988
 30
0.0
 11
-959.33915474603702
 21
829.76858527253034
 31
0.0
  0
LINE
  5
4214EB
  8
VISIBLE
 10
-422.58915474603759
 20
829.76858527252989
 30
0.0
 11
-422.58915474603759
 21
386.71858527252988
 31
0.0
  0
LINE
  5
4214F0
  8
VISIBLE
 10
-299.48915474603729
 20
772.76858527252944
 30
0.0
 11
-299.48915474603729
 21
772.49265217680818
 31
0.0
  0
LINE
  5
421505
  8
0
 10
2760.492011638557
 20
450.56858527252967
 30
0.0
 11
2759.3420116385591
 21
450.56858527252967
 31
0.0
  0
LINE
  5
421F4E
  8
DIMENSION
 10
-1005.489154746006
 20
809.67058527252959
 30
0.0
 11
-1005.489154746006
 21
991.92968153808511
 31
0.0
  0
LINE
  5
421F4F
  8
DIMENSION
 10
-958.38915474600617
 20
923.7705852725303
 30
0.0
 11
-958.38915474600617
 21
991.92968153808511
 31
0.0
  0
LINE
  5
421F50
  8
DIMENSION
 10
-1030.4891547460061
 20
960.17968153808522
 30
0.0
 11
-1055.4891547460061
 21
960.17968153808522
 31
0.0
  0
LINE
  5
421F51
  8
DIMENSION
 10
-933.38915474600617
 20
960.17968153808522
 30
0.0
 11
-896.04310726868925
 21
960.17968153808522
 31
0.0
  0
SOLID
  5
421F52
  8
DIMENSION
 10
-1030.4891547460061
 20
964.34634820475185
 30
0.0
 11
-1030.4891547460061
 21
956.01301487141825
 31
0.0
 12
-1005.489154746006
 22
960.17968153808522
 32
0.0
 13
-1005.489154746006
 23
960.17968153808522
 33
0.0
  0
SOLID
  5
421F53
  8
DIMENSION
 10
-933.38915474600617
 20
964.34634820475185
 30
0.0
 11
-933.38915474600617
 21
956.01301487141825
 31
0.0
 12
-958.38915474600617
 22
960.17968153808522
 32
0.0
 13
-958.38915474600617
 23
960.17968153808522
 33
0.0
  0
TEXT
  5
421F54
  8
DIMENSION
 10
-887.04190796781666
 20
942.88363715873516
 30
0.0
 40
30.48
  1
47
  7
NOTE_TEXT0
  0
LINE
  5
421F57
  8
DIMENSION
 10
-299.4891547458692
 20
786.72058527252989
 30
0.0
 11
-299.4891547458692
 21
1059.708747547146
 31
0.0
  0
LINE
  5
421F58
  8
DIMENSION
 10
-1005.489154746006
 20
809.67058527252959
 30
0.0
 11
-1005.489154746006
 21
1059.708747547146
 31
0.0
  0
LINE
  5
421F59
  8
DIMENSION
 10
-324.4891547458692
 20
1027.9587475471469
 30
0.0
 11
-547.80232317258367
 21
1027.9587475471469
 31
0.0
  0
LINE
  5
421F5A
  8
DIMENSION
 10
-980.48915474600619
 20
1027.9587475471469
 30
0.0
 11
-761.16232317258334
 21
1027.9587475471469
 31
0.0
  0
SOLID
  5
421F5B
  8
DIMENSION
 10
-324.4891547458692
 20
1032.1254142138141
 30
0.0
 11
-324.4891547458692
 21
1023.7920808804799
 31
0.0
 12
-299.4891547458692
 22
1027.9587475471469
 32
0.0
 13
-299.4891547458692
 23
1027.9587475471469
 33
0.0
  0
SOLID
  5
421F5C
  8
DIMENSION
 10
-980.48915474600619
 20
1032.1254142138141
 30
0.0
 11
-980.48915474600619
 21
1023.7920808804799
 31
0.0
 12
-1005.489154746006
 22
1027.9587475471469
 32
0.0
 13
-1005.489154746006
 23
1027.9587475471469
 33
0.0
  0
TEXT
  5
421F5D
  8
DIMENSION
 10
-753.54131861799942
 20
1014.084510177752
 30
0.0
 40
30.48
  1
706 O/D
  7
NOTE_TEXT0
  0
LINE
  5
421F5E
  8
DIMENSION
 10
-299.4891547458692
 20
786.72058527252989
 30
0.0
 11
-299.4891547458692
 21
991.92968153808511
 31
0.0
  0
LINE
  5
421F5F
  8
DIMENSION
 10
-422.58915474600701
 20
923.77058527253087
 30
0.0
 11
-422.58915474600701
 21
991.92968153808511
 31
0.0
  0
LINE
  5
421F60
  8
DIMENSION
 10
-324.4891547458692
 20
960.17968153808522
 30
0.0
 11
-397.58915474600718
 21
960.17968153808522
 31
0.0
  0
LINE
  5
421F61
  8
DIMENSION
 10
-422.58915474600701
 20
960.17968153808522
 30
0.0
 11
-475.34374118339019
 21
960.17968153808522
 31
0.0
  0
SOLID
  5
421F62
  8
DIMENSION
 10
-324.4891547458692
 20
964.34634820475185
 30
0.0
 11
-324.4891547458692
 21
956.01301487141825
 31
0.0
 12
-299.4891547458692
 22
960.17968153808522
 32
0.0
 13
-299.4891547458692
 23
960.17968153808522
 33
0.0
  0
SOLID
  5
421F63
  8
DIMENSION
 10
-397.58915474600718
 20
964.34634820475185
 30
0.0
 11
-397.58915474600718
 21
956.01301487141825
 31
0.0
 12
-422.58915474600701
 22
960.17968153808522
 32
0.0
 13
-422.58915474600701
 23
960.17968153808522
 33
0.0
  0
TEXT
  5
421F64
  8
DIMENSION
 10
-559.04467439881864
 20
945.53725278053753
 30
0.0
 40
30.48
  1
123
  7
NOTE_TEXT0
  0
LINE
  5
421F65
  8
DIMENSION
 10
-408.53715474603848
 20
909.71858527252994
 30
0.0
 11
-204.84264585817061
 21
909.71858527252994
 31
0.0
  0
LINE
  5
421F66
  8
DIMENSION
 10
-283.48715474603728
 20
773.71858527252994
 30
0.0
 11
-204.84264585833961
 21
773.71858527252994
 31
0.0
  0
LINE
  5
421F67
  8
DIMENSION
 10
-236.59264585817061
 20
798.61858527253025
 30
0.0
 11
-236.59264585817061
 21
821.76947513652181
 31
0.0
  0
SOLID
  5
421F69
  8
DIMENSION
 10
-240.75931252500629
 20
798.71858527252994
 30
0.0
 11
-232.42597919167301
 21
798.71858527252994
 31
0.0
 12
-236.59264585833969
 22
773.71858527252994
 32
0.0
 13
-236.59264585833969
 23
773.71858527252994
 33
0.0
  0
SOLID
  5
421F6A
  8
DIMENSION
 10
-240.75931252483721
 20
884.71858527252994
 30
0.0
 11
-232.4259791915039
 21
884.71858527252994
 31
0.0
 12
-236.59264585817061
 22
909.71858527252994
 32
0.0
 13
-236.59264585817061
 23
909.71858527252994
 33
0.0
  0
TEXT
  5
421F6B
  8
DIMENSION
 10
-274.31586776668939
 20
829.39047969110641
 30
0.0
 40
30.48
  1
136
  7
NOTE_TEXT0
  0
LINE
  5
421F6C
  8
DIMENSION
 10
-283.48715474603728
 20
773.71858527252994
 30
0.0
 11
-204.84264585833961
 21
773.71858527252994
 31
0.0
  0
LINE
  5
421F6D
  8
DIMENSION
 10
-283.48715474586828
 20
473.71858527252971
 30
0.0
 11
-204.84264585817061
 21
473.71858527252971
 31
0.0
  0
LINE
  5
421F6E
  8
DIMENSION
 10
-236.59264585817061
 20
748.61858527253025
 30
0.0
 11
-236.59264585817061
 21
664.22065749801766
 31
0.0
  0
LINE
  5
421F6F
  8
DIMENSION
 10
-236.59264585817061
 20
498.71858527252971
 30
0.0
 11
-236.59264585817061
 21
583.11651304704242
 31
0.0
  0
SOLID
  5
421F70
  8
DIMENSION
 10
-240.75931252500629
 20
748.71858527252994
 30
0.0
 11
-232.42597919167301
 21
748.71858527252994
 31
0.0
 12
-236.59264585833969
 22
773.71858527252994
 32
0.0
 13
-236.59264585833969
 23
773.71858527252994
 33
0.0
  0
SOLID
  5
421F71
  8
DIMENSION
 10
-240.7593125248373
 20
498.71858527252971
 30
0.0
 11
-232.42597919150401
 21
498.71858527252971
 31
0.0
 12
-236.59264585817061
 22
473.71858527252971
 32
0.0
 13
-236.59264585817061
 23
473.71858527252971
 33
0.0
  0
TEXT
  5
421F72
  8
DIMENSION
 10
-274.16297579539491
 20
607.55244375804432
 30
0.0
 40
30.48
  1
300
  7
NOTE_TEXT0
  0
LINE
  5
421F73
  8
DIMENSION
 10
-236.59264585817061
 20
867.4894751365224
 30
0.0
 11
-236.59264585817061
 21
884.71858527252994
 31
0.0
  0
LINE
  5
422405
  8
DIMENSION
 10
1832.268058884486
 20
909.71858527252994
 30
0.0
 11
1953.0063481417401
 21
909.71858527252994
 31
0.0
  0
LINE
  5
422406
  8
DIMENSION
 10
1867.7680588845001
 20
861.11358527252992
 30
0.0
 11
1953.0063481417401
 21
861.11358527252992
 31
0.0
  0
LINE
  5
422407
  8
DIMENSION
 10
1921.2563481417401
 20
934.71858527252994
 30
0.0
 11
1921.2563481417401
 21
959.71858527252994
 31
0.0
  0
LINE
  5
422408
  8
DIMENSION
 10
1921.2563481417401
 20
836.11358527252992
 30
0.0
 11
1921.2563481417401
 21
807.41126703933014
 31
0.0
  0
SOLID
  5
422409
  8
DIMENSION
 10
1917.089681475072
 20
934.71858527252994
 30
0.0
 11
1925.4230148084071
 21
934.71858527252994
 31
0.0
 12
1921.2563481417401
 22
909.71858527252994
 32
0.0
 13
1921.2563481417401
 23
909.71858527252994
 33
0.0
  0
SOLID
  5
42240A
  8
DIMENSION
 10
1917.089681475072
 20
836.11358527252992
 30
0.0
 11
1925.4230148084071
 21
836.11358527252992
 31
0.0
 12
1921.2563481417401
 22
861.11358527252992
 32
0.0
 13
1921.2563481417401
 23
861.11358527252992
 33
0.0
  0
TEXT
  5
42240B
  8
DIMENSION
 10
1892.9079062796741
 20
764.59755305606495
 30
0.0
 40
30.48
  1
49
  7
NOTE_TEXT0
  0
LINE
  5
42240C
  8
DIMENSION
 10
1853.2660588844999
 20
892.61558527252976
 30
0.0
 11
1853.2660588844999
 21
1052.6026856078711
 31
0.0
  0
LINE
  5
42240D
  8
DIMENSION
 10
41.416058884487917
 20
923.77058527252939
 30
0.0
 11
41.416058884487917
 21
991.92968153808511
 31
0.0
  0
LINE
  5
42240E
  8
DIMENSION
 10
1828.2660588844999
 20
1020.852685607871
 30
0.0
 11
1063.3813684993561
 21
1020.852685607871
 31
0.0
  0
LINE
  5
42240F
  8
DIMENSION
 10
7.166058884486894
 20
1020.852685607871
 30
0.0
 11
814.16083136221255
 21
1020.852685607871
 31
0.0
  0
SOLID
  5
422410
  8
DIMENSION
 10
1828.2660588844999
 20
1025.019352274536
 30
0.0
 11
1828.2660588844999
 21
1016.686018941204
 31
0.0
 12
1853.2660588844999
 22
1020.852685607871
 32
0.0
 13
1853.2660588844999
 23
1020.852685607871
 33
0.0
  0
TEXT
  5
422412
  8
DIMENSION
 10
821.78183591679635
 20
1008.056948514495
 30
0.0
 40
30.48
  1
1846 O/D
  7
NOTE_TEXT0
  0
LINE
  5
422413
  8
DIMENSION
 10
43.366058885000719
 20
1915.5112737280069
 30
0.0
 11
43.366058885000733
 21
2114.6078652082729
 31
0.0
  0
LINE
  5
422414
  8
DIMENSION
 10
70.316058885016901
 20
1967.5112737279969
 30
0.0
 11
70.316058885016915
 21
2114.6078652082729
 31
0.0
  0
LINE
  5
422415
  8
DIMENSION
 10
95.316058885016915
 20
2082.8578652082729
 30
0.0
 11
120.3160588850169
 21
2082.8578652082729
 31
0.0
  0
LINE
  5
422416
  8
DIMENSION
 10
18.366058885000719
 20
2082.8578652082729
 30
0.0
 11
-10.929892678091161
 21
2082.8578652082729
 31
0.0
  0
SOLID
  5
422417
  8
DIMENSION
 10
95.316058885016915
 20
2087.0245318749398
 30
0.0
 11
95.316058885016915
 21
2078.6911985416068
 31
0.0
 12
70.316058885016915
 22
2082.8578652082729
 32
0.0
 13
70.316058885016915
 23
2082.8578652082729
 33
0.0
  0
SOLID
  5
422418
  8
DIMENSION
 10
18.366058885000719
 20
2087.0245318749398
 30
0.0
 11
18.366058885000719
 21
2078.6911985416068
 31
0.0
 12
43.366058885000733
 22
2082.8578652082729
 32
0.0
 13
43.366058885000733
 23
2082.8578652082729
 33
0.0
  0
TEXT
  5
422419
  8
DIMENSION
 10
-71.739294176504657
 20
2064.262506451088
 30
0.0
 40
30.48
  1
27
  7
NOTE_TEXT0
  0
LINE
  5
42241A
  8
DIMENSION
 10
70.316058885016901
 20
1967.511273727999
 30
0.0
 11
70.316058885016915
 21
2114.6078652082729
 31
0.0
  0
LINE
  5
42241B
  8
DIMENSION
 10
1775.3160588850169
 20
1966.5612737274951
 30
0.0
 11
1775.3160588850169
 21
2114.6078652082729
 31
0.0
  0
LINE
  5
42241C
  8
DIMENSION
 10
95.316058885016915
 20
2082.8578652082729
 30
0.0
 11
721.78487104256567
 21
2082.8578652082729
 31
0.0
  0
LINE
  5
42241D
  8
DIMENSION
 10
1750.3160588850169
 20
2082.8578652082729
 30
0.0
 11
1112.9448710425661
 21
2082.8578652082729
 31
0.0
  0
SOLID
  5
42241E
  8
DIMENSION
 10
95.316058885016915
 20
2087.0245318749398
 30
0.0
 11
95.316058885016915
 21
2078.6911985416068
 31
0.0
 12
70.316058885016915
 22
2082.8578652082729
 32
0.0
 13
70.316058885016915
 23
2082.8578652082729
 33
0.0
  0
SOLID
  5
42241F
  8
DIMENSION
 10
1750.3160588850169
 20
2087.0245318749398
 30
0.0
 11
1750.3160588850169
 21
2078.6911985416068
 31
0.0
 12
1775.3160588850169
 22
2082.8578652082729
 32
0.0
 13
1775.3160588850169
 23
2082.8578652082729
 33
0.0
  0
TEXT
  5
422420
  8
DIMENSION
 10
731.94621044867779
 20
2068.2409380249628
 30
0.0
 40
30.48
  1
1705 Mtg Ctrs
  7
NOTE_TEXT0
  0
LINE
  5
422421
  8
DIMENSION
 10
54.314058884829542
 20
1322.6592737279991
 30
0.0
 11
-61.433941115170221
 21
1322.6592737279991
 31
0.0
  0
LINE
  5
422422
  8
DIMENSION
 10
114.58405888480721
 20
1245.6092737278821
 30
0.0
 11
-61.433941115170221
 21
1245.6092737278821
 31
0.0
  0
LINE
  5
422423
  8
DIMENSION
 10
-29.683941115170239
 20
1297.6592737279991
 30
0.0
 11
-29.683941115170249
 21
1270.6092737278821
 31
0.0
  0
LINE
  5
422424
  8
DIMENSION
 10
-29.683941115170249
 20
1245.6092737278821
 30
0.0
 11
-29.68394111517026
 21
1216.4156727389091
 31
0.0
  0
SOLID
  5
422425
  8
DIMENSION
 10
-33.850607781836914
 20
1297.6592737279991
 30
0.0
 11
-25.517274448503571
 21
1297.6592737279991
 31
0.0
 12
-29.683941115170239
 22
1322.6592737279991
 32
0.0
 13
-29.683941115170239
 23
1322.6592737279991
 33
0.0
  0
SOLID
  5
422426
  8
DIMENSION
 10
-33.850607781836914
 20
1270.6092737278821
 30
0.0
 11
-25.517274448503581
 21
1270.6092737278821
 31
0.0
 12
-29.683941115170249
 22
1245.6092737278821
 32
0.0
 13
-29.683941115170249
 23
1245.6092737278821
 33
0.0
  0
TEXT
  5
422427
  8
DIMENSION
 10
-56.579380408243161
 20
1168.3728793513119
 30
0.0
 40
30.48
  1
77
  7
NOTE_TEXT0
  0
LINE
  5
422428
  8
DIMENSION
 10
54.314058885016891
 20
1951.509273727997
 30
0.0
 11
-61.4339411151701
 21
1951.509273727997
 31
0.0
  0
LINE
  5
422429
  8
DIMENSION
 10
54.314058884829542
 20
1322.6592737279971
 30
0.0
 11
-61.433941115170249
 21
1322.6592737279971
 31
0.0
  0
LINE
  5
42242A
  8
DIMENSION
 10
-29.683941115170128
 20
1926.509273727997
 30
0.0
 11
-29.68394111517016
 21
1831.8072472196679
 31
0.0
  0
LINE
  5
42242B
  8
DIMENSION
 10
-29.68394111517026
 20
1347.6592737279971
 30
0.0
 11
-29.683941115170239
 21
1455.8872472196681
 31
0.0
  0
SOLID
  5
42242C
  8
DIMENSION
 10
-33.8506077818368
 20
1926.509273727997
 30
0.0
 11
-25.517274448503461
 21
1926.509273727997
 31
0.0
 12
-29.683941115170121
 22
1951.509273727997
 32
0.0
 13
-29.683941115170121
 23
1951.509273727997
 33
0.0
  0
SOLID
  5
42242D
  8
DIMENSION
 10
-33.850607781836928
 20
1347.6592737279971
 30
0.0
 11
-25.517274448503589
 21
1347.6592737279971
 31
0.0
 12
-29.683941115170271
 22
1322.6592737279971
 32
0.0
 13
-29.683941115170271
 23
1322.6592737279971
 33
0.0
  0
TEXT
  5
42242E
  8
DIMENSION
 10
-17.568606130050281
 20
1466.0485866257791
 30
0.0
 40
30.48
  1
629 Mtg Ctrs
 50
90.0
  7
NOTE_TEXT0
  0
LINE
  5
42242F
  8
DIMENSION
 10
2270.6470116385572
 20
887.01508020914173
 30
0.0
 11
2270.6470116385572
 21
991.92968153808511
 31
0.0
  0
LINE
  5
422430
  8
DIMENSION
 10
2345.6470116385572
 20
887.01508020914139
 30
0.0
 11
2345.6470116385572
 21
991.92968153808511
 31
0.0
  0
LINE
  5
422431
  8
DIMENSION
 10
2225.492011638557
 20
960.17968153808522
 30
0.0
 11
2320.6470116385572
 21
960.17968153808522
 31
0.0
  0
SOLID
  5
422434
  8
DIMENSION
 10
2320.6470116385572
 20
964.34634820475185
 30
0.0
 11
2320.6470116385572
 21
956.01301487141825
 31
0.0
 12
2345.6470116385572
 22
960.17968153808522
 32
0.0
 13
2345.6470116385572
 23
960.17968153808522
 33
0.0
  0
TEXT
  5
422435
  8
DIMENSION
 10
2279.4954882220391
 20
984.38297321032871
 30
0.0
 40
30.48
  1
75
  7
NOTE_TEXT0
  0
LINE
  5
422436
  8
DIMENSION
 10
41.416058884487917
 20
923.77058527252939
 30
0.0
 11
41.416058884487917
 21
991.92968153808511
 31
0.0
  0
LINE
  5
422437
  8
DIMENSION
 10
1818.216058884487
 20
923.77058527252996
 30
0.0
 11
1818.216058884487
 21
991.92968153808511
 31
0.0
  0
LINE
  5
422438
  8
DIMENSION
 10
66.416058884487924
 20
960.17968153808522
 30
0.0
 11
874.74332830962635
 21
960.17968153808522
 31
0.0
  0
LINE
  5
422439
  8
DIMENSION
 10
1793.216058884487
 20
960.17968153808522
 30
0.0
 11
991.58332830962559
 21
960.17968153808522
 31
0.0
  0
SOLID
  5
42243A
  8
DIMENSION
 10
66.416058884487924
 20
964.34634820475185
 30
0.0
 11
66.416058884487924
 21
956.01301487141825
 31
0.0
 12
41.416058884487917
 22
960.17968153808522
 32
0.0
 13
41.416058884487917
 23
960.17968153808522
 33
0.0
  0
SOLID
  5
42243B
  8
DIMENSION
 10
1793.216058884487
 20
964.34634820475185
 30
0.0
 11
1793.216058884487
 21
956.01301487141825
 31
0.0
 12
1818.216058884487
 22
960.17968153808522
 32
0.0
 13
1818.216058884487
 23
960.17968153808522
 33
0.0
  0
TEXT
  5
42243C
  8
DIMENSION
 10
882.3643328642097
 20
946.55483727634783
 30
0.0
 40
30.48
  1
1777
  7
NOTE_TEXT0
  0
LINE
  5
42243D
  8
DIMENSION
 10
34.610721084460238
 20
909.71858527252994
 30
0.0
 11
-113.251989462198
 21
909.71858527252994
 31
0.0
  0
LINE
  5
42243E
  8
DIMENSION
 10
20.0352289981168
 20
333.70400277298683
 30
0.0
 11
-113.2519894621981
 21
333.70400277298683
 31
0.0
  0
LINE
  5
42243F
  8
DIMENSION
 10
-81.501989462198068
 20
884.71858527252994
 30
0.0
 11
-81.501989462198111
 21
749.10915305812887
 31
0.0
  0
LINE
  5
422440
  8
DIMENSION
 10
-81.134396904186445
 20
358.70400277298683
 30
0.0
 11
-81.134396904186403
 21
506.0645705585855
 31
0.0
  0
SOLID
  5
422441
  8
DIMENSION
 10
-85.668656128864754
 20
884.71858527252994
 30
0.0
 11
-77.335322795531425
 21
884.71858527252994
 31
0.0
 12
-81.501989462198068
 22
909.71858527252994
 32
0.0
 13
-81.501989462198068
 23
909.71858527252994
 33
0.0
  0
SOLID
  5
422442
  8
DIMENSION
 10
-85.301063570853103
 20
358.70400277298683
 30
0.0
 11
-76.967730237519774
 21
358.70400277298683
 31
0.0
 12
-81.134396904186445
 22
333.70400277298683
 32
0.0
 13
-81.134396904186445
 23
333.70400277298683
 33
0.0
  0
TEXT
  5
422443
  8
DIMENSION
 10
-67.871903544342558
 20
527.11138497461525
 30
0.0
 40
30.48
  1
576 O/D
 50
90.0
  7
NOTE_TEXT0
  0
LINE
  5
422444
  8
DIMENSION
 10
2824.3940116385579
 20
431.51858527253017
 30
0.0
 11
2901.6992331978809
 21
431.51858527253017
 31
0.0
  0
LINE
  5
422445
  8
DIMENSION
 10
2824.3940116385579
 20
796.56858527252973
 30
0.0
 11
2901.6992331978809
 21
796.56858527252973
 31
0.0
  0
LINE
  5
422446
  8
DIMENSION
 10
2869.9492331978781
 20
456.51858527253017
 30
0.0
 11
2869.9492331978781
 21
573.80315442492872
 31
0.0
  0
LINE
  5
422447
  8
DIMENSION
 10
2869.9492331978781
 20
771.56858527252973
 30
0.0
 11
2869.9492331978781
 21
654.28401612013045
 31
0.0
  0
SOLID
  5
422448
  8
DIMENSION
 10
2865.782566531213
 20
456.51858527253017
 30
0.0
 11
2874.115899864546
 21
456.51858527253017
 31
0.0
 12
2869.9492331978781
 22
431.51858527253017
 32
0.0
 13
2869.9492331978781
 23
431.51858527253017
 33
0.0
  0
SOLID
  5
422449
  8
DIMENSION
 10
2865.782566531213
 20
771.56858527252973
 30
0.0
 11
2874.115899864546
 21
771.56858527252973
 31
0.0
 12
2869.9492331978781
 22
796.56858527252973
 32
0.0
 13
2869.9492331978781
 23
796.56858527252973
 33
0.0
  0
TEXT
  5
42244A
  8
DIMENSION
 10
2824.8788410446732
 20
602.44782639826235
 30
0.0
 40
30.48
  1
365
  7
NOTE_TEXT0
  0
LINE
  5
42244B
  8
DIMENSION
 10
2776.294011638558
 20
909.71858527252994
 30
0.0
 11
2901.6992331978809
 21
909.71858527252994
 31
0.0
  0
LINE
  5
42244C
  8
DIMENSION
 10
2824.3940116385579
 20
796.56858527252973
 30
0.0
 11
2901.6992331978809
 21
796.56858527252973
 31
0.0
  0
LINE
  5
42244D
  8
DIMENSION
 10
2869.9492331978781
 20
821.56858527252973
 30
0.0
 11
2869.9492331978781
 21
831.66185049274361
 31
0.0
  0
SOLID
  5
42244F
  8
DIMENSION
 10
2865.782566531213
 20
821.56858527252973
 30
0.0
 11
2874.115899864546
 21
821.56858527252973
 31
0.0
 12
2869.9492331978781
 22
796.56858527252973
 32
0.0
 13
2869.9492331978781
 23
796.56858527252973
 33
0.0
  0
SOLID
  5
422450
  8
DIMENSION
 10
2865.782566531213
 20
884.71858527252994
 30
0.0
 11
2874.115899864546
 21
884.71858527252994
 31
0.0
 12
2869.9492331978781
 22
909.71858527252994
 32
0.0
 13
2869.9492331978781
 23
909.71858527252994
 33
0.0
  0
TEXT
  5
422451
  8
DIMENSION
 10
2840.5098637709889
 20
839.28285504732753
 30
0.0
 40
30.48
  1
113
  7
NOTE_TEXT0
  0
LINE
  5
422452
  8
DIMENSION
 10
127.3660588849679
 20
1229.6072737279831
 30
0.0
 11
127.3660588849679
 21
1144.0816453406551
 31
0.0
  0
LINE
  5
422453
  8
DIMENSION
 10
1417.366058884968
 20
1229.607273727501
 30
0.0
 11
1417.366058884968
 21
1144.081645340452
 31
0.0
  0
LINE
  5
422454
  8
DIMENSION
 10
155.5860588849672
 20
1175.8316453405539
 30
0.0
 11
740.63267426172013
 21
1175.8316453405539
 31
0.0
  0
LINE
  5
422455
  8
DIMENSION
 10
1395.9460588849679
 20
1175.8316453405539
 30
0.0
 11
852.39267426172
 21
1175.8316453405539
 31
0.0
  0
SOLID
  5
422456
  8
DIMENSION
 10
152.3660588849678
 20
1179.9983120073221
 30
0.0
 11
152.3660588849678
 21
1171.6649786739879
 31
0.0
 12
127.3660588849679
 22
1175.8316453406551
 32
0.0
 13
127.3660588849679
 23
1175.8316453406551
 33
0.0
  0
SOLID
  5
422457
  8
DIMENSION
 10
1392.366058884968
 20
1179.998312007119
 30
0.0
 11
1392.366058884968
 21
1171.6649786737839
 31
0.0
 12
1417.366058884968
 22
1175.831645340452
 32
0.0
 13
1417.366058884968
 23
1175.831645340452
 33
0.0
  0
TEXT
  5
422458
  8
DIMENSION
 10
748.25367881630416
 20
1161.331036897777
 30
0.0
 40
30.48
  1
1290
  7
NOTE_TEXT0
  0
LINE
  5
422459
  8
DIMENSION
 10
127.3660588849679
 20
1229.6072737279831
 30
0.0
 11
127.3660588849679
 21
1144.0816453406551
 31
0.0
  0
LINE
  5
42245A
  8
DIMENSION
 10
43.366058885000669
 20
1356.607273727976
 30
0.0
 11
43.366058885000662
 21
1144.081645340555
 31
0.0
  0
LINE
  5
42245B
  8
DIMENSION
 10
105.5860588849672
 20
1175.8316453405539
 30
0.0
 11
242.0469549168445
 21
1175.8316453405539
 31
0.0
  0
LINE
  5
42245C
  8
DIMENSION
 10
71.266058885004767
 20
1175.8316453405539
 30
0.0
 11
147.73528551125921
 21
1175.8316453405539
 31
0.0
  0
SOLID
  5
42245D
  8
DIMENSION
 10
102.3660588849679
 20
1179.9983120073221
 30
0.0
 11
102.3660588849679
 21
1171.6649786739879
 31
0.0
 12
127.3660588849679
 22
1175.8316453406551
 32
0.0
 13
127.3660588849679
 23
1175.8316453406551
 33
0.0
  0
SOLID
  5
42245E
  8
DIMENSION
 10
68.366058885000655
 20
1179.998312007222
 30
0.0
 11
68.366058885000655
 21
1171.6649786738869
 31
0.0
 12
43.366058885000662
 22
1175.831645340555
 32
0.0
 13
43.366058885000662
 23
1175.831645340555
 33
0.0
  0
TEXT
  5
42245F
  8
DIMENSION
 10
64.459694381373396
 20
1107.671636811187
 30
0.0
 40
30.48
  1
84
  7
NOTE_TEXT0
  0
LINE
  5
422460
  8
DIMENSION
 10
97.366058885016187
 20
1967.611273727957
 30
0.0
 11
97.366058885016187
 21
2045.1155527356109
 31
0.0
  0
LINE
  5
422461
  8
DIMENSION
 10
1489.2660588850169
 20
1967.611273727545
 30
0.0
 11
1489.2660588850169
 21
2045.1155527356109
 31
0.0
  0
LINE
  5
422462
  8
DIMENSION
 10
122.3660588850162
 20
2013.3655527356109
 30
0.0
 11
742.77916028100753
 21
2013.3655527356109
 31
0.0
  0
LINE
  5
422463
  8
DIMENSION
 10
1464.2660588850169
 20
2013.3655527356109
 30
0.0
 11
843.85295748902615
 21
2013.3655527356109
 31
0.0
  0
SOLID
  5
422464
  8
DIMENSION
 10
122.3660588850162
 20
2017.5322194022781
 30
0.0
 11
122.3660588850162
 21
2009.1988860689439
 31
0.0
 12
97.366058885016187
 22
2013.3655527356109
 32
0.0
 13
97.366058885016187
 23
2013.3655527356109
 33
0.0
  0
SOLID
  5
422465
  8
DIMENSION
 10
1464.2660588850169
 20
2017.5322194022781
 30
0.0
 11
1464.2660588850169
 21
2009.1988860689439
 31
0.0
 12
1489.2660588850169
 22
2013.3655527356109
 32
0.0
 13
1489.2660588850169
 23
2013.3655527356109
 33
0.0
  0
TEXT
  5
422466
  8
DIMENSION
 10
742.34905692119014
 20
2001.2481544236041
 30
0.0
 40
30.48
  1
1392
  7
NOTE_TEXT0
  0
LINE
  5
422467
  8
DIMENSION
 10
97.366058885016187
 20
1967.611273727957
 30
0.0
 11
97.366058885016187
 21
2045.1155527356109
 31
0.0
  0
LINE
  5
422468
  8
DIMENSION
 10
43.366058885000719
 20
1915.5112737280069
 30
0.0
 11
43.366058885000733
 21
2045.1155527356109
 31
0.0
  0
LINE
  5
422469
  8
DIMENSION
 10
122.3660588850162
 20
2013.3655527356109
 30
0.0
 11
147.36605888501609
 21
2013.3655527356109
 31
0.0
  0
LINE
  5
42246A
  8
DIMENSION
 10
18.366058885000719
 20
2013.3655527356109
 30
0.0
 11
-10.84801221879567
 21
2013.3655527356109
 31
0.0
  0
SOLID
  5
42246B
  8
DIMENSION
 10
122.3660588850162
 20
2017.5322194022781
 30
0.0
 11
122.3660588850162
 21
2009.1988860689439
 31
0.0
 12
97.366058885016187
 22
2013.3655527356109
 32
0.0
 13
97.366058885016187
 23
2013.3655527356109
 33
0.0
  0
SOLID
  5
42246C
  8
DIMENSION
 10
18.366058885000719
 20
2017.5322194022781
 30
0.0
 11
18.366058885000719
 21
2009.1988860689439
 31
0.0
 12
43.366058885000733
 22
2013.3655527356109
 32
0.0
 13
43.366058885000733
 23
2013.3655527356109
 33
0.0
  0
TEXT
  5
42246D
  8
DIMENSION
 10
-71.739294176504657
 20
1994.7725064510889
 30
0.0
 40
30.48
  1
54
  7
NOTE_TEXT0
  0
LINE
  5
42246E
  8
DIMENSION
 10
2869.9492331978781
 20
877.38185049274352
 30
0.0
 11
2869.9492331978781
 21
884.71858527252994
 31
0.0
  0
TEXT
  5
4224D5
  8
TEXT
 62
     7
 10
2269.0782391590851
 20
595.87442823712911
 30
0.0
 40
45.0
  1
HWP225 UC7
  7
TITLE3
  0
TEXT
  5
4224D6
  8
SYMBOL
 10
2317.9953573747111
 20
764.2258109020255
 30
0.0
 40
21.336000263690948
  1
WATER IN 1" BSP
  7
NOTE_TEXT
  0
INSERT
  5
4224D7
  8
0
  2
*U9
 10
2715.4310543688571
 20
486.5527195144038
 30
0.0
 41
-1.0
1001
ACAD
1000
DSTYLE
1002
{
1070
    77
1070
     0
1002
}
  0
TEXT
  5
4224DA
  8
SYMBOL
 10
-645.6379881130913
 20
267.25239055561951
 30
0.0
 40
21.336000263690948
  1
Ø28.6 DRAIN PIPE
  7
NOTE_TEXT
  0
LINE
  5
422676
  8
0
 10
60.285857278369782
 20
909.26858527252989
 30
0.0
 11
60.285857278369782
 21
903.76858527252989
 31
0.0
  0
LINE
  5
422677
  8
0
 10
80.346260490576242
 20
909.26858527252989
 30
0.0
 11
80.346260490576242
 21
903.76858527252989
 31
0.0
  0
LINE
  5
422678
  8
0
 10
-386.56935635212523
 20
909.26858527252989
 30
0.0
 11
-386.56935635212523
 21
903.76858527252989
 31
0.0
  0
LINE
  5
422679
  8
0
 10
-366.50895313991907
 20
909.26858527252989
 30
0.0
 11
-366.50895313991907
 21
903.76858527252989
 31
0.0
  0
LINE
  5
42267A
  8
0
 10
-1015.419356352126
 20
909.26858527252989
 30
0.0
 11
-1015.419356352126
 21
903.76858527252989
 31
0.0
  0
LINE
  5
42267B
  8
0
 10
-995.35895313991944
 20
909.26858527252989
 30
0.0
 11
-995.35895313991944
 21
903.76858527252989
 31
0.0
  0
LINE
  5
42267C
  8
0
 10
1765.28585727837
 20
909.26858527252989
 30
0.0
 11
1765.28585727837
 21
903.76858527252989
 31
0.0
  0
LINE
  5
42267D
  8
0
 10
1785.346260490576
 20
909.26858527252989
 30
0.0
 11
1785.346260490576
 21
903.76858527252989
 31
0.0
  0
LINE
  5
42267E
  8
0
 10
2169.411810032454
 20
909.26858527252989
 30
0.0
 11
2169.411810032454
 21
903.76858527252989
 31
0.0
  0
LINE
  5
42267F
  8
0
 10
2189.4722132446609
 20
909.26858527252989
 30
0.0
 11
2189.4722132446609
 21
903.76858527252955
 31
0.0
  0
LINE
  5
422680
  8
0
 10
2797.3118100324541
 20
909.26858527252989
 30
0.0
 11
2797.3118100324541
 21
903.76858527252955
 31
0.0
  0
LINE
  5
422681
  8
0
 10
2817.3722132446628
 20
909.26858527252989
 30
0.0
 11
2817.3722132446628
 21
903.76858527252989
 31
0.0
  0
LINE
  5
422882
  8
DIMENSION
 10
2225.492011638557
 20
914.94517653277205
 30
0.0
 11
2225.492011638557
 21
991.92968153808636
 31
0.0
  0
SOLID
  5
422883
  8
DIMENSION
 10
2250.4920116385579
 20
964.34634820475264
 30
0.0
 11
2250.4920116385579
 21
956.01301487141916
 31
0.0
 12
2225.492011638557
 22
960.17968153808636
 32
0.0
 13
2225.492011638557
 23
960.17968153808636
 33
0.0
  0
LINE
  5
422886
  8
0
 10
2263.6228654088641
 20
953.15553530839145
 30
0.0
 11
2277.6711578682512
 21
967.20382776777876
 31
0.0
  0
LINE
  5
422887
  8
0
 10
2263.6228654088641
 20
967.20382776777876
 30
0.0
 11
2277.6711578682512
 21
953.15553530839134
 31
0.0
  0
TEXT
  5
422888
  8
DIMENSION
 10
2163.9534730562309
 20
984.38297321032871
 30
0.0
 40
30.48
  1
45
  7
NOTE_TEXT0
  0
TEXT
  5
422A30
  8
TEXT
 62
     7
 10
549.98534997270735
 20
595.87442823712911
 30
0.0
 40
45.0
  1
HWP225 UC7
  7
TITLE3
  0
TEXT
  5
422A31
  8
TEXT
 62
     7
 10
549.98534997270735
 20
1614.037226260351
 30
0.0
 40
45.0
  1
HWP225 UC7
  7
TITLE3
  0
LINE
  5
422CA2
  8
VISIBLE
 10
-422.58915474603759
 20
473.71858527252971
 30
0.0
 11
-299.48915474603729
 21
473.71858527252971
 31
0.0
  0
LINE
  5
422CA3
  8
VISIBLE
 10
125.4160588848472
 20
773.71858527252994
 30
0.0
 11
1415.416058884847
 21
773.71858527252994
 31
0.0
  0
LINE
  5
422CA4
  8
VISIBLE
 10
125.4160588847585
 20
473.71858527252971
 30
0.0
 11
1415.4160588847581
 21
473.71858527252971
 31
0.0
  0
LINE
  5
422CA5
  8
VISIBLE
 10
2102.392011638558
 20
773.71858527252994
 30
0.0
 11
2225.4920116385538
 21
773.71858527252994
 31
0.0
  0
LINE
  5
422CA7
  8
VISIBLE
 10
1415.416058884844
 20
1368.7092737276021
 30
0.0
 11
1415.4160588848081
 21
1245.609273727604
 31
0.0
  0
LINE
  5
422CAA
  8
VISIBLE
 10
125.4160588848472
 20
773.71858527252994
 30
0.0
 11
125.4160588847585
 21
473.71858527252959
 31
0.0
  0
LINE
  5
422CAB
  8
VISIBLE
 10
1415.416058884847
 20
773.71858527252994
 30
0.0
 11
1415.4160588847581
 21
473.71858527252971
 31
0.0
  0
LINE
  5
422D09
  8
VISIBLE
 10
1853.2660588848751
 20
1368.7092737274711
 30
0.0
 11
1853.266058884838
 21
1244.65927372743
 31
0.0
  0
LINE
  5
422D0A
  8
VISIBLE
 10
1853.2660588848919
 20
737.66858527252043
 30
0.0
 11
1853.2660588847839
 21
375.41858527250753
 31
0.0
  0
TEXT
  5
422F0D
  8
TEXT
 62
     7
 10
-907.21850515842823
 20
595.87442823712911
 30
0.0
 40
45.0
  1
HWP225 UC7
  7
TITLE3
  0
LINE
  5
4230B4
  8
VISIBLE
 10
2771.3420116385591
 20
351.71858527252988
 30
0.0
 11
2215.4420116385581
 21
351.71858527252988
 31
0.0
  0
LINE
  5
4230B8
  8
VISIBLE
 10
2771.3420116385591
 20
405.71858527252988
 30
0.0
 11
2771.3420116385591
 21
333.71858527252988
 31
0.0
  0
LINE
  5
4230B9
  8
VISIBLE
 10
2215.4420116385581
 20
375.41858527251031
 30
0.0
 11
2215.4420116385581
 21
333.71858527252988
 31
0.0
  0
LINE
  5
4230BA
  8
VISIBLE
 10
2771.3420116385591
 20
405.71858527252988
 30
0.0
 11
2225.4920116385451
 21
405.71858527252988
 31
0.0
  0
LINE
  5
423114
  8
VISIBLE
 10
1827.9660588844879
 20
375.41858527250753
 30
0.0
 11
1827.9660588844879
 21
352.71864117323048
 31
0.0
  0
LINE
  5
423118
  8
0
 10
31.066058884486889
 20
386.71858527252988
 30
0.0
 11
1492.3910588844501
 21
402.1702937704984
 31
0.0
  0
LINE
  5
42311C
  8
VISIBLE
 10
31.066058884486889
 20
386.71858527252988
 30
0.0
 11
31.066058884486889
 21
333.71864117323042
 31
0.0
  0
LINE
  5
42312E
  8
VISIBLE
 10
7.1660588844868931
 20
367.7578450025195
 30
0.0
 11
7.1660588844868931
 21
339.17624736049839
 31
0.0
  0
LINE
  5
423130
  8
0
 10
31.066058884486889
 20
333.71864117323042
 30
0.0
 11
1827.9660588844879
 21
352.71864117323048
 31
0.0
  0
LINE
  5
423132
  8
VISIBLE
 10
2771.3420116385591
 20
333.71858527252988
 30
0.0
 11
2215.4420116385581
 21
333.71858527252988
 31
0.0
  0
LINE
  5
423133
  8
0
 10
7.1660588844868931
 20
367.7578450025195
 30
0.0
 11
31.066058884486889
 21
368.01055800825151
 31
0.0
  0
LINE
  5
423134
  8
0
 10
7.1660588844868931
 20
339.17624736049839
 30
0.0
 11
31.0660588844869
 21
339.42896036623051
 31
0.0
  0
LINE
  5
423193
  8
VISIBLE
 10
-971.33915474603702
 20
368.46858527253022
 30
0.0
 11
-971.33915474603702
 21
405.71858527252988
 31
0.0
  0
LINE
  5
423195
  8
VISIBLE
 10
-971.33915474603702
 20
375.4185852725102
 30
0.0
 11
-971.33915474603702
 21
333.71858527252988
 31
0.0
  0
LINE
  5
423196
  8
VISIBLE
 10
-415.4391547460358
 20
386.71858527252988
 30
0.0
 11
-415.43915474603591
 21
333.71858527252988
 31
0.0
  0
LINE
  5
423197
  8
VISIBLE
 10
-959.33915474603702
 20
405.71858527252988
 30
0.0
 11
-971.33915474603702
 21
405.71858527252988
 31
0.0
  0
LINE
  5
423198
  8
VISIBLE
 10
-415.43915474603591
 20
333.71858527252988
 30
0.0
 11
-971.33915474603702
 21
333.71858527252988
 31
0.0
  0
LINE
  5
42319B
  8
0
 10
-415.43915474603591
 20
386.71858527252988
 30
0.0
 11
-971.33915474603702
 21
386.71858527252988
 31
0.0
  0
POLYLINE
  5
4231A2
  8
0
 10
-693.38915474603641
 20
367.7578450025195
 30
0.0
 66
     1
 70
     8
  0
VERTEX
  8
0
  5
4233E5
 10
-693.389
 20
367.758
 30
0.000000
  70
    32
  0
VERTEX
  8
0
  5
4233E6
 10
-694.090
 20
367.741
 30
0.000000
  70
    32
  0
VERTEX
  8
0
  5
4233E7
 10
-694.790
 20
367.689
 30
0.000000
  70
    32
  0
VERTEX
  8
0
  5
4233E8
 10
-695.486
 20
367.603
 30
0.000000
  70
    32
  0
VERTEX
  8
0
  5
4233E9
 10
-696.177
 20
367.483
 30
0.000000
  70
    32
  0
VERTEX
  8
0
  5
4233EA
 10
-696.861
 20
367.330
 30
0.000000
  70
    32
  0
VERTEX
  8
0
  5
4233EB
 10
-697.537
 20
367.142
 30
0.000000
  70
    32
  0
VERTEX
  8
0
  5
4233EC
 10
-698.203
 20
366.922
 30
0.000000
  70
    32
  0
VERTEX
  8
0
  5
4233ED
 10
-698.858
 20
366.670
 30
0.000000
  70
    32
  0
VERTEX
  8
0
  5
4233EE
 10
-699.499
 20
366.386
 30
0.000000
  70
    32
  0
VERTEX
  8
0
  5
4233EF
 10
-700.125
 20
366.070
 30
0.000000
  70
    32
  0
VERTEX
  8
0
  5
4233F0
 10
-700.736
 20
365.725
 30
0.000000
  70
    32
  0
VERTEX
  8
0
  5
4233F1
 10
-701.328
 20
365.349
 30
0.000000
  70
    32
  0
VERTEX
  8
0
  5
4233F2
 10
-701.902
 20
364.946
 30
0.000000
  70
    32
  0
VERTEX
  8
0
  5
4233F3
 10
-702.455
 20
364.514
 30
0.000000
  70
    32
  0
VERTEX
  8
0
  5
4233F4
 10
-702.986
 20
364.056
 30
0.000000
  70
    32
  0
VERTEX
  8
0
  5
4233F5
 10
-703.494
 20
363.572
 30
0.000000
  70
    32
  0
VERTEX
  8
0
  5
4233F6
 10
-703.977
 20
363.064
 30
0.000000
  70
    32
  0
VERTEX
  8
0
  5
4233F7
 10
-704.435
 20
362.533
 30
0.000000
  70
    32
  0
VERTEX
  8
0
  5
4233F8
 10
-704.867
 20
361.980
 30
0.000000
  70
    32
  0
VERTEX
  8
0
  5
4233F9
 10
-705.271
 20
361.407
 30
0.000000
  70
    32
  0
VERTEX
  8
0
  5
4233FA
 10
-705.646
 20
360.814
 30
0.000000
  70
    32
  0
VERTEX
  8
0
  5
4233FB
 10
-705.992
 20
360.204
 30
0.000000
  70
    32
  0
VERTEX
  8
0
  5
4233FC
 10
-706.307
 20
359.577
 30
0.000000
  70
    32
  0
VERTEX
  8
0
  5
4233FD
 10
-706.591
 20
358.936
 30
0.000000
  70
    32
  0
VERTEX
  8
0
  5
4233FE
 10
-706.844
 20
358.281
 30
0.000000
  70
    32
  0
VERTEX
  8
0
  5
4233FF
 10
-707.064
 20
357.615
 30
0.000000
  70
    32
  0
VERTEX
  8
0
  5
423400
 10
-707.251
 20
356.939
 30
0.000000
  70
    32
  0
VERTEX
  8
0
  5
423401
 10
-707.405
 20
356.255
 30
0.000000
  70
    32
  0
VERTEX
  8
0
  5
423402
 10
-707.524
 20
355.564
 30
0.000000
  70
    32
  0
VERTEX
  8
0
  5
423403
 10
-707.610
 20
354.868
 30
0.000000
  70
    32
  0
VERTEX
  8
0
  5
423404
 10
-707.662
 20
354.168
 30
0.000000
  70
    32
  0
VERTEX
  8
0
  5
423405
 10
-707.679
 20
353.467
 30
0.000000
  70
    32
  0
VERTEX
  8
0
  5
423406
 10
-707.662
 20
352.766
 30
0.000000
  70
    32
  0
VERTEX
  8
0
  5
423407
 10
-707.610
 20
352.066
 30
0.000000
  70
    32
  0
VERTEX
  8
0
  5
423408
 10
-707.524
 20
351.370
 30
0.000000
  70
    32
  0
VERTEX
  8
0
  5
423409
 10
-707.405
 20
350.679
 30
0.000000
  70
    32
  0
VERTEX
  8
0
  5
42340A
 10
-707.251
 20
349.995
 30
0.000000
  70
    32
  0
VERTEX
  8
0
  5
42340B
 10
-707.064
 20
349.319
 30
0.000000
  70
    32
  0
VERTEX
  8
0
  5
42340C
 10
-706.844
 20
348.653
 30
0.000000
  70
    32
  0
VERTEX
  8
0
  5
42340D
 10
-706.591
 20
347.998
 30
0.000000
  70
    32
  0
VERTEX
  8
0
  5
42340E
 10
-706.307
 20
347.357
 30
0.000000
  70
    32
  0
VERTEX
  8
0
  5
42340F
 10
-705.992
 20
346.730
 30
0.000000
  70
    32
  0
VERTEX
  8
0
  5
423410
 10
-705.646
 20
346.120
 30
0.000000
  70
    32
  0
VERTEX
  8
0
  5
423411
 10
-705.271
 20
345.528
 30
0.000000
  70
    32
  0
VERTEX
  8
0
  5
423412
 10
-704.867
 20
344.954
 30
0.000000
  70
    32
  0
VERTEX
  8
0
  5
423413
 10
-704.435
 20
344.401
 30
0.000000
  70
    32
  0
VERTEX
  8
0
  5
423414
 10
-703.977
 20
343.870
 30
0.000000
  70
    32
  0
VERTEX
  8
0
  5
423415
 10
-703.494
 20
343.362
 30
0.000000
  70
    32
  0
VERTEX
  8
0
  5
423416
 10
-702.986
 20
342.878
 30
0.000000
  70
    32
  0
VERTEX
  8
0
  5
423417
 10
-702.455
 20
342.420
 30
0.000000
  70
    32
  0
VERTEX
  8
0
  5
423418
 10
-701.902
 20
341.989
 30
0.000000
  70
    32
  0
VERTEX
  8
0
  5
423419
 10
-701.328
 20
341.585
 30
0.000000
  70
    32
  0
VERTEX
  8
0
  5
42341A
 10
-700.736
 20
341.209
 30
0.000000
  70
    32
  0
VERTEX
  8
0
  5
42341B
 10
-700.125
 20
340.864
 30
0.000000
  70
    32
  0
VERTEX
  8
0
  5
42341C
 10
-699.499
 20
340.548
 30
0.000000
  70
    32
  0
VERTEX
  8
0
  5
42341D
 10
-698.858
 20
340.264
 30
0.000000
  70
    32
  0
VERTEX
  8
0
  5
42341E
 10
-698.203
 20
340.012
 30
0.000000
  70
    32
  0
VERTEX
  8
0
  5
42341F
 10
-697.537
 20
339.792
 30
0.000000
  70
    32
  0
VERTEX
  8
0
  5
423420
 10
-696.861
 20
339.605
 30
0.000000
  70
    32
  0
VERTEX
  8
0
  5
423421
 10
-696.177
 20
339.451
 30
0.000000
  70
    32
  0
VERTEX
  8
0
  5
423422
 10
-695.486
 20
339.331
 30
0.000000
  70
    32
  0
VERTEX
  8
0
  5
423423
 10
-694.790
 20
339.245
 30
0.000000
  70
    32
  0
VERTEX
  8
0
  5
423424
 10
-694.090
 20
339.193
 30
0.000000
  70
    32
  0
VERTEX
  8
0
  5
423425
 10
-693.389
 20
339.176
 30
0.000000
  70
    32
  0
VERTEX
  8
0
  5
423426
 10
-692.688
 20
339.193
 30
0.000000
  70
    32
  0
VERTEX
  8
0
  5
423427
 10
-691.988
 20
339.245
 30
0.000000
  70
    32
  0
VERTEX
  8
0
  5
423428
 10
-691.292
 20
339.331
 30
0.000000
  70
    32
  0
VERTEX
  8
0
  5
423429
 10
-690.601
 20
339.451
 30
0.000000
  70
    32
  0
VERTEX
  8
0
  5
42342A
 10
-689.917
 20
339.605
 30
0.000000
  70
    32
  0
VERTEX
  8
0
  5
42342B
 10
-689.241
 20
339.792
 30
0.000000
  70
    32
  0
VERTEX
  8
0
  5
42342C
 10
-688.575
 20
340.012
 30
0.000000
  70
    32
  0
VERTEX
  8
0
  5
42342D
 10
-687.921
 20
340.264
 30
0.000000
  70
    32
  0
VERTEX
  8
0
  5
42342E
 10
-687.279
 20
340.548
 30
0.000000
  70
    32
  0
VERTEX
  8
0
  5
42342F
 10
-686.653
 20
340.864
 30
0.000000
  70
    32
  0
VERTEX
  8
0
  5
423430
 10
-686.043
 20
341.209
 30
0.000000
  70
    32
  0
VERTEX
  8
0
  5
423431
 10
-685.450
 20
341.585
 30
0.000000
  70
    32
  0
VERTEX
  8
0
  5
423432
 10
-684.877
 20
341.989
 30
0.000000
  70
    32
  0
VERTEX
  8
0
  5
423433
 10
-684.324
 20
342.420
 30
0.000000
  70
    32
  0
VERTEX
  8
0
  5
423434
 10
-683.793
 20
342.878
 30
0.000000
  70
    32
  0
VERTEX
  8
0
  5
423435
 10
-683.285
 20
343.362
 30
0.000000
  70
    32
  0
VERTEX
  8
0
  5
423436
 10
-682.801
 20
343.870
 30
0.000000
  70
    32
  0
VERTEX
  8
0
  5
423437
 10
-682.343
 20
344.401
 30
0.000000
  70
    32
  0
VERTEX
  8
0
  5
423438
 10
-681.911
 20
344.954
 30
0.000000
  70
    32
  0
VERTEX
  8
0
  5
423439
 10
-681.507
 20
345.528
 30
0.000000
  70
    32
  0
VERTEX
  8
0
  5
42343A
 10
-681.132
 20
346.120
 30
0.000000
  70
    32
  0
VERTEX
  8
0
  5
42343B
 10
-680.786
 20
346.730
 30
0.000000
  70
    32
  0
VERTEX
  8
0
  5
42343C
 10
-680.471
 20
347.357
 30
0.000000
  70
    32
  0
VERTEX
  8
0
  5
42343D
 10
-680.187
 20
347.998
 30
0.000000
  70
    32
  0
VERTEX
  8
0
  5
42343E
 10
-679.934
 20
348.653
 30
0.000000
  70
    32
  0
VERTEX
  8
0
  5
42343F
 10
-679.714
 20
349.319
 30
0.000000
  70
    32
  0
VERTEX
  8
0
  5
423440
 10
-679.527
 20
349.995
 30
0.000000
  70
    32
  0
VERTEX
  8
0
  5
423441
 10
-679.374
 20
350.679
 30
0.000000
  70
    32
  0
VERTEX
  8
0
  5
423442
 10
-679.254
 20
351.370
 30
0.000000
  70
    32
  0
VERTEX
  8
0
  5
423443
 10
-679.168
 20
352.066
 30
0.000000
  70
    32
  0
VERTEX
  8
0
  5
423444
 10
-679.116
 20
352.766
 30
0.000000
  70
    32
  0
VERTEX
  8
0
  5
423445
 10
-679.099
 20
353.467
 30
0.000000
  70
    32
  0
VERTEX
  8
0
  5
423446
 10
-679.116
 20
354.168
 30
0.000000
  70
    32
  0
VERTEX
  8
0
  5
423447
 10
-679.168
 20
354.868
 30
0.000000
  70
    32
  0
VERTEX
  8
0
  5
423448
 10
-679.254
 20
355.564
 30
0.000000
  70
    32
  0
VERTEX
  8
0
  5
423449
 10
-679.374
 20
356.255
 30
0.000000
  70
    32
  0
VERTEX
  8
0
  5
42344A
 10
-679.527
 20
356.939
 30
0.000000
  70
    32
  0
VERTEX
  8
0
  5
42344B
 10
-679.714
 20
357.615
 30
0.000000
  70
    32
  0
VERTEX
  8
0
  5
42344C
 10
-679.934
 20
358.281
 30
0.000000
  70
    32
  0
VERTEX
  8
0
  5
42344D
 10
-680.187
 20
358.936
 30
0.000000
  70
    32
  0
VERTEX
  8
0
  5
42344E
 10
-680.471
 20
359.577
 30
0.000000
  70
    32
  0
VERTEX
  8
0
  5
42344F
 10
-680.786
 20
360.204
 30
0.000000
  70
    32
  0
VERTEX
  8
0
  5
423450
 10
-681.132
 20
360.814
 30
0.000000
  70
    32
  0
VERTEX
  8
0
  5
423451
 10
-681.507
 20
361.407
 30
0.000000
  70
    32
  0
VERTEX
  8
0
  5
423452
 10
-681.911
 20
361.980
 30
0.000000
  70
    32
  0
VERTEX
  8
0
  5
423453
 10
-682.343
 20
362.533
 30
0.000000
  70
    32
  0
VERTEX
  8
0
  5
423454
 10
-682.801
 20
363.064
 30
0.000000
  70
    32
  0
VERTEX
  8
0
  5
423455
 10
-683.285
 20
363.572
 30
0.000000
  70
    32
  0
VERTEX
  8
0
  5
423456
 10
-683.793
 20
364.056
 30
0.000000
  70
    32
  0
VERTEX
  8
0
  5
423457
 10
-684.324
 20
364.514
 30
0.000000
  70
    32
  0
VERTEX
  8
0
  5
423458
 10
-684.877
 20
364.946
 30
0.000000
  70
    32
  0
VERTEX
  8
0
  5
423459
 10
-685.450
 20
365.349
 30
0.000000
  70
    32
  0
VERTEX
  8
0
  5
42345A
 10
-686.043
 20
365.725
 30
0.000000
  70
    32
  0
VERTEX
  8
0
  5
42345B
 10
-686.653
 20
366.070
 30
0.000000
  70
    32
  0
VERTEX
  8
0
  5
42345C
 10
-687.279
 20
366.386
 30
0.000000
  70
    32
  0
VERTEX
  8
0
  5
42345D
 10
-687.921
 20
366.670
 30
0.000000
  70
    32
  0
VERTEX
  8
0
  5
42345E
 10
-688.575
 20
366.922
 30
0.000000
  70
    32
  0
VERTEX
  8
0
  5
42345F
 10
-689.241
 20
367.142
 30
0.000000
  70
    32
  0
VERTEX
  8
0
  5
423460
 10
-689.917
 20
367.330
 30
0.000000
  70
    32
  0
VERTEX
  8
0
  5
423461
 10
-690.601
 20
367.483
 30
0.000000
  70
    32
  0
VERTEX
  8
0
  5
423462
 10
-691.292
 20
367.603
 30
0.000000
  70
    32
  0
VERTEX
  8
0
  5
423463
 10
-691.988
 20
367.689
 30
0.000000
  70
    32
  0
VERTEX
  8
0
  5
423464
 10
-692.688
 20
367.741
 30
0.000000
  70
    32
  0
VERTEX
  8
0
  5
423465
 10
-693.389
 20
367.758
 30
0.000000
  70
    32
  0
SEQEND
  8
0
  5
423466
  0
LINE
  5
423201
  8
DIMENSION
 10
7.1660588844868931
 20
379.49634670249998
 30
0.0
 11
7.1660588844868931
 21
1052.6026856078711
 31
0.0
  0
SOLID
  5
423202
  8
DIMENSION
 10
32.166058884486901
 20
1025.019352274536
 30
0.0
 11
32.166058884486901
 21
1016.686018941204
 31
0.0
 12
7.1660588844868931
 22
1020.852685607871
 32
0.0
 13
7.1660588844868931
 23
1020.852685607871
 33
0.0
  0
LINE
  5
423310
  8
0
 10
31.066058884486889
 20
1917.359273728028
 30
0.0
 11
46.816058885006221
 21
1917.359273728028
 31
0.0
  0
LINE
  5
423311
  8
0
 10
31.066058884486889
 20
1361.459273728027
 30
0.0
 11
31.066058884486889
 21
1917.359273728028
 31
0.0
  0
LINE
  5
423312
  8
0
 10
31.066058884486889
 20
1361.459273728027
 30
0.0
 11
46.816058884841162
 21
1361.459273728027
 31
0.0
  0
LINE
  5
42331F
  8
0
 10
1827.9660588844879
 20
1368.7092737274791
 30
0.0
 11
1827.9660588844879
 21
1394.2342737274651
 31
0.0
  0
LINE
  5
423320
  8
0
 10
93.816058885006257
 20
1917.359273728028
 30
0.0
 11
97.366058885006254
 21
1917.3592737280289
 31
0.0
  0
LINE
  5
423321
  8
0
 10
1489.2660588850069
 20
1917.359273728028
 30
0.0
 11
1555.391058885006
 21
1917.3592737280289
 31
0.0
  0
LINE
  5
423322
  8
0
 10
1695.391058885006
 20
1917.3592737280289
 30
0.0
 11
1751.816058885006
 21
1917.3592737280289
 31
0.0
  0
LINE
  5
423323
  8
0
 10
1798.8160588850051
 20
1917.359273728028
 30
0.0
 11
1827.9660588844879
 21
1917.359273728028
 31
0.0
  0
LINE
  5
423324
  8
0
 10
1827.9660588844879
 20
1706.609273727352
 30
0.0
 11
1827.9660588844879
 21
1917.3592737280289
 31
0.0
  0
LINE
  5
423325
  8
0
 10
1827.9660588844879
 20
1433.4942737274639
 30
0.0
 11
1827.9660588844879
 21
1469.2342737274651
 31
0.0
  0
LINE
  5
423326
  8
0
 10
1827.9660588844879
 20
1508.494273727463
 30
0.0
 11
1827.9660588844879
 21
1566.6092737273509
 31
0.0
  0
LINE
  5
423327
  8
0
 10
1415.416058884842
 20
1361.459273728027
 30
0.0
 11
1492.3910588848439
 21
1361.459273728027
 31
0.0
  0
LINE
  5
423328
  8
0
 10
93.816058884841198
 20
1361.459273728027
 30
0.0
 11
125.4160588848423
 21
1361.459273728027
 31
0.0
  0
LINE
  5
42332A
  8
0
 10
31.066058884486889
 20
1653.6992737280279
 30
0.0
 11
7.1660588844868931
 21
1653.6992737280279
 31
0.0
  0
LINE
  5
42332B
  8
0
 10
31.066058884486889
 20
1625.119273728028
 30
0.0
 11
7.1660588844868931
 21
1625.119273728028
 31
0.0
  0
LINE
  5
42332C
  8
0
 10
7.166058884486894
 20
1625.119273728028
 30
0.0
 11
7.1660588844868931
 21
1653.6992737280279
 31
0.0
  0
ENDSEC
  0
EOF
