  0
SECTION
  2
HEADER
  9
$ACADVER
  1
AC1009
  9
$INSBASE
 10
0.0
 20
0.0
 30
0.0
  9
$EXTMIN
 10
-144.2872243682468
 20
-0.1469889719010098
 30
-0.0015258207003583
  9
$EXTMAX
 10
3917.1464350978949
 20
5298.8422508061449
 30
0.0000000349246037
  9
$LIMMIN
 10
0.0
 20
0.0
  9
$LIMMAX
 10
3890.0
 20
2660.0
  9
$ORTHOMODE
 70
     1
  9
$REGENMODE
 70
     1
  9
$FILLMODE
 70
     1
  9
$QTEXTMODE
 70
     0
  9
$MIRRTEXT
 70
     0
  9
$DRAGMODE
 70
     2
  9
$LTSCALE
 40
300.0
  9
$OSMODE
 70
  3071
  9
$ATTMODE
 70
     1
  9
$TEXTSIZE
 40
30.0
  9
$TRACEWID
 40
0.05
  9
$TEXTSTYLE
  7
TITLE3
  9
$CLAYER
  8
0
  9
$CELTYPE
  6
BYLAYER
  9
$CECOLOR
 62
   256
  9
$DIMSCALE
 40
1.0
  9
$DIMASZ
 40
30.0
  9
$DIMEXO
 40
20.0
  9
$DIMDLI
 40
0.38
  9
$DIMRND
 40
0.0
  9
$DIMDLE
 40
0.0
  9
$DIMEXE
 40
20.0
  9
$DIMTP
 40
0.0
  9
$DIMTM
 40
0.0
  9
$DIMTXT
 40
30.0
  9
$DIMCEN
 40
0.09
  9
$DIMTSZ
 40
0.0
  9
$DIMTOL
 70
     0
  9
$DIMLIM
 70
     0
  9
$DIMTIH
 70
     0
  9
$DIMTOH
 70
     0
  9
$DIMSE1
 70
     0
  9
$DIMSE2
 70
     0
  9
$DIMTAD
 70
     0
  9
$DIMZIN
 70
     0
  9
$DIMBLK
  1

  9
$DIMASO
 70
     0
  9
$DIMSHO
 70
     0
  9
$DIMPOST
  1

  9
$DIMAPOST
  1

  9
$DIMALT
 70
     0
  9
$DIMALTD
 70
     2
  9
$DIMALTF
 40
25.399999999999999
  9
$DIMLFAC
 40
1.0
  9
$DIMTOFL
 70
     0
  9
$DIMTVP
 40
0.0
  9
$DIMTIX
 70
     0
  9
$DIMSOXD
 70
     0
  9
$DIMSAH
 70
     0
  9
$DIMBLK1
  1

  9
$DIMBLK2
  1

  9
$DIMSTYLE
  2
STANDARD
  9
$DIMCLRD
 70
    52
  9
$DIMCLRE
 70
    52
  9
$DIMCLRT
 70
    50
  9
$DIMTFAC
 40
1.0
  9
$DIMGAP
 40
20.0
  9
$LUNITS
 70
     2
  9
$LUPREC
 70
     2
  9
$SKETCHINC
 40
0.1
  9
$FILLETRAD
 40
0.0
  9
$AUNITS
 70
     0
  9
$AUPREC
 70
     2
  9
$MENU
  1
\acad12\support\cnc
  9
$ELEVATION
 40
0.0
  9
$PELEVATION
 40
0.0
  9
$THICKNESS
 40
0.0
  9
$LIMCHECK
 70
     0
  9
$BLIPMODE
 70
     0
  9
$CHAMFERA
 40
20.0
  9
$CHAMFERB
 40
20.0
  9
$SKPOLY
 70
     0
  9
$TDCREATE
 40
2450610.4026309028
  9
$TDUPDATE
 40
2454424.5460146181
  9
$TDINDWG
 40
0.5977178356
  9
$TDUSRTIMER
 40
0.5977166204
  9
$USRTIMER
 70
     1
  9
$ANGBASE
 50
0.0
  9
$ANGDIR
 70
     0
  9
$PDMODE
 70
     2
  9
$PDSIZE
 40
10.0
  9
$PLINEWID
 40
2.0
  9
$COORDS
 70
     1
  9
$SPLFRAME
 70
     0
  9
$SPLINETYPE
 70
     6
  9
$SPLINESEGS
 70
     8
  9
$ATTDIA
 70
     0
  9
$ATTREQ
 70
     1
  9
$HANDLING
 70
     1
  9
$HANDSEED
  5
8C34
  9
$SURFTAB1
 70
     6
  9
$SURFTAB2
 70
     6
  9
$SURFTYPE
 70
     6
  9
$SURFU
 70
     6
  9
$SURFV
 70
     6
  9
$UCSNAME
  2

  9
$UCSORG
 10
0.0
 20
0.0
 30
0.0
  9
$UCSXDIR
 10
1.0
 20
0.0
 30
0.0
  9
$UCSYDIR
 10
0.0
 20
1.0
 30
0.0
  9
$PUCSNAME
  2

  9
$PUCSORG
 10
0.0
 20
0.0
 30
0.0
  9
$PUCSXDIR
 10
1.0
 20
0.0
 30
0.0
  9
$PUCSYDIR
 10
0.0
 20
1.0
 30
0.0
  9
$USERI1
 70
     0
  9
$USERI2
 70
     0
  9
$USERI3
 70
     0
  9
$USERI4
 70
     0
  9
$USERI5
 70
     0
  9
$USERR1
 40
0.0
  9
$USERR2
 40
0.0
  9
$USERR3
 40
0.0
  9
$USERR4
 40
0.0
  9
$USERR5
 40
0.0
  9
$WORLDVIEW
 70
     1
  9
$SHADEDGE
 70
     3
  9
$SHADEDIF
 70
    70
  9
$TILEMODE
 70
     1
  9
$MAXACTVP
 70
    16
  9
$PLIMCHECK
 70
     0
  9
$PEXTMIN
 10
1.0000000000000000E+020
 20
1.0000000000000000E+020
 30
1.0000000000000000E+020
  9
$PEXTMAX
 10
-1.0000000000000000E+020
 20
-1.0000000000000000E+020
 30
-1.0000000000000000E+020
  9
$PLIMMIN
 10
0.0
 20
0.0
  9
$PLIMMAX
 10
12.0
 20
9.0
  9
$UNITMODE
 70
     0
  9
$VISRETAIN
 70
     0
  9
$PLINEGEN
 70
     0
  9
$PSLTSCALE
 70
     0
  0
ENDSEC
  0
SECTION
  2
TABLES
  0
TABLE
  2
VPORT
 70
     1
  0
VPORT
  2
*ACTIVE
 70
     0
 10
0.0
 20
0.0
 11
1.0
 21
1.0
 12
191.0355695489643
 22
89.530242665345213
 13
0.0
 23
0.0
 14
25.0
 24
25.0
 15
100.0
 25
100.0
 16
0.0
 26
0.0
 36
1.0
 17
2057.4809357017289
 27
2332.5223501042879
 37
0.0
 40
5980.234797117294
 41
1.7697495183044309
 42
50.0
 43
0.0
 44
0.0
 50
0.0
 51
0.0
 71
     0
 72
   100
 73
     1
 74
     0
 75
     0
 76
     0
 77
     0
 78
     0
  0
ENDTAB
  0
TABLE
  2
LTYPE
 70
    19
  0
LTYPE
  2
CONTINUOUS
 70
     0
  3
Solid line
 72
    65
 73
     0
 40
0.0
  0
LTYPE
  2
HIDDEN
 70
     0
  3
_ _ _ _ _ _ _ _ _ _ _ _ _ _ _ _ _ _ _ _ _ _ _
 72
    65
 73
     2
 40
0.375
 49
0.25
 49
-0.125
  0
LTYPE
  2
PHANTOM2
 70
     0
  3
Phantom (.5x) ___ _ _ ___ _ _ ___ _ _ ___ _ _
 72
    65
 73
     6
 40
1.25
 49
0.625
 49
-0.125
 49
0.125
 49
-0.125
 49
0.125
 49
-0.125
  0
LTYPE
  2
HIDDEN2
 70
     0
  3
Hidden (.5x) _ _ _ _ _ _ _ _ _ _ _ _ _ _ _ _ _
 72
    65
 73
     2
 40
0.1875
 49
0.125
 49
-0.0625
  0
ENDTAB
  0
TABLE
  2
LAYER
 70
     1
  0
LAYER
  2
0
 70
     0
 62
     7
  6
CONTINUOUS
  0
ENDTAB
  0
TABLE
  2
STYLE
 70
     8
  0
STYLE
  2
STANDARD
 70
     0
 40
0.0
 41
1.0
 50
0.0
 71
     0
 42
0.2
  3
txt
  4

  0
STYLE
  2
TITLE3
 70
     0
 40
30.0
 41
1.0
 50
0.0
 71
     0
 42
30.0
  3
SIMPLEX
  4

  0
STYLE
  2
TITLE5
 70
     0
 40
50.0
 41
1.0
 50
0.0
 71
     0
 42
50.0
  3
SIMPLEX
  4

  0
STYLE
  2
SIMPLEX
 70
     0
 40
30.0
 41
1.0
 50
0.0
 71
     0
 42
25.0
  3
SIMPLEX.shx
  4

  0
STYLE
  2
TITLE
 70
     0
 40
60.0
 41
1.0
 50
0.0
 71
     0
 42
60.0
  3
simplex.shx
  4

  0
ENDTAB
  0
TABLE
  2
VIEW
 70
     0
  0
ENDTAB
  0
TABLE
  2
UCS
 70
     0
  0
ENDTAB
  0
TABLE
  2
APPID
 70
    17
  0
APPID
  2
ACAD
 70
     0
  0
APPID
  2
GENIUS_GENDIM_13
 70
     0
  0
APPID
  2
GENIUS_GENDTOL_13
 70
     0
  0
APPID
  2
GENIUS_GE3DTOL_13
 70
     0
  0
APPID
  2
MCAD_NO_VIS
 70
     0
  0
APPID
  2
ACAD_TEMP_GRAPHIC
 70
     0
  0
APPID
  2
AD_DRAW
 70
     0
  0
APPID
  2
ACATTRIBSERVICES
 70
     0
  0
APPID
  2
ASURF_PCURVE_APPNAME
 70
     0
  0
APPID
  2
AMG_3D2D_5_0
 70
     0
  0
APPID
  2
DESIGNERASSEMBLIES
 70
     0
  0
APPID
  2
ACADM_DIM_EDIT
 70
     0
  0
APPID
  2
AMDT_DM_ADJ
 70
     0
  0
APPID
  2
ACAD_PSEXT
 70
     0
  0
APPID
  2
AMG_3D2D_5_00
 70
     0
  0
APPID
  2
ACAD_EXEMPT_FROM_CAD_STANDARDS
 70
     0
  0
APPID
  2
AMG_3D2D_5_01
 70
     0
  0
ENDTAB
  0
TABLE
  2
DIMSTYLE
 70
     8
  0
DIMSTYLE
  2
STANDARD
 70
     0
  3

  4

  5

  6

  7

 40
1.0
 41
0.18
 42
0.0625
 43
0.38
 44
0.18
 45
0.0
 46
0.0
 47
0.0
 48
0.0
140
0.18
141
0.09
142
0.0
143
25.399999999999999
144
1.0
145
0.0
146
1.0
147
0.09
 71
     0
 72
     0
 73
     1
 74
     1
 75
     0
 76
     0
 77
     0
 78
     0
170
     0
171
     2
172
     0
173
     0
174
     0
175
     0
176
     0
177
     0
178
     0
  0
DIMSTYLE
  2
AM_ANSI
 70
     0
  3

  4
mm
  5

  6

  7

 40
1.0
 41
0.1
 42
0.05
 43
0.5
 44
0.1
 45
0.0
 46
0.0
 47
0.1
 48
0.1
140
0.12
141
0.0
142
0.0
143
25.399999999999999
144
1.0
145
0.0
146
0.71
147
0.06
 71
     0
 72
     0
 73
     1
 74
     1
 75
     0
 76
     0
 77
     0
 78
     7
170
     0
171
     2
172
     0
173
     0
174
     0
175
     0
176
   256
177
   256
178
     2
  0
ENDTAB
  0
ENDSEC
  0
SECTION
  2
BLOCKS
  0
BLOCK
  8
0
  2
$MODEL_SPACE
 70
     0
 10
0.0
 20
0.0
 30
0.0
  3
$MODEL_SPACE
  1

  0
ENDBLK
  5
8B44
  8
0
  0
BLOCK
 67
     1
  8
0
  2
$PAPER_SPACE
 70
     0
 10
0.0
 20
0.0
 30
0.0
  3
$PAPER_SPACE
  1

  0
ENDBLK
  5
8B40
 67
     1
  8
0
  0
BLOCK
  8
0
  2
*U12
 70
     1
 10
0.0
 20
0.0
 30
0.0
  3
*U12
  1

  0
TEXT
  5
8C2A
  8
0
 62
     7
 10
1966.251134363293
 20
3816.3416874558488
 30
0.0
 40
30.0
  1
780
 50
90.0
  0
ENDBLK
  5
8C2C
  8
0
  0
BLOCK
  8
0
  2
*U13
 70
     1
 10
0.0
 20
0.0
 30
0.0
  3
*U13
  1

  0
TEXT
  5
8C31
  8
0
 62
     7
 10
-40.405342074508809
 20
3813.5416874558482
 30
0.0
 40
30.0
  1
825
 50
90.0
  0
ENDBLK
  5
8C33
  8
0
  0
ENDSEC
  0
SECTION
  2
ENTITIES
  0
LINE
  5
8200
  8
0
 62
     7
 10
-144.07555622834241
 20
0.0
 30
0.0
 11
3917.0
 21
0.0
 31
0.0
  0
LINE
  5
8201
  8
0
 62
     7
 10
3917.0
 20
0.0
 30
0.0
 11
3917.0
 21
5298.5923387120474
 31
0.0
  0
LINE
  5
8203
  8
0
 62
     7
 10
-144.07555622834241
 20
5298.5923387120474
 30
0.0
 11
-144.07555622834241
 21
0.0
 31
0.0
  0
TEXT
  5
8205
  8
0
 62
     7
 10
2595.6612673587392
 20
3226.4393010972572
 30
0.0
 40
30.0
  1
2000 min CLEARANCE
  7
TITLE3
  0
LINE
  5
8212
  8
0
 62
     7
 10
2146.480777594049
 20
174.98709778756159
 30
0.0
 11
2230.480777594048
 21
174.98709778756159
 31
0.0
  0
SOLID
  5
8232
  8
0
 62
     7
 10
3039.004256921919
 20
4490.5562194929416
 30
0.0
 11
3014.004256921919
 21
4340.556219492938
 31
0.0
 12
2989.0042569219181
 22
4490.5562194929416
 32
0.0
 13
2989.0042569219181
 23
4490.5562194929416
 33
0.0
1001
ACAD
1000
DSTYLE
1002
{
1070
    41
1040
60.0
1070
    42
1040
40.0
1070
    44
1040
40.0
1070
    73
1070
     0
1070
    74
1070
     0
1070
   140
1040
60.0
1070
   147
1040
40.0
1070
   176
1070
    52
1070
   177
1070
    52
1070
   178
1070
    50
1070
   179
1070
     2
1070
   271
1070
     2
1070
   272
1070
     2
1070
   279
1070
     2
1070
   340
1005
FC6
1002
}
  0
LINE
  5
8233
  8
0
 62
     7
 10
2256.4307775940488
 20
3449.8416874558479
 30
0.0
 11
2256.4307775940488
 21
3463.8416874558511
 31
0.0
  0
LINE
  5
8234
  8
0
 62
     7
 10
2176.5307775940501
 20
3449.8416874558479
 30
0.0
 11
2176.5307775940501
 21
3463.841687455847
 31
0.0
  0
LINE
  5
8235
  8
0
 62
     7
 10
2176.5307775940501
 20
3449.8416874558479
 30
0.0
 11
2256.4307775940488
 21
3449.8416874558479
 31
0.0
  0
LINE
  5
8237
  8
0
 62
     7
 10
179.3822928793721
 20
3441.0416874558482
 30
0.0
 11
179.3822928793721
 21
4266.0416874558468
 31
0.0
  0
LINE
  5
823D
  8
0
 62
     7
 10
179.3822928793721
 20
4266.0416874558468
 30
0.0
 11
199.33229287937311
 21
4266.0416874558468
 31
0.0
  0
LINE
  5
824E
  8
0
 62
     7
 10
2025.480777594048
 20
1260.987097787561
 30
0.0
 11
2025.480777594048
 21
207.98709778756171
 31
0.0
  0
LINE
  5
824F
  8
0
 62
     7
 10
3706.4807775940449
 20
207.98709778756171
 30
0.0
 11
2025.480777594048
 21
207.98709778756171
 31
0.0
  0
LINE
  5
8250
  8
0
 62
     7
 10
3706.4807775940499
 20
1260.987097787561
 30
0.0
 11
3706.4807775940449
 21
207.98709778756171
 31
0.0
  0
LINE
  5
8254
  8
0
 62
     7
 10
1276.3822928793679
 20
4109.8416874558479
 30
0.0
 11
1276.3822928793679
 21
3523.8416874558502
 31
0.0
  0
LINE
  5
8255
  8
0
 62
     7
 10
1265.382292879372
 20
4243.8416874558461
 30
0.0
 11
212.38229287937449
 21
4243.8416874558498
 31
0.0
  0
LINE
  5
8256
  8
0
 62
     7
 10
1265.382292879372
 20
3463.841687455847
 30
0.0
 11
212.38229287937449
 21
3463.841687455847
 31
0.0
  0
LINE
  5
8257
  8
0
 62
     7
 10
212.38229287937449
 20
4243.8416874558498
 30
0.0
 11
212.38229287937449
 21
3463.841687455847
 31
0.0
  0
LINE
  5
8258
  8
0
 62
     7
 10
3706.4807775940449
 20
4243.8416874558498
 30
0.0
 11
3706.4807775940449
 21
3463.841687455847
 31
0.0
  0
LINE
  5
8259
  8
0
 62
     7
 10
2025.4807775940469
 20
4243.8416874558498
 30
0.0
 11
2025.4807775940469
 21
3463.841687455847
 31
0.0
  0
LINE
  5
825A
  8
0
 62
     7
 10
2025.4807775940469
 20
3463.841687455847
 30
0.0
 11
3706.4807775940449
 21
3463.841687455847
 31
0.0
  0
LINE
  5
825B
  8
0
 62
     7
 10
3706.4807775940449
 20
4243.8416874558498
 30
0.0
 11
2025.4807775940469
 21
4243.8416874558498
 31
0.0
  0
LINE
  5
825E
  8
0
 62
     7
 10
2025.480777594048
 20
1260.987097787561
 30
0.0
 11
3706.4807775940499
 21
1260.987097787561
 31
0.0
  0
LINE
  5
825F
  8
0
 62
     7
 10
3122.9811909191558
 20
1271.987097787558
 30
0.0
 11
2157.9803642689421
 21
1271.987097787561
 31
0.0
  0
LINE
  5
8260
  8
0
 62
     7
 10
1265.382292879372
 20
4243.8416874558461
 30
0.0
 11
1265.382292879372
 21
3463.841687455847
 31
0.0
  0
LINE
  5
8261
  8
0
 62
     7
 10
2157.9803642689421
 20
1271.987097787561
 30
0.0
 11
2157.9803642689421
 21
1260.987097787561
 31
0.0
  0
LINE
  5
8262
  8
0
 62
     7
 10
3122.9811909191558
 20
1271.987097787558
 30
0.0
 11
3122.9811909191558
 21
1260.9870977875589
 31
0.0
  0
LINE
  5
8267
  8
0
  6
PHANTOM2
 62
     7
 10
3706.4807775940449
 20
4253.8416874558498
 30
0.0
 11
3706.4807775940449
 21
4743.841687455847
 31
0.0
  0
LINE
  5
8268
  8
0
  6
PHANTOM2
 62
     7
 10
2025.4807775940469
 20
4253.8416874558498
 30
0.0
 11
2025.4807775940469
 21
4743.841687455847
 31
0.0
  0
LINE
  5
8269
  8
0
  6
PHANTOM2
 62
     7
 10
2025.4807775940469
 20
4743.841687455847
 30
0.0
 11
3706.4807775940449
 21
4743.841687455847
 31
0.0
  0
LINE
  5
826D
  8
0
  6
PHANTOM2
 62
     7
 10
3856.4807775940449
 20
4243.8416874558498
 30
0.0
 11
3856.4807775940449
 21
3463.841687455847
 31
0.0
  0
LINE
  5
826E
  8
0
  6
PHANTOM2
 62
     7
 10
3706.4807775940449
 20
3438.8416874558502
 30
0.0
 11
2025.4807775940469
 21
3438.8416874558502
 31
0.0
  0
LINE
  5
826F
  8
0
  6
PHANTOM2
 62
     7
 10
2025.4807775940469
 20
3453.8416874558502
 30
0.0
 11
2025.4807775940469
 21
3438.8416874558502
 31
0.0
  0
LINE
  5
8270
  8
0
  6
PHANTOM2
 62
     7
 10
3706.4807775940449
 20
3453.8416874558502
 30
0.0
 11
3706.4807775940449
 21
3438.8416874558502
 31
0.0
  0
LINE
  5
8271
  8
0
  6
PHANTOM2
 62
     7
 10
3856.4807775940449
 20
3463.841687455847
 30
0.0
 11
3716.4807775940449
 21
3463.841687455847
 31
0.0
  0
LINE
  5
8272
  8
0
  6
PHANTOM2
 62
     7
 10
3716.4807775940449
 20
4243.841687455847
 30
0.0
 11
3856.4807775940449
 21
4243.8416874558498
 31
0.0
  0
LINE
  5
8273
  8
0
  6
PHANTOM2
 62
     7
 10
2025.4807775940469
 20
3271.9870977875598
 30
0.0
 11
3706.4807775940499
 21
3271.9870977875598
 31
0.0
  0
LINE
  5
8274
  8
0
  6
PHANTOM2
 62
     7
 10
2025.480777594048
 20
1320.987097787561
 30
0.0
 11
2025.4807775940469
 21
3271.9870977875598
 31
0.0
  0
LINE
  5
8275
  8
0
  6
PHANTOM2
 62
     7
 10
3706.4807775940499
 20
1320.987097787561
 30
0.0
 11
3706.4807775940499
 21
3271.9870977875598
 31
0.0
  0
TEXT
  5
8276
  8
0
 62
     7
 10
2667.1350225921478
 20
771.51216046484683
 30
0.0
 40
56.25
  1
OSA330RKTV
  7
TITLE5
 72
     1
 11
2934.992165449291
 21
771.51216046484683
 31
0.0
  0
SOLID
  5
827E
  8
0
 62
     7
 10
3141.1300853300668
 20
1515.324909519001
 30
0.0
 11
3116.1300853300668
 21
1665.324909519001
 31
0.0
 12
3091.1300853300681
 22
1515.324909519001
 32
0.0
 13
3091.1300853300681
 23
1515.324909519001
 33
0.0
1001
ACAD
1000
DSTYLE
1002
{
1070
    41
1040
60.0
1070
    42
1040
40.0
1070
    44
1040
40.0
1070
    73
1070
     0
1070
    74
1070
     0
1070
   140
1040
60.0
1070
   147
1040
40.0
1070
   176
1070
    52
1070
   177
1070
    52
1070
   178
1070
    50
1070
   179
1070
     2
1070
   271
1070
     2
1070
   272
1070
     2
1070
   279
1070
     2
1070
   340
1005
FC6
1002
}
  0
TEXT
  5
8285
  8
0
 62
     7
 10
2677.8593094364628
 20
4698.293890765548
 30
0.0
 40
30.0
  1
500 min CLEARANCE
  7
TITLE3
  0
TEXT
  5
8286
  8
0
 62
     7
 10
3797.788061647992
 20
3692.7871742718248
 30
0.0
 40
30.0
  1
CLEARANCE
 50
90.0
  7
TITLE3
  0
TEXT
  5
8287
  8
0
 62
     7
 10
449.788521606171
 20
3747.9269746523701
 30
0.0
 40
56.25
  1
OSA330RKTV
  7
TITLE5
 72
     1
 11
717.64566446331401
 21
3747.9269746523701
 31
0.0
  0
TEXT
  5
8288
  8
0
 62
     7
 10
2782.1623084459211
 20
3637.800449281568
 30
0.0
 40
56.25
  1
OSA
  7
TITLE5
 72
     1
 11
2859.8408798744931
 21
3637.800449281568
 31
0.0
  0
TEXT
  5
828A
  8
0
 62
     7
 10
2922.0739473592589
 20
3393.4115076270118
 30
0.0
 40
30.0
  1
25 min CLEARANCE
  7
TITLE3
  0
LINE
  5
828B
  8
0
  6
HIDDEN2
 62
     7
 10
3649.8501050592649
 20
4206.2770439702026
 30
0.0
 11
2074.100329738963
 21
4206.2770439702026
 31
0.0
  0
LINE
  5
828C
  8
0
  6
HIDDEN2
 62
     7
 10
3649.8501050592649
 20
4151.2770439702053
 30
0.0
 11
2074.100329738958
 21
4151.2770439702053
 31
0.0
  0
LINE
  5
8293
  8
0
  6
HIDDEN
 62
     7
 10
2074.100329738958
 20
4178.7770439702053
 30
0.0
 11
2074.100329738958
 21
4151.2770439702053
 31
0.0
  0
LINE
  5
8294
  8
0
  6
HIDDEN2
 62
     7
 10
2074.1003297389589
 20
4206.2770439702026
 30
0.0
 11
2074.100329738958
 21
4175.2770439702053
 31
0.0
  0
TEXT
  5
8295
  8
0
 62
     7
 10
3849.216633076564
 20
3733.860983295453
 30
0.0
 40
30.0
  1
150 min
 50
90.0
  7
TITLE3
  0
TEXT
  5
8430
  8
0
 62
     7
 10
62.543881911790891
 20
350.99638005652997
 30
0.0
 40
62.5
  1
temperzone OSA 330RKTV
  7
TITLE5
 72
     1
 11
692.00816762607644
 21
350.99638005652997
 31
0.0
  0
TEXT
  5
8431
  8
0
 62
     7
 10
217.00816762607579
 20
87.5
 30
0.0
 40
37.5
  1
OSA330RKTV
 41
1.015000000000001
  7
TITLE3
 72
     5
 11
579.50816762607599
 21
87.5
 31
0.0
  0
TEXT
  5
8432
  8
0
 62
     7
 10
945.55016027364786
 20
137.5
 30
0.0
 40
37.5
  1
16-11-07
 41
0.7272727272727274
  7
TITLE3
 72
     5
 11
1145.5501602736481
 21
137.5
 31
0.0
  0
TEXT
  5
8433
  8
0
 62
     7
 10
1216.2812243791709
 20
138.53901732512611
 30
0.0
 40
30.0
  1
Date
  7
SIMPLEX
  0
TEXT
  5
8434
  8
0
 62
     7
 10
52.679575124745043
 20
161.879127529264
 30
0.0
 40
30.0
  1
Revision
 41
0.7812095035934838
  7
SIMPLEX
 72
     5
 11
184.36917715907509
 21
161.879127529264
 31
0.0
  0
LINE
  5
8435
  8
0
 62
     7
 10
198.89398013837891
 20
26.053116060396409
 30
0.0
 11
198.89398013837891
 21
210.3358196356829
 31
0.0
  0
LINE
  5
8436
  8
0
 62
     7
 10
1342.8187558046409
 20
433.29949611692632
 30
0.0
 11
1342.8187558046409
 21
26.053116060396409
 31
0.0
  0
LINE
  5
8437
  8
0
 62
     7
 10
595.8660701097092
 20
26.053116060396409
 30
0.0
 11
595.8660701097092
 21
210.3358196356829
 31
0.0
  0
LINE
  5
8438
  8
0
 62
     7
 10
595.8660701097092
 20
116.6407490868297
 30
0.0
 11
1342.8187558046409
 21
116.6407490868297
 31
0.0
  0
LINE
  5
8439
  8
0
 62
     7
 10
40.038836078775141
 20
210.3358196356829
 30
0.0
 11
1342.8187558046409
 21
210.3358196356829
 31
0.0
  0
LINE
  5
843A
  8
0
 62
     7
 10
1342.8187558046409
 20
26.053116060396409
 30
0.0
 11
40.410720051711849
 21
26.053116060396409
 31
0.0
  0
LINE
  5
843B
  8
0
 62
     7
 10
40.410720051711849
 20
26.053116060396409
 30
0.0
 11
40.410720051711849
 21
433.29949611692632
 31
0.0
  0
LINE
  5
843C
  8
0
 62
     7
 10
40.410720051711849
 20
433.29949611692632
 30
0.0
 11
1342.8187558046409
 21
433.29949611692632
 31
0.0
  0
TEXT
  5
843D
  8
0
 62
     7
 10
1185.8047873953089
 20
59.903110081697093
 30
0.0
 40
25.0
  1
Scale
 41
1.370174796565961
  7
SIMPLEX
 72
     5
 11
1311.4041437471881
 21
59.903110081697093
 31
0.0
  0
TEXT
  5
843E
  8
0
 62
     7
 10
305.57712026793678
 20
161.1167893833869
 30
0.0
 40
25.0
  1
Drawing No.
  7
SIMPLEX
 72
     2
 11
523.43426312507961
 21
161.1167893833869
 31
0.0
  0
TEXT
  5
843F
  8
0
 62
     7
 10
1018.619615955674
 20
58.608558680249381
 30
0.0
 40
37.5
  1
1:10
  7
TITLE3
  0
LINE
  5
85ED
  8
0
 62
     7
 10
3116.1300853300668
 20
1514.541040242199
 30
0.0
 11
3116.1300853300668
 21
1393.0917459877519
 31
0.0
1001
ACAD
1000
DSTYLE
1002
{
1070
    41
1040
60.0
1070
    42
1040
40.0
1070
    44
1040
40.0
1070
    73
1070
     0
1070
    74
1070
     0
1070
   140
1040
60.0
1070
   147
1040
40.0
1070
   176
1070
    52
1070
   177
1070
    52
1070
   178
1070
    50
1070
   179
1070
     2
1070
   271
1070
     2
1070
   272
1070
     2
1070
   279
1070
     2
1070
   340
1005
FC6
1002
}
  0
TEXT
  5
85EF
  8
0
 62
     7
 10
2752.366815975141
 20
1530.4181391949201
 30
0.0
 40
60.0
  1
AIR
  7
TITLE
  0
TEXT
  5
85F0
  8
0
 62
     7
 10
2705.2239588322841
 20
1430.418139194921
 30
0.0
 40
60.0
  1
FLOW
  7
TITLE
  0
LINE
  5
85F1
  8
0
 62
     7
 10
3014.004256921919
 20
4491.3400887697462
 30
0.0
 11
3014.004256921919
 21
4612.789383024191
 31
0.0
1001
ACAD
1000
DSTYLE
1002
{
1070
    41
1040
60.0
1070
    42
1040
40.0
1070
    44
1040
40.0
1070
    73
1070
     0
1070
    74
1070
     0
1070
   140
1040
60.0
1070
   147
1040
40.0
1070
   176
1070
    52
1070
   177
1070
    52
1070
   178
1070
    50
1070
   179
1070
     2
1070
   271
1070
     2
1070
   272
1070
     2
1070
   279
1070
     2
1070
   340
1005
FC6
1002
}
  0
TEXT
  5
85F2
  8
0
 62
     7
 10
2762.8409875669931
 20
4369.0864391149253
 30
0.0
 40
60.0
  1
AIR
  7
TITLE
  0
TEXT
  5
85F3
  8
0
 62
     7
 10
2715.6981304241358
 20
4469.0864391149216
 30
0.0
 40
60.0
  1
FLOW
  7
TITLE
  0
TEXT
  5
85F4
  8
0
 62
     7
 10
109.02873949068621
 20
525.9479428556499
 30
0.0
 40
31.25
  1
available on request
  7
TITLE3
  0
TEXT
  5
85F5
  8
0
 62
     7
 10
109.02873949068621
 20
579.51937142707845
 30
0.0
 40
31.25
  1
Certified dimensions
  7
TITLE3
  0
TEXT
  5
85F6
  8
0
 62
     7
 10
109.02873949068621
 20
633.09079999850701
 30
0.0
 40
31.25
  1
without notice or obligation.
  7
TITLE3
  0
TEXT
  5
85F7
  8
0
 62
     7
 10
109.02873949068621
 20
686.66222856993556
 30
0.0
 40
31.25
  1
specifications at any time
  7
TITLE3
  0
TEXT
  5
85F8
  8
0
 62
     7
 10
109.02873949068621
 20
740.23365714136412
 30
0.0
 40
31.25
  1
the right to change 
  7
TITLE3
  0
TEXT
  5
85F9
  8
0
 62
     7
 10
109.02873949068621
 20
847.37651428422043
 30
0.0
 40
31.25
  1
NOTE
  7
TITLE3
  0
TEXT
  5
85FA
  8
0
 62
     7
 10
109.02873949068621
 20
793.80508571279233
 30
0.0
 40
31.25
  1
The manufacturer reserves
  7
TITLE3
  0
TEXT
  5
862B
  8
0
 62
     7
 10
2677.6980227316349
 20
3559.7157625071709
 30
0.0
 40
56.25
  1
330RKTV
  7
TITLE5
 72
     1
 11
2859.8408798744931
 21
3559.7157625071709
 31
0.0
  0
LINE
  5
8666
  8
0
 62
     7
 10
2146.480777594049
 20
174.98709778756159
 30
0.0
 11
2120.980777594049
 21
207.98709778756171
 31
0.0
  0
LINE
  5
8667
  8
0
 62
     7
 10
2230.480777594048
 20
174.98709778756159
 30
0.0
 11
2255.980777594049
 21
207.98709778756171
 31
0.0
  0
LINE
  5
866B
  8
0
 62
     7
 10
3583.4807775940449
 20
174.98709778756159
 30
0.0
 11
3499.4807775940449
 21
174.98709778756159
 31
0.0
  0
LINE
  5
866C
  8
0
 62
     7
 10
3475.530777594045
 20
3449.8416874558479
 30
0.0
 11
3475.530777594045
 21
3463.8416874558511
 31
0.0
  0
LINE
  5
866D
  8
0
 62
     7
 10
3555.4307775940451
 20
3449.8416874558479
 30
0.0
 11
3555.4307775940451
 21
3463.841687455847
 31
0.0
  0
LINE
  5
866E
  8
0
 62
     7
 10
3555.4307775940451
 20
3449.8416874558479
 30
0.0
 11
3475.530777594045
 21
3449.8416874558479
 31
0.0
  0
LINE
  5
866F
  8
0
 62
     7
 10
3583.4807775940449
 20
174.98709778756159
 30
0.0
 11
3608.9807775940449
 21
207.98709778756171
 31
0.0
  0
LINE
  5
8670
  8
0
 62
     7
 10
3499.4807775940449
 20
174.98709778756159
 30
0.0
 11
3473.9807775940449
 21
207.98709778756171
 31
0.0
  0
LINE
  5
86A1
  8
0
 62
     7
 10
3629.981190919159
 20
1271.9870977875601
 30
0.0
 11
3144.980364268944
 21
1271.9870977875621
 31
0.0
  0
LINE
  5
86A2
  8
0
 62
     7
 10
3144.980364268944
 20
1271.9870977875621
 30
0.0
 11
3144.980364268944
 21
1260.987097787563
 31
0.0
  0
LINE
  5
86A3
  8
0
 62
     7
 10
3629.981190919159
 20
1271.9870977875601
 30
0.0
 11
3629.981190919159
 21
1260.9870977875601
 31
0.0
  0
LINE
  5
86BB
  8
0
 62
     7
 10
2025.480777594048
 20
187.98709778756151
 30
0.0
 11
2025.480777594048
 21
40.372615008420588
 31
0.0
  0
LINE
  5
86BC
  8
0
 62
     7
 10
3706.4807775940449
 20
187.98709778756151
 30
0.0
 11
3706.4807775940449
 21
40.372615008420588
 31
0.0
  0
LINE
  5
86BD
  8
0
 62
     7
 10
2055.480777594048
 20
60.37261500842078
 30
0.0
 11
2769.9442177107112
 21
60.37261500842078
 31
0.0
  0
LINE
  5
86BE
  8
0
 62
     7
 10
3676.4807775940449
 20
60.37261500842078
 30
0.0
 11
2894.9442177107121
 21
60.37261500842078
 31
0.0
  0
SOLID
  5
86BF
  8
0
 62
     7
 10
2055.480777594048
 20
65.372615008420581
 30
0.0
 11
2055.480777594048
 21
55.372615008420702
 31
0.0
 12
2025.480777594048
 22
60.37261500842078
 32
0.0
 13
2025.480777594048
 23
60.37261500842078
 33
0.0
  0
SOLID
  5
86C0
  8
0
 62
     7
 10
3676.4807775940449
 20
65.372615008420581
 30
0.0
 11
3676.4807775940449
 21
55.372615008420702
 31
0.0
 12
3706.4807775940449
 22
60.37261500842078
 32
0.0
 13
3706.4807775940449
 23
60.37261500842078
 33
0.0
  0
LINE
  5
86C2
  8
0
 62
     7
 10
2188.480777594049
 20
144.98709778756171
 30
0.0
 11
2188.480777594049
 21
102.3600958585216
 31
0.0
  0
LINE
  5
86C3
  8
0
 62
     7
 10
3541.4807775940458
 20
144.98709778756171
 30
0.0
 11
3541.4807775940458
 21
102.3600958585216
 31
0.0
  0
LINE
  5
86C4
  8
0
 62
     7
 10
2218.480777594049
 20
122.3600958585216
 30
0.0
 11
2702.4442177107089
 21
122.3600958585216
 31
0.0
  0
LINE
  5
86C5
  8
0
 62
     7
 10
3511.4807775940449
 20
122.3600958585216
 30
0.0
 11
2962.4442177107089
 21
122.3600958585216
 31
0.0
  0
SOLID
  5
86C6
  8
0
 62
     7
 10
2218.480777594049
 20
127.3600958585216
 30
0.0
 11
2218.480777594049
 21
117.3600958585216
 31
0.0
 12
2188.480777594049
 22
122.3600958585216
 32
0.0
 13
2188.480777594049
 23
122.3600958585216
 33
0.0
  0
SOLID
  5
86C7
  8
0
 62
     7
 10
3511.4807775940449
 20
127.3600958585216
 30
0.0
 11
3511.4807775940449
 21
117.3600958585216
 31
0.0
 12
3541.4807775940458
 22
122.3600958585216
 32
0.0
 13
3541.4807775940458
 23
122.3600958585216
 33
0.0
  0
LINE
  5
86C9
  8
0
 62
     7
 10
2137.9803642689408
 20
1271.987097787561
 30
0.0
 11
1883.088490115972
 21
1271.987097787561
 31
0.0
  0
LINE
  5
86CA
  8
0
 62
     7
 10
2124.480777594049
 20
174.98709778756159
 30
0.0
 11
1883.08849011597
 21
174.98709778756179
 31
0.0
  0
LINE
  5
86CB
  8
0
 62
     7
 10
1903.088490115972
 20
1241.987097787561
 30
0.0
 11
1903.08849011597
 21
783.48709778756097
 31
0.0
  0
LINE
  5
86CC
  8
0
 62
     7
 10
1903.08849011597
 20
204.98709778756179
 30
0.0
 11
1903.08849011597
 21
543.48709778756131
 31
0.0
  0
SOLID
  5
86CD
  8
0
 62
     7
 10
1898.088490115972
 20
1241.987097787561
 30
0.0
 11
1908.088490115972
 21
1241.987097787561
 31
0.0
 12
1903.088490115972
 22
1271.987097787561
 32
0.0
 13
1903.088490115972
 23
1271.987097787561
 33
0.0
  0
SOLID
  5
86CE
  8
0
 62
     7
 10
1898.0884901159709
 20
204.98709778756179
 30
0.0
 11
1908.08849011597
 21
204.98709778756179
 31
0.0
 12
1903.08849011597
 22
174.98709778756179
 32
0.0
 13
1903.08849011597
 23
174.98709778756179
 33
0.0
  0
LINE
  5
86F6
  8
0
 62
     7
 10
1276.3822928793679
 20
4109.8416874558479
 30
0.0
 11
1265.382292879372
 21
4109.8416874558488
 31
0.0
  0
LINE
  5
86F7
  8
0
 62
     7
 10
1276.3822928793679
 20
3523.8416874558502
 30
0.0
 11
1265.382292879372
 21
3523.8416874558502
 31
0.0
  0
LINE
  5
8722
  8
0
 62
     7
 10
192.3822928793744
 20
4251.0416874558487
 30
0.0
 11
25.11275540596916
 21
4251.0416874558487
 31
0.0
  0
LINE
  5
8723
  8
0
 62
     7
 10
159.38229287937199
 20
3456.0416874558482
 30
0.0
 11
25.112755405968979
 21
3456.0416874558482
 31
0.0
  0
LINE
  5
8724
  8
0
 62
     7
 10
45.112755405968919
 20
4221.0416874558468
 30
0.0
 11
45.112755405968812
 21
3827.8416874558502
 31
0.0
  0
LINE
  5
8725
  8
0
 62
     7
 10
45.112755405968812
 20
3486.0416874558509
 30
0.0
 11
45.112755405968812
 21
3707.8416874558479
 31
0.0
  0
SOLID
  5
8726
  8
0
 62
     7
 10
40.112755405968919
 20
4221.0416874558468
 30
0.0
 11
50.112755405968919
 21
4221.0416874558468
 31
0.0
 12
45.112755405968919
 22
4251.0416874558487
 32
0.0
 13
45.112755405968919
 23
4251.0416874558487
 33
0.0
  0
SOLID
  5
8727
  8
0
 62
     7
 10
40.112755405968812
 20
3486.0416874558509
 30
0.0
 11
50.112755405968812
 21
3486.0416874558509
 31
0.0
 12
45.112755405968812
 22
3456.0416874558482
 32
0.0
 13
45.112755405968812
 23
3456.0416874558482
 33
0.0
  0
LINE
  5
8754
  8
0
 62
     7
 10
169.3822928793721
 20
3456.0416874558509
 30
0.0
 11
189.38229287937219
 21
3456.0416874558491
 31
0.0
  0
LINE
  5
875F
  8
0
 62
     7
 10
2188.480777594048
 20
164.98709778756171
 30
0.0
 11
2188.480777594049
 21
184.98709778756171
 31
0.0
  0
LINE
  5
8762
  8
0
 62
     7
 10
3541.4807775940458
 20
164.98709778756171
 30
0.0
 11
3541.4807775940458
 21
184.98709778756171
 31
0.0
  0
LINE
  5
8793
  8
0
 62
     7
 10
192.3822928793744
 20
4251.0416874558487
 30
0.0
 11
101.96834600308409
 21
4251.0416874558487
 31
0.0
  0
LINE
  5
8799
  8
0
 62
     7
 10
2188.480777594048
 20
144.98709778756171
 30
0.0
 11
2188.480777594048
 21
102.4261659787466
 31
0.0
  0
LINE
  5
879A
  8
0
 62
     7
 10
2025.480777594048
 20
187.98709778756151
 30
0.0
 11
2025.480777594048
 21
102.4261659787466
 31
0.0
  0
LINE
  5
879B
  8
0
 62
     7
 10
2158.480777594048
 20
122.4261659787466
 30
0.0
 11
2055.480777594048
 21
122.4261659787466
 31
0.0
  0
LINE
  5
879C
  8
0
 62
     7
 10
2025.480777594048
 20
122.4261659787466
 30
0.0
 11
1995.480777594048
 21
122.4261659787466
 31
0.0
  0
SOLID
  5
879D
  8
0
 62
     7
 10
2158.480777594048
 20
127.4261659787466
 30
0.0
 11
2158.480777594048
 21
117.4261659787465
 31
0.0
 12
2188.480777594048
 22
122.4261659787466
 32
0.0
 13
2188.480777594048
 23
122.4261659787466
 33
0.0
  0
SOLID
  5
879E
  8
0
 62
     7
 10
2055.480777594048
 20
127.4261659787466
 30
0.0
 11
2055.480777594048
 21
117.4261659787465
 31
0.0
 12
2025.480777594048
 22
122.4261659787466
 32
0.0
 13
2025.480777594048
 23
122.4261659787466
 33
0.0
  0
LINE
  5
8942
  8
0
 10
3917.0
 20
5298.5923387120474
 30
0.0
 11
-144.07555622834241
 21
5298.5923387120474
 31
0.0
  0
TEXT
  5
8947
  8
0
 62
     7
 10
60.112755405968237
 20
3727.8416874558502
 30
0.0
 40
30.0
  1
795
 50
90.0
  0
TEXT
  5
8949
  8
0
 62
     7
 10
1915.480777594048
 20
107.4261659787466
 30
0.0
 40
30.0
  1
163
  0
TEXT
  5
894A
  8
0
 62
     7
 10
1918.0884901159709
 20
563.48709778756154
 30
0.0
 40
30.0
  1
1097 O/A
 50
90.0
  0
TEXT
  5
894B
  8
0
 62
     7
 10
2722.4442177107089
 20
107.3600958585216
 30
0.0
 40
30.0
  1
1353 CTRS
  0
TEXT
  5
894C
  8
0
 62
     7
 10
2789.9442177107121
 20
45.372615008420581
 30
0.0
 40
30.0
  1
1681
  0
LINE
  5
8AE3
  8
0
 10
3649.8501050592649
 20
4206.2770439702026
 30
0.0
 11
3649.8501050592649
 21
4151.2770439702053
 31
0.0
  0
LINE
  5
8BAB
  8
0
 62
     7
 10
2005.4807775940469
 20
3463.841687455847
 30
0.0
 11
1931.251134363293
 21
3463.841687455847
 31
0.0
  0
LINE
  5
8BAC
  8
0
 62
     7
 10
2005.4807775940469
 20
4243.8416874558498
 30
0.0
 11
1931.2511343632941
 21
4243.8416874558498
 31
0.0
  0
LINE
  5
8BAD
  8
0
 62
     7
 10
1951.251134363293
 20
3493.8416874558479
 30
0.0
 11
1951.2511343632941
 21
3741.3416874558488
 31
0.0
  0
LINE
  5
8BAE
  8
0
 62
     7
 10
1951.2511343632941
 20
4213.8416874558488
 30
0.0
 11
1951.2511343632941
 21
3966.3416874558479
 31
0.0
  0
SOLID
  5
8BAF
  8
0
 62
     7
 10
1946.251134363293
 20
3493.8416874558479
 30
0.0
 11
1956.251134363293
 21
3493.8416874558479
 31
0.0
 12
1951.251134363293
 22
3463.841687455847
 32
0.0
 13
1951.251134363293
 23
3463.841687455847
 33
0.0
  0
SOLID
  5
8BB0
  8
0
 62
     7
 10
1946.251134363293
 20
4213.8416874558488
 30
0.0
 11
1956.251134363293
 21
4213.8416874558488
 31
0.0
 12
1951.2511343632941
 22
4243.8416874558498
 32
0.0
 13
1951.2511343632941
 23
4243.8416874558498
 33
0.0
  0
INSERT
  5
8BB1
  8
0
  2
*U12
 10
0.0
 20
0.0
 30
0.0
  0
TEXT
  5
8BB3
  8
0
 62
     7
 10
1686.263182712117
 20
3762.8678515253141
 30
0.0
 40
30.0
  1
CLEARANCE
 50
90.0
  7
TITLE3
  0
TEXT
  5
8BB4
  8
0
 62
     7
 10
1737.6917541406899
 20
3798.227374834657
 30
0.0
 40
30.0
  1
500 min
 50
90.0
  7
TITLE3
  0
LINE
  5
8BB5
  8
0
  6
PHANTOM2
 62
     7
 10
1765.382292879372
 20
4243.8416874558498
 30
0.0
 11
1315.382292879372
 21
4243.8416874558461
 31
0.0
  0
LINE
  5
8BB7
  8
0
  6
PHANTOM2
 62
     7
 10
1765.382292879372
 20
3463.841687455847
 30
0.0
 11
1315.382292879372
 21
3463.841687455847
 31
0.0
  0
LINE
  5
8BB8
  8
0
  6
PHANTOM2
 62
     7
 10
1765.382292879372
 20
4243.8416874558461
 30
0.0
 11
1765.382292879372
 21
3463.841687455847
 31
0.0
  0
CIRCLE
  5
8BC1
  8
0
 10
3337.4807775940471
 20
3816.8416874558502
 30
0.0
 40
293.0
  0
CIRCLE
  5
8BC2
  8
0
 10
2387.4807775940471
 20
3816.8416874558502
 30
0.0
 40
293.0
  0
LINE
  5
8BCA
  8
0
 10
199.33229287937311
 20
4266.0416874558468
 30
0.0
 11
212.38229287937449
 21
4239.0902914543622
 31
0.0
  0
LINE
  5
8BCC
  8
0
 62
     7
 10
179.3822928793721
 20
3441.0416874558482
 30
0.0
 11
199.33229287937311
 21
3441.0416874558482
 31
0.0
  0
LINE
  5
8BCD
  8
0
 10
199.33229287937311
 20
3441.0416874558482
 30
0.0
 11
212.38229287937449
 21
3467.9930834573329
 31
0.0
  0
LINE
  5
8BCF
  8
0
 62
     7
 10
179.3822928793721
 20
4251.0416874558459
 30
0.0
 11
199.33229287937311
 21
4251.0416874558459
 31
0.0
  0
LINE
  5
8BD7
  8
0
 62
     7
 10
159.3822928793721
 20
3441.0416874558482
 30
0.0
 11
-75.405342074508269
 21
3441.0416874558482
 31
0.0
  0
LINE
  5
8BD8
  8
0
 62
     7
 10
159.3822928793721
 20
4266.0416874558468
 30
0.0
 11
-75.405342074508084
 21
4266.0416874558468
 31
0.0
  0
LINE
  5
8BD9
  8
0
 62
     7
 10
-55.405342074508269
 20
3471.0416874558482
 30
0.0
 11
-55.405342074508212
 21
3738.5416874558468
 31
0.0
  0
LINE
  5
8BDA
  8
0
 62
     7
 10
-55.405342074508098
 20
4236.0416874558468
 30
0.0
 11
-55.405342074508148
 21
3968.5416874558482
 31
0.0
  0
SOLID
  5
8BDB
  8
0
 62
     7
 10
-60.405342074508269
 20
3471.0416874558482
 30
0.0
 11
-50.405342074508269
 21
3471.0416874558482
 31
0.0
 12
-55.405342074508269
 22
3441.0416874558482
 32
0.0
 13
-55.405342074508269
 23
3441.0416874558482
 33
0.0
  0
SOLID
  5
8BDC
  8
0
 62
     7
 10
-60.405342074508098
 20
4236.0416874558468
 30
0.0
 11
-50.405342074508098
 21
4236.0416874558468
 31
0.0
 12
-55.405342074508091
 22
4266.0416874558468
 32
0.0
 13
-55.405342074508091
 23
4266.0416874558468
 33
0.0
  0
INSERT
  5
8BDD
  8
0
  2
*U13
 10
0.0
 20
0.0
 30
0.0
  0
ENDSEC
  0
EOF
