  0
SECTION
  2
HEADER
  9
$ACADVER
  1
AC1009
  9
$INSBASE
 10
0.0
 20
0.0
 30
0.0
  9
$EXTMIN
 10
1575.6826981712179
 20
-148.25024661035241
 30
-0.0000000000000058
  9
$EXTMAX
 10
5835.1187292289906
 20
3481.647330252028
 30
0.0000000000000104
  9
$LIMMIN
 10
0.0
 20
0.0
  9
$LIMMAX
 10
7780.0
 20
5320.0
  9
$ORTHOMODE
 70
     1
  9
$REGENMODE
 70
     1
  9
$FILLMODE
 70
     1
  9
$QTEXTMODE
 70
     0
  9
$MIRRTEXT
 70
     0
  9
$DRAGMODE
 70
     2
  9
$LTSCALE
 40
100.0
  9
$OSMODE
 70
  3071
  9
$ATTMODE
 70
     1
  9
$TEXTSIZE
 40
45.0
  9
$TRACEWID
 40
0.05
  9
$TEXTSTYLE
  7
TITLE3
  9
$CLAYER
  8
OUTLINE
  9
$CELTYPE
  6
BYLAYER
  9
$CECOLOR
 62
   256
  9
$DIMSCALE
 40
1.0
  9
$DIMASZ
 40
0.12
  9
$DIMEXO
 40
0.05
  9
$DIMDLI
 40
0.5
  9
$DIMRND
 40
0.0
  9
$DIMDLE
 40
0.0
  9
$DIMEXE
 40
0.1
  9
$DIMTP
 40
0.1
  9
$DIMTM
 40
0.1
  9
$DIMTXT
 40
0.12
  9
$DIMCEN
 40
0.0
  9
$DIMTSZ
 40
0.0
  9
$DIMTOL
 70
     0
  9
$DIMLIM
 70
     0
  9
$DIMTIH
 70
     1
  9
$DIMTOH
 70
     1
  9
$DIMSE1
 70
     0
  9
$DIMSE2
 70
     0
  9
$DIMTAD
 70
     0
  9
$DIMZIN
 70
     7
  9
$DIMBLK
  1

  9
$DIMASO
 70
     0
  9
$DIMSHO
 70
     0
  9
$DIMPOST
  1

  9
$DIMAPOST
  1
mm
  9
$DIMALT
 70
     0
  9
$DIMALTD
 70
     2
  9
$DIMALTF
 40
25.399999999999999
  9
$DIMLFAC
 40
1.0
  9
$DIMTOFL
 70
     0
  9
$DIMTVP
 40
0.0
  9
$DIMTIX
 70
     0
  9
$DIMSOXD
 70
     0
  9
$DIMSAH
 70
     0
  9
$DIMBLK1
  1

  9
$DIMBLK2
  1

  9
$DIMSTYLE
  2
AM_ANSI
  9
$DIMCLRD
 70
   256
  9
$DIMCLRE
 70
   256
  9
$DIMCLRT
 70
     2
  9
$DIMTFAC
 40
0.71
  9
$DIMGAP
 40
0.06
  9
$LUNITS
 70
     2
  9
$LUPREC
 70
     2
  9
$SKETCHINC
 40
0.1
  9
$FILLETRAD
 40
0.0
  9
$AUNITS
 70
     0
  9
$AUPREC
 70
     2
  9
$MENU
  1
\acad12\support\cnc
  9
$ELEVATION
 40
0.0
  9
$PELEVATION
 40
0.0
  9
$THICKNESS
 40
0.0
  9
$LIMCHECK
 70
     0
  9
$BLIPMODE
 70
     0
  9
$CHAMFERA
 40
0.0
  9
$CHAMFERB
 40
0.0
  9
$SKPOLY
 70
     0
  9
$TDCREATE
 40
2451402.6391548612
  9
$TDUPDATE
 40
2457150.6510895141
  9
$TDINDWG
 40
0.5270459144
  9
$TDUSRTIMER
 40
0.5270376968
  9
$USRTIMER
 70
     1
  9
$ANGBASE
 50
0.0
  9
$ANGDIR
 70
     0
  9
$PDMODE
 70
     2
  9
$PDSIZE
 40
15.0
  9
$PLINEWID
 40
0.0
  9
$COORDS
 70
     1
  9
$SPLFRAME
 70
     0
  9
$SPLINETYPE
 70
     6
  9
$SPLINESEGS
 70
     8
  9
$ATTDIA
 70
     1
  9
$ATTREQ
 70
     1
  9
$HANDLING
 70
     1
  9
$HANDSEED
  5
2674
  9
$SURFTAB1
 70
     6
  9
$SURFTAB2
 70
     6
  9
$SURFTYPE
 70
     6
  9
$SURFU
 70
     6
  9
$SURFV
 70
     6
  9
$UCSNAME
  2

  9
$UCSORG
 10
0.0
 20
0.0
 30
0.0
  9
$UCSXDIR
 10
1.0
 20
0.0
 30
0.0
  9
$UCSYDIR
 10
0.0
 20
1.0
 30
0.0
  9
$PUCSNAME
  2

  9
$PUCSORG
 10
0.0
 20
0.0
 30
0.0
  9
$PUCSXDIR
 10
1.0
 20
0.0
 30
0.0
  9
$PUCSYDIR
 10
0.0
 20
1.0
 30
0.0
  9
$USERI1
 70
     0
  9
$USERI2
 70
     0
  9
$USERI3
 70
     0
  9
$USERI4
 70
     0
  9
$USERI5
 70
     0
  9
$USERR1
 40
0.0
  9
$USERR2
 40
0.0
  9
$USERR3
 40
0.0
  9
$USERR4
 40
0.0
  9
$USERR5
 40
0.0
  9
$WORLDVIEW
 70
     1
  9
$SHADEDGE
 70
     3
  9
$SHADEDIF
 70
    70
  9
$TILEMODE
 70
     1
  9
$MAXACTVP
 70
    16
  9
$PLIMCHECK
 70
     0
  9
$PEXTMIN
 10
1.0000000000000000E+020
 20
1.0000000000000000E+020
 30
1.0000000000000000E+020
  9
$PEXTMAX
 10
-1.0000000000000000E+020
 20
-1.0000000000000000E+020
 30
-1.0000000000000000E+020
  9
$PLIMMIN
 10
0.0
 20
0.0
  9
$PLIMMAX
 10
12.0
 20
9.0
  9
$UNITMODE
 70
     0
  9
$VISRETAIN
 70
     0
  9
$PLINEGEN
 70
     0
  9
$PSLTSCALE
 70
     0
  0
ENDSEC
  0
SECTION
  2
TABLES
  0
TABLE
  2
VPORT
 70
     1
  0
VPORT
  2
*ACTIVE
 70
     0
 10
0.0
 20
0.0
 11
1.0
 21
1.0
 12
3947.8531329117591
 22
1645.266049148554
 13
0.0
 23
0.0
 14
50.0
 24
50.0
 15
100.0
 25
100.0
 16
0.0
 26
0.0
 36
1.0
 17
0.0
 27
0.0
 37
0.0
 40
3659.6576736044449
 41
1.9174406604747161
 42
50.0
 43
0.0
 44
0.0
 50
0.0
 51
0.0
 71
     0
 72
   100
 73
     1
 74
     0
 75
     0
 76
     0
 77
     0
 78
     0
  0
ENDTAB
  0
TABLE
  2
LTYPE
 70
    21
  0
LTYPE
  2
CONTINUOUS
 70
     0
  3
Solid line
 72
    65
 73
     0
 40
0.0
  0
LTYPE
  2
PHANTOM
 70
     0
  3
______  __  __  ______  __  __  ______  __  __ 
 72
    65
 73
     6
 40
2.5
 49
1.25
 49
-0.25
 49
0.25
 49
-0.25
 49
0.25
 49
-0.25
  0
ENDTAB
  0
TABLE
  2
LAYER
 70
     7
  0
LAYER
  2
0
 70
     0
 62
     7
  6
CONTINUOUS
  0
LAYER
  2
OUTLINE
 70
     0
 62
     7
  6
CONTINUOUS
  0
LAYER
  2
TEXT
 70
     0
 62
   100
  6
CONTINUOUS
  0
LAYER
  2
DIM
 70
     0
 62
     2
  6
CONTINUOUS
  0
LAYER
  2
MTG-FEET
 70
     0
 62
    30
  6
CONTINUOUS
  0
LAYER
  2
OVERLAY-A3
 70
     0
 62
     7
  6
CONTINUOUS
  0
LAYER
  2
CLEAR
 70
     0
 62
     1
  6
PHANTOM
  0
ENDTAB
  0
TABLE
  2
STYLE
 70
     8
  0
STYLE
  2
STANDARD
 70
     0
 40
0.0
 41
1.0
 50
0.0
 71
     0
 42
0.2
  3
txt
  4

  0
STYLE
  2
TITLE3
 70
     0
 40
45.0
 41
1.0
 50
0.0
 71
     0
 42
45.0
  3
SIMPLEX
  4

  0
STYLE
  2
TITLE5
 70
     0
 40
75.0
 41
1.0
 50
0.0
 71
     0
 42
100.0
  3
SIMPLEX
  4

  0
STYLE
  2
SIMPLEX
 70
     0
 40
60.0
 41
1.0
 50
0.0
 71
     0
 42
60.0
  3
simplex
  4

  0
ENDTAB
  0
TABLE
  2
VIEW
 70
     0
  0
ENDTAB
  0
TABLE
  2
UCS
 70
     0
  0
ENDTAB
  0
TABLE
  2
APPID
 70
    15
  0
APPID
  2
ACAD
 70
     0
  0
APPID
  2
ACADANNOTATIVE
 70
     0
  0
APPID
  2
ACAD_MLEADERVER
 70
     0
  0
APPID
  2
ACAD_PSEXT
 70
     0
  0
APPID
  2
MCAD_NO_VIS
 70
     0
  0
APPID
  2
ACAD_TEMP_GRAPHIC
 70
     0
  0
APPID
  2
AD_DRAW
 70
     0
  0
APPID
  2
ACATTRIBSERVICES
 70
     0
  0
APPID
  2
DESIGNERASSEMBLIES
 70
     0
  0
APPID
  2
ACADM_DIM_EDIT
 70
     0
  0
APPID
  2
AMDT_DM_ADJ
 70
     0
  0
APPID
  2
ACAD_EXEMPT_FROM_CAD_STANDARDS
 70
     0
  0
APPID
  2
ACAD_NAV_VCDISPLAY
 70
     0
  0
APPID
  2
ACAD_DSTYLE_DIMBREAK
 70
     0
  0
APPID
  2
ACAD_DSTYLE_DIMJAG
 70
     0
  0
ENDTAB
  0
TABLE
  2
DIMSTYLE
 70
     9
  0
DIMSTYLE
  2
STANDARD
 70
     0
  3

  4

  5

  6

  7

 40
1.0
 41
0.18
 42
0.0625
 43
0.38
 44
0.18
 45
0.0
 46
0.0
 47
0.0
 48
0.0
140
0.18
141
0.09
142
0.0
143
25.399999999999999
144
1.0
145
0.0
146
1.0
147
0.09
 71
     0
 72
     0
 73
     1
 74
     1
 75
     0
 76
     0
 77
     0
 78
     0
170
     0
171
     2
172
     0
173
     0
174
     0
175
     0
176
     0
177
     0
178
     0
  0
DIMSTYLE
  2
AM_ANSI
 70
     0
  3

  4
mm
  5

  6

  7

 40
1.0
 41
0.12
 42
0.05
 43
0.5
 44
0.1
 45
0.0
 46
0.0
 47
0.1
 48
0.1
140
0.12
141
0.0
142
0.0
143
25.399999999999999
144
1.0
145
0.0
146
0.71
147
0.06
 71
     0
 72
     0
 73
     1
 74
     1
 75
     0
 76
     0
 77
     0
 78
     7
170
     0
171
     2
172
     0
173
     0
174
     0
175
     0
176
   256
177
   256
178
     2
  0
ENDTAB
  0
ENDSEC
  0
SECTION
  2
BLOCKS
  0
BLOCK
  8
0
  2
$MODEL_SPACE
 70
     0
 10
0.0
 20
0.0
 30
0.0
  3
$MODEL_SPACE
  1

  0
ENDBLK
  5
251A
  8
0
  0
BLOCK
 67
     1
  8
0
  2
$PAPER_SPACE
 70
     0
 10
0.0
 20
0.0
 30
0.0
  3
$PAPER_SPACE
  1

  0
ENDBLK
  5
2516
 67
     1
  8
0
  0
BLOCK
  8
0
  2
LINES
 70
     0
 10
0.0
 20
0.0
 30
0.0
  3
LINES
  1

  0
ENDBLK
  5
F67
  8
0
  0
BLOCK
  8
0
  2
*U8
 70
     1
 10
0.0
 20
0.0
 30
0.0
  3
*U8
  1

  0
TEXT
  5
186B
  8
OVERLAY-A3
 10
5609.6572296216964
 20
4060.5630656892272
 30
0.0
 40
45.0
  1
422 O/A
 50
90.0
  0
ENDBLK
  5
186D
  8
0
  0
ENDSEC
  0
SECTION
  2
ENTITIES
  0
LINE
  5
F73
  8
OUTLINE
 10
2075.0143715286331
 20
303.14282502649542
 30
0.0
 11
2155.0143715286331
 21
303.14282502649542
 31
0.0
  0
LINE
  5
F76
  8
OUTLINE
 10
1930.0143715286331
 20
1252.1428250264951
 30
0.0
 11
1930.0143715286331
 21
335.44282502649543
 31
0.0
  0
TEXT
  5
F78
  8
TEXT
 10
4272.8624271399531
 20
259.2742466930232
 30
0.0
 40
75.0
  1
temperzone OSA 141RKTGH
 41
0.9466267502530225
  7
TITLE5
 72
     5
 11
5740.1338900321371
 21
259.2742466930232
 31
0.0
  0
TEXT
  5
F79
  8
TEXT
 10
5167.207040051012
 20
-41.001320039896591
 30
0.0
 40
40.499999999999993
  1
OSA141RKTGH
 41
0.9620853080568723
  7
TITLE3
 72
     5
 11
5558.707040051012
 21
-41.001320039896591
 31
0.0
  0
INSERT
  5
FCE
  8
MTG-FEET
  2
LINES
 10
637.42319439946073
 20
2246.7294005091198
 30
0.0
  0
TEXT
  5
FDF
  8
TEXT
 10
4445.5737691718496
 20
17.0
 30
0.0
 40
45.0
  1
07-05-15
 41
0.691358024691353
  7
TITLE3
 72
     5
 11
4685.5737691718477
 21
17.0
 31
0.0
  0
TEXT
  5
FE0
  8
OVERLAY-A3
 10
4272.345334441874
 20
18.246820790151421
 30
0.0
 40
36.0
  1
Date
  7
SIMPLEX
  0
TEXT
  5
FE1
  8
OVERLAY-A3
 10
5619.166788560402
 20
46.254953035116813
 30
0.0
 40
36.0
  1
Revision
 41
0.7812095035934883
  7
SIMPLEX
 72
     5
 11
5777.1943110015991
 21
46.254953035116813
 31
0.0
  0
LINE
  5
FE2
  8
OVERLAY-A3
 10
5601.7370249852393
 20
-116.7362607275243
 30
0.0
 11
5601.7370249852393
 21
104.40298356282
 31
0.0
  0
LINE
  5
FE3
  8
OVERLAY-A3
 10
4229.0272941857229
 20
357.82662824683229
 30
0.0
 11
4229.0272941857229
 21
-116.7362607275243
 31
0.0
  0
LINE
  5
FE4
  8
OVERLAY-A3
 10
5125.3705170196408
 20
-116.7362607275243
 30
0.0
 11
5125.3705170196408
 21
104.40298356282
 31
0.0
  0
LINE
  5
FE5
  8
OVERLAY-A3
 10
5125.370517019639
 20
-8.0311010958044982
 30
0.0
 11
4229.0272941857229
 21
-8.0311010958044982
 31
0.0
  0
LINE
  5
FE6
  8
OVERLAY-A3
 10
5792.3631978567637
 20
104.40298356282
 30
0.0
 11
4229.0272941857229
 21
104.40298356282
 31
0.0
  0
LINE
  5
FE7
  8
OVERLAY-A3
 10
4229.0272941857229
 20
-116.7362607275243
 30
0.0
 11
5791.9169370892359
 21
-116.7362607275243
 31
0.0
  0
LINE
  5
FE8
  8
OVERLAY-A3
 10
5791.9169370892359
 20
-116.7362607275243
 30
0.0
 11
5791.9169370892359
 21
357.82662824683229
 31
0.0
  0
LINE
  5
FE9
  8
OVERLAY-A3
 10
5791.9169370892359
 20
357.82662824683229
 30
0.0
 11
4229.0272941857229
 21
357.82662824683229
 31
0.0
  0
TEXT
  5
FEA
  8
OVERLAY-A3
 10
4266.7248286546628
 20
-76.116267901963454
 30
0.0
 40
30.0
  1
Scale
 41
1.3701747965660029
  7
SIMPLEX
 72
     5
 11
4417.4440562769232
 21
-76.116267901963454
 31
0.0
  0
TEXT
  5
FEB
  8
OVERLAY-A3
 10
5212.2886854011949
 20
45.340147260064313
 30
0.0
 40
30.0
  1
Drawing No.
  7
SIMPLEX
 72
     2
 11
5473.7172568297656
 21
45.340147260064313
 31
0.0
  0
LINE
  5
FEC
  8
OVERLAY-A3
 10
1576.1105239390611
 20
-148.0
 30
0.0
 11
5835.0
 21
-148.0
 31
0.0
  0
LINE
  5
FED
  8
OVERLAY-A3
 10
5835.0
 20
-148.0
 30
0.0
 11
5834.9999999999973
 21
3477.5393139767311
 31
0.0
  0
LINE
  5
FEE
  8
OVERLAY-A3
 10
5834.9999999999973
 20
3477.5393139767311
 30
0.0
 11
1576.1105239390611
 21
3481.5393139767302
 31
0.0
  0
LINE
  5
FEF
  8
OVERLAY-A3
 10
1576.1105239390611
 20
3481.5393139767302
 30
0.0
 11
1576.1105239390611
 21
-148.0
 31
0.0
  0
TEXT
  5
FF0
  8
TEXT
 10
4499.1433054549598
 20
-73.789942976643061
 30
0.0
 40
45.0
  1
1:20
  7
TITLE3
  0
TEXT
  5
10A0
  8
TEXT
 10
5115.8581734788086
 20
408.56898589035478
 30
0.0
 40
28.0
  1
available on request
  7
TITLE3
  0
TEXT
  5
10A1
  8
TEXT
 10
5115.8581734788086
 20
456.56898589035478
 30
0.0
 40
28.0
  1
Certified dimensions
  7
TITLE3
  0
TEXT
  5
10A2
  8
TEXT
 10
5115.8581734788086
 20
504.5689858903545
 30
0.0
 40
28.0
  1
without notice or obligation.
  7
TITLE3
  0
TEXT
  5
10A3
  8
TEXT
 10
5115.8581734788086
 20
552.56898589035472
 30
0.0
 40
28.0
  1
specifications at any time
  7
TITLE3
  0
TEXT
  5
10A4
  8
TEXT
 10
5115.8581734788086
 20
600.56898589035472
 30
0.0
 40
28.0
  1
the right to change 
  7
TITLE3
  0
TEXT
  5
10A5
  8
TEXT
 10
5115.8581734788086
 20
696.56898589035472
 30
0.0
 40
28.0
  1
NOTE
  7
TITLE3
  0
TEXT
  5
10A6
  8
TEXT
 10
5115.8581734788086
 20
648.56898589035472
 30
0.0
 40
28.0
  1
The manufacturer reserves
  7
TITLE3
  0
LINE
  5
1384
  8
OUTLINE
 10
3052.0143715286331
 20
1252.1428250264951
 30
0.0
 11
3052.0143715286331
 21
335.44282502649543
 31
0.0
  0
LINE
  5
1387
  8
OUTLINE
 10
1933.5143715286331
 20
1267.1428250264951
 30
0.0
 11
3048.5143715286331
 21
1267.1428250264951
 31
0.0
  0
LINE
  5
1388
  8
OUTLINE
 10
1930.0143715286331
 20
335.44282502649543
 30
0.0
 11
3052.0143715286331
 21
335.44282502649543
 31
0.0
  0
LINE
  5
1389
  8
OUTLINE
 10
2115.0143715286331
 20
313.14282502649519
 30
0.0
 11
2115.0143715286331
 21
293.1428250264953
 31
0.0
  0
LINE
  5
1393
  8
OUTLINE
 10
2155.0143715286331
 20
303.14282502649542
 30
0.0
 11
2187.3143715286319
 21
335.44282502649543
 31
0.0
  0
LINE
  5
1394
  8
OUTLINE
 10
2075.0143715286331
 20
303.14282502649542
 30
0.0
 11
2042.714371528634
 21
335.44282502649543
 31
0.0
  0
LINE
  5
1396
  8
OUTLINE
 10
2828.0143715286322
 20
303.14282502649542
 30
0.0
 11
2908.0143715286322
 21
303.14282502649542
 31
0.0
  0
LINE
  5
1397
  8
OUTLINE
 10
2908.0143715286322
 20
303.14282502649542
 30
0.0
 11
2940.3143715286319
 21
335.44282502649543
 31
0.0
  0
LINE
  5
1398
  8
OUTLINE
 10
2828.0143715286322
 20
303.14282502649542
 30
0.0
 11
2795.714371528632
 21
335.44282502649543
 31
0.0
  0
LINE
  5
139B
  8
OUTLINE
 10
2868.0143715286331
 20
313.14282502649519
 30
0.0
 11
2868.0143715286331
 21
293.1428250264953
 31
0.0
  0
TEXT
  5
13A8
  8
DIM
 10
2479.054371645454
 20
2646.983315174326
 30
0.0
 40
45.0
  1
FLOW
  7
SIMPLEX
  0
TEXT
  5
13A9
  8
DIM
 10
2513.8162731559191
 20
2717.8032765645121
 30
0.0
 40
45.0
  1
AIR
  7
SIMPLEX
  0
LINE
  5
13AA
  8
DIM
 10
2407.484922833265
 20
2684.0048817445459
 30
0.0
 11
2407.484922833265
 21
2745.7241730831311
 31
0.0
  0
LINE
  5
13AB
  8
DIM
 10
2434.7057012422351
 20
2684.0048817445459
 30
0.0
 11
2407.484922833265
 21
2684.0048817445459
 31
0.0
  0
LINE
  5
13AC
  8
DIM
 10
2394.824095666298
 20
2651.2461809571419
 30
0.0
 11
2434.7057012422351
 21
2684.0048817445459
 31
0.0
  0
LINE
  5
13AD
  8
DIM
 10
2382.1632684993351
 20
2745.7241730831311
 30
0.0
 11
2407.484922833265
 21
2745.7241730831311
 31
0.0
  0
LINE
  5
13AE
  8
DIM
 10
2382.1632684993351
 20
2684.0048817445459
 30
0.0
 11
2382.1632684993351
 21
2745.7241730831311
 31
0.0
  0
LINE
  5
13AF
  8
DIM
 10
2354.9424900903632
 20
2684.0048817445459
 30
0.0
 11
2382.1632684993351
 21
2684.0048817445459
 31
0.0
  0
LINE
  5
13B0
  8
DIM
 10
2394.824095666298
 20
2651.2461809571419
 30
0.0
 11
2354.9424900903632
 21
2684.0048817445459
 31
0.0
  0
TEXT
  5
13DD
  8
TEXT
 10
2599.3235341941249
 20
3374.152380662023
 30
0.0
 40
45.0
  1
150 min CLEARANCE
  7
TITLE3
  0
TEXT
  5
13DE
  8
TEXT
 10
2137.2123392597841
 20
2048.6525522231468
 30
0.0
 40
45.0
  1
800 min CLEARANCE
  7
TITLE3
  0
TEXT
  5
13DF
  8
TEXT
 10
1675.0258966143001
 20
2986.9933018242291
 30
0.0
 40
45.0
  1
150 min
 50
90.0
  7
TITLE3
  0
TEXT
  5
13E0
  8
TEXT
 10
1752.1687537571579
 20
2918.5242822778619
 30
0.0
 40
45.0
  1
CLEARANCE
 50
90.0
  7
TITLE3
  0
TEXT
  5
13E1
  8
TEXT
 10
3937.8869505180628
 20
2939.3430090111951
 30
0.0
 40
45.0
  1
1000 min
 50
90.0
  7
TITLE3
  0
TEXT
  5
13E2
  8
TEXT
 10
4015.0298076609188
 20
2888.6877733386132
 30
0.0
 40
45.0
  1
CLEARANCE
 50
90.0
  7
TITLE3
  0
LINE
  5
1413
  8
OUTLINE
 10
1928.5143715286331
 20
3203.124730783115
 30
0.0
 11
3053.5143715286331
 21
3203.124730783115
 31
0.0
  0
LINE
  5
1414
  8
OUTLINE
 10
1928.5143715286331
 20
3203.124730783115
 30
0.0
 11
1928.5143715286331
 21
2891.1247307831168
 31
0.0
  0
LINE
  5
1415
  8
OUTLINE
 10
3053.5143715286331
 20
3203.124730783115
 30
0.0
 11
3053.5143715286331
 21
2891.1247307831168
 31
0.0
  0
LINE
  5
1416
  8
OUTLINE
 10
2009.5143715286331
 20
2810.1247307831168
 30
0.0
 11
2972.5143715286331
 21
2810.1247307831168
 31
0.0
  0
LINE
  5
1417
  8
OUTLINE
 10
2075.0143715286331
 20
3220.1247307831122
 30
0.0
 11
2155.0143715286331
 21
3220.1247307831159
 31
0.0
  0
LINE
  5
141A
  8
OUTLINE
 10
2075.0143715286331
 20
2794.1247307831181
 30
0.0
 11
2155.0143715286331
 21
2794.1247307831181
 31
0.0
  0
POINT
  5
142C
  8
OUTLINE
 10
2115.0143715286331
 20
2813.6247307831159
 30
0.0
  0
POINT
  5
142E
  8
OUTLINE
 10
2115.0143715286331
 20
3212.1247307831131
 30
0.0
  0
POINT
  5
1437
  8
OUTLINE
 10
2868.0143715286331
 20
2813.6247307831159
 30
0.0
  0
POINT
  5
1438
  8
OUTLINE
 10
2868.0143715286331
 20
3212.1247307831131
 30
0.0
  0
LINE
  5
146E
  8
CLEAR
 10
1778.514371528634
 20
3353.124730783115
 30
0.0
 11
1778.5143715286349
 21
2810.1247307831168
 31
0.0
  0
LINE
  5
146F
  8
CLEAR
 10
1778.514371528634
 20
3353.124730783115
 30
0.0
 11
4053.5143715286322
 21
3353.124730783115
 31
0.0
  0
LINE
  5
1470
  8
CLEAR
 10
4053.5143715286322
 20
3353.124730783115
 30
0.0
 11
4053.5143715286322
 21
2810.1247307831168
 31
0.0
  0
LINE
  5
1471
  8
CLEAR
 10
1928.5143715286331
 20
2010.124730783117
 30
0.0
 11
3053.5143715286331
 21
2010.124730783117
 31
0.0
  0
LINE
  5
1472
  8
CLEAR
 10
1928.5143715286331
 20
2785.1247307831168
 30
0.0
 11
1928.5143715286331
 21
2010.124730783117
 31
0.0
  0
LINE
  5
1473
  8
CLEAR
 10
3053.5143715286331
 20
2785.1247307831168
 30
0.0
 11
3053.5143715286331
 21
2010.124730783117
 31
0.0
  0
LINE
  5
1474
  8
CLEAR
 10
3078.5143715286331
 20
2810.1247307831168
 30
0.0
 11
4053.5143715286322
 21
2810.1247307831168
 31
0.0
  0
LINE
  5
1475
  8
CLEAR
 10
1903.514371528634
 20
2810.1247307831168
 30
0.0
 11
1778.5143715286349
 21
2810.1247307831168
 31
0.0
  0
LINE
  5
151A
  8
OUTLINE
 10
2075.0143715286331
 20
2794.1247307831181
 30
0.0
 11
2059.0143715286331
 21
2810.1247307831168
 31
0.0
  0
LINE
  5
151B
  8
OUTLINE
 10
2155.0143715286331
 20
2794.1247307831181
 30
0.0
 11
2171.0143715286331
 21
2810.1247307831168
 31
0.0
  0
LINE
  5
151C
  8
OUTLINE
 10
2075.0143715286331
 20
3220.1247307831122
 30
0.0
 11
2058.0143715286322
 21
3203.124730783115
 31
0.0
  0
LINE
  5
151D
  8
OUTLINE
 10
2155.0143715286331
 20
3220.1247307831159
 30
0.0
 11
2172.0143715286331
 21
3203.1247307831168
 31
0.0
  0
LINE
  5
151E
  8
OUTLINE
 10
2828.0143715286322
 20
3220.1247307831122
 30
0.0
 11
2908.0143715286322
 21
3220.1247307831159
 31
0.0
  0
LINE
  5
151F
  8
OUTLINE
 10
2828.0143715286322
 20
2794.1247307831181
 30
0.0
 11
2908.0143715286322
 21
2794.1247307831181
 31
0.0
  0
LINE
  5
1520
  8
OUTLINE
 10
2828.0143715286322
 20
2794.1247307831181
 30
0.0
 11
2812.0143715286322
 21
2810.1247307831168
 31
0.0
  0
LINE
  5
1521
  8
OUTLINE
 10
2908.0143715286322
 20
2794.1247307831181
 30
0.0
 11
2924.0143715286322
 21
2810.1247307831168
 31
0.0
  0
LINE
  5
1522
  8
OUTLINE
 10
2828.0143715286322
 20
3220.1247307831122
 30
0.0
 11
2811.0143715286308
 21
3203.124730783115
 31
0.0
  0
LINE
  5
1523
  8
OUTLINE
 10
2908.0143715286322
 20
3220.1247307831159
 30
0.0
 11
2925.014371528634
 21
3203.1247307831168
 31
0.0
  0
LINE
  5
168C
  8
OUTLINE
 10
4349.5972933150979
 20
3203.124730783115
 30
0.0
 11
5418.2972933150986
 21
3203.124730783115
 31
0.0
  0
LINE
  5
168D
  8
OUTLINE
 10
4349.5972933150979
 20
2810.124730783114
 30
0.0
 11
5418.2972933150986
 21
2810.1247307831168
 31
0.0
  0
LINE
  5
169F
  8
OUTLINE
 10
4334.5972933150979
 20
2813.6247307831159
 30
0.0
 11
4334.5972933150979
 21
3199.6247307831122
 31
0.0
  0
LINE
  5
16A0
  8
OUTLINE
 10
5418.2972933150986
 20
2810.1247307831168
 30
0.0
 11
5418.2972933150986
 21
3203.124730783115
 31
0.0
  0
LINE
  5
16B2
  8
OUTLINE
 10
5450.5972933150979
 20
2794.1247307831181
 30
0.0
 11
5450.5972933150997
 21
3220.1247307831122
 31
0.0
  0
LINE
  5
16B3
  8
OUTLINE
 10
5450.5972933150979
 20
2794.1247307831181
 30
0.0
 11
5418.2972933150986
 21
2826.424730783116
 31
0.0
  0
LINE
  5
16B4
  8
OUTLINE
 10
5450.5972933150997
 20
3220.1247307831122
 30
0.0
 11
5418.2972933150986
 21
3187.824730783113
 31
0.0
  0
LINE
  5
16B5
  8
OUTLINE
 10
5460.5972933150979
 20
3212.1247307831131
 30
0.0
 11
5440.5972933150997
 21
3212.1247307831131
 31
0.0
  0
LINE
  5
16B6
  8
OUTLINE
 10
5460.5972933150979
 20
2813.6247307831159
 30
0.0
 11
5440.597293315097
 21
2813.6247307831159
 31
0.0
  0
LINE
  5
16BC
  8
OVERLAY-A3
 10
4304.5972933150997
 20
3204.624730783115
 30
0.0
 11
4188.0413026078322
 21
3204.624730783115
 31
0.0
  0
LINE
  5
16BD
  8
OVERLAY-A3
 10
4304.5972933150997
 20
2808.624730783114
 30
0.0
 11
4188.0413026078322
 21
2808.624730783114
 31
0.0
  0
LINE
  5
16BE
  8
OVERLAY-A3
 10
4218.0413026078322
 20
3159.6247307831181
 30
0.0
 11
4218.0413026078322
 21
3094.6247307831168
 31
0.0
  0
LINE
  5
16BF
  8
OVERLAY-A3
 10
4218.0413026078322
 20
2853.6247307831159
 30
0.0
 11
4218.0413026078322
 21
2914.6247307831168
 31
0.0
  0
SOLID
  5
16C0
  8
OVERLAY-A3
 10
4210.5413026078304
 20
3159.6247307831181
 30
0.0
 11
4225.5413026078286
 21
3159.6247307831181
 31
0.0
 12
4218.0413026078322
 22
3204.624730783115
 32
0.0
 13
4218.0413026078322
 23
3204.624730783115
 33
0.0
  0
SOLID
  5
16C1
  8
OVERLAY-A3
 10
4210.5413026078304
 20
2853.6247307831159
 30
0.0
 11
4225.5413026078286
 21
2853.6247307831159
 31
0.0
 12
4218.0413026078322
 22
2808.624730783114
 32
0.0
 13
4218.0413026078322
 23
2808.624730783114
 33
0.0
  0
LINE
  5
16C3
  8
OVERLAY-A3
 10
5480.5972933150979
 20
3220.1247307831122
 30
0.0
 11
5618.1572296216946
 21
3220.1247307831122
 31
0.0
  0
LINE
  5
16C4
  8
OVERLAY-A3
 10
5480.5972933150979
 20
2794.1247307831181
 30
0.0
 11
5618.1572296216946
 21
2794.1247307831181
 31
0.0
  0
LINE
  5
16C5
  8
OVERLAY-A3
 10
5588.1572296216964
 20
3265.1247307831131
 30
0.0
 11
5588.1572296216964
 21
3310.124730783114
 31
0.0
  0
LINE
  5
16C6
  8
OVERLAY-A3
 10
5588.1572296216964
 20
2749.1247307831181
 30
0.0
 11
5588.1572296216964
 21
2704.1247307831181
 31
0.0
  0
SOLID
  5
16C7
  8
OVERLAY-A3
 10
5580.6572296216964
 20
3265.1247307831131
 30
0.0
 11
5595.6572296216946
 21
3265.1247307831131
 31
0.0
 12
5588.1572296216964
 22
3220.1247307831122
 32
0.0
 13
5588.1572296216964
 23
3220.1247307831122
 33
0.0
  0
SOLID
  5
16C8
  8
OVERLAY-A3
 10
5580.6572296216964
 20
2749.1247307831181
 30
0.0
 11
5595.6572296216946
 21
2749.1247307831181
 31
0.0
 12
5588.1572296216964
 22
2794.1247307831181
 32
0.0
 13
5588.1572296216964
 23
2794.1247307831181
 33
0.0
  0
INSERT
  5
16C9
  8
OUTLINE
  2
*U8
 10
0.0
 20
-1197.4705222838891
 30
0.0
  0
LINE
  5
16CA
  8
OVERLAY-A3
 10
5419.5972933150979
 20
3220.1247307831122
 30
0.0
 11
5311.244049022629
 21
3220.1247307831122
 31
0.0
  0
LINE
  5
16CB
  8
OVERLAY-A3
 10
5419.5972933150961
 20
3212.1247307831131
 30
0.0
 11
5312.3714874031684
 21
3212.1247307831159
 31
0.0
  0
LINE
  5
16CC
  8
OVERLAY-A3
 10
5341.244049022629
 20
3265.1247307831131
 30
0.0
 11
5341.244049022629
 21
3310.124730783114
 31
0.0
  0
LINE
  5
16CD
  8
OVERLAY-A3
 10
5341.2440490226272
 20
3167.1247307831168
 30
0.0
 11
5341.2440490226272
 21
3118.124730783119
 31
0.0
  0
SOLID
  5
16CE
  8
OVERLAY-A3
 10
5333.744049022629
 20
3265.1247307831131
 30
0.0
 11
5348.744049022629
 21
3265.1247307831131
 31
0.0
 12
5341.244049022629
 22
3220.1247307831122
 32
0.0
 13
5341.244049022629
 23
3220.1247307831122
 33
0.0
  0
SOLID
  5
16CF
  8
OVERLAY-A3
 10
5333.7440490226272
 20
3167.1247307831168
 30
0.0
 11
5348.7440490226272
 21
3167.1247307831168
 31
0.0
 12
5341.2440490226272
 22
3212.1247307831159
 32
0.0
 13
5341.2440490226272
 23
3212.1247307831159
 33
0.0
  0
LINE
  5
16D1
  8
OVERLAY-A3
 10
1898.514371528634
 20
1267.1428250264951
 30
0.0
 11
1770.1766810885649
 21
1267.1428250264951
 31
0.0
  0
LINE
  5
16D3
  8
OVERLAY-A3
 10
1800.1766810885649
 20
1226.1428250264951
 30
0.0
 11
1800.1766810885649
 21
1043.6428250264951
 31
0.0
  0
LINE
  5
16D4
  8
OVERLAY-A3
 10
1800.1766810885649
 20
348.14282502649542
 30
0.0
 11
1800.1766810885649
 21
682.6428250264953
 31
0.0
  0
SOLID
  5
16D5
  8
OVERLAY-A3
 10
1792.6766810885649
 20
1226.1428250264951
 30
0.0
 11
1807.6766810885649
 21
1226.1428250264951
 31
0.0
 12
1800.1766810885649
 22
1267.1428250264951
 32
0.0
 13
1800.1766810885649
 23
1267.1428250264951
 33
0.0
  0
SOLID
  5
16D6
  8
OVERLAY-A3
 10
1792.6766810885649
 20
348.14282502649542
 30
0.0
 11
1807.6766810885649
 21
348.14282502649542
 31
0.0
 12
1800.1766810885649
 22
303.14282502649542
 32
0.0
 13
1800.1766810885649
 23
303.14282502649542
 33
0.0
  0
LINE
  5
16D8
  8
OVERLAY-A3
 10
1928.5143715286331
 20
305.44282502649543
 30
0.0
 11
1928.5143715286331
 21
209.25151841674949
 31
0.0
  0
LINE
  5
16D9
  8
OVERLAY-A3
 10
2115.0143715286331
 20
249.14282502649539
 30
0.0
 11
2115.0143715286331
 21
209.25151841674949
 31
0.0
  0
LINE
  5
16DA
  8
OVERLAY-A3
 10
1883.514371528634
 20
239.25151841674941
 30
0.0
 11
1838.514371528634
 21
239.25151841674941
 31
0.0
  0
LINE
  5
16DB
  8
OVERLAY-A3
 10
2160.0143715286331
 20
239.25151841674941
 30
0.0
 11
2205.0143715286331
 21
239.25151841674941
 31
0.0
  0
SOLID
  5
16DC
  8
OVERLAY-A3
 10
1883.514371528634
 20
246.75151841674949
 30
0.0
 11
1883.514371528634
 21
231.75151841674949
 31
0.0
 12
1928.5143715286331
 22
239.25151841674941
 32
0.0
 13
1928.5143715286331
 23
239.25151841674941
 33
0.0
  0
SOLID
  5
16DD
  8
OVERLAY-A3
 10
2160.0143715286331
 20
246.75151841674949
 30
0.0
 11
2160.0143715286331
 21
231.75151841674949
 31
0.0
 12
2115.0143715286331
 22
239.25151841674941
 32
0.0
 13
2115.0143715286331
 23
239.25151841674941
 33
0.0
  0
LINE
  5
16DF
  8
OVERLAY-A3
 10
2115.0143715286331
 20
276.65339673753249
 30
0.0
 11
2115.0143715286331
 21
209.25151841674949
 31
0.0
  0
LINE
  5
16E0
  8
OVERLAY-A3
 10
2868.0143715286331
 20
276.65339673753249
 30
0.0
 11
2868.0143715286331
 21
209.25151841674949
 31
0.0
  0
LINE
  5
16E1
  8
OVERLAY-A3
 10
2160.0143715286331
 20
239.25151841674941
 30
0.0
 11
2284.2143715286329
 21
239.25151841674941
 31
0.0
  0
LINE
  5
16E2
  8
OVERLAY-A3
 10
2823.0143715286331
 20
239.25151841674941
 30
0.0
 11
2689.2143715286329
 21
239.25151841674941
 31
0.0
  0
SOLID
  5
16E3
  8
OVERLAY-A3
 10
2160.0143715286331
 20
246.75151841674949
 30
0.0
 11
2160.0143715286331
 21
231.75151841674949
 31
0.0
 12
2115.0143715286331
 22
239.25151841674941
 32
0.0
 13
2115.0143715286331
 23
239.25151841674941
 33
0.0
  0
SOLID
  5
16E4
  8
OVERLAY-A3
 10
2823.0143715286331
 20
246.75151841674949
 30
0.0
 11
2823.0143715286331
 21
231.75151841674949
 31
0.0
 12
2868.0143715286331
 22
239.25151841674941
 32
0.0
 13
2868.0143715286331
 23
239.25151841674941
 33
0.0
  0
LINE
  5
16E6
  8
OVERLAY-A3
 10
1928.5143715286331
 20
1297.1428250264951
 30
0.0
 11
1928.5143715286331
 21
1367.3076330213951
 31
0.0
  0
LINE
  5
16E7
  8
OVERLAY-A3
 10
3053.5143715286331
 20
1297.1428250264951
 30
0.0
 11
3053.5143715286331
 21
1367.3076330213951
 31
0.0
  0
LINE
  5
16E8
  8
OVERLAY-A3
 10
1973.5143715286331
 20
1337.3076330213951
 30
0.0
 11
2302.5143715286331
 21
1337.3076330213951
 31
0.0
  0
LINE
  5
16E9
  8
OVERLAY-A3
 10
3008.5143715286331
 20
1337.3076330213951
 30
0.0
 11
2677.514371528634
 21
1337.3076330213951
 31
0.0
  0
SOLID
  5
16EA
  8
OVERLAY-A3
 10
1973.5143715286331
 20
1344.8076330213951
 30
0.0
 11
1973.5143715286331
 21
1329.8076330213951
 31
0.0
 12
1928.5143715286331
 22
1337.3076330213951
 32
0.0
 13
1928.5143715286331
 23
1337.3076330213951
 33
0.0
  0
SOLID
  5
16EB
  8
OVERLAY-A3
 10
3008.5143715286331
 20
1344.8076330213951
 30
0.0
 11
3008.5143715286331
 21
1329.8076330213951
 31
0.0
 12
3053.5143715286331
 22
1337.3076330213951
 32
0.0
 13
3053.5143715286331
 23
1337.3076330213951
 33
0.0
  0
LINE
  5
1701
  8
OVERLAY-A3
 10
2899.2143715286338
 20
3212.1247307831131
 30
0.0
 11
3266.5784385225929
 21
3212.1247307831131
 31
0.0
  0
LINE
  5
1702
  8
OVERLAY-A3
 10
2899.2143715286338
 20
2813.6247307831159
 30
0.0
 11
3266.5784385225929
 21
2813.6247307831159
 31
0.0
  0
LINE
  5
1703
  8
OVERLAY-A3
 10
3239.0784385225929
 20
3257.1247307831131
 30
0.0
 11
3239.0784385225929
 21
3302.1247307831131
 31
0.0
  0
LINE
  5
1704
  8
OVERLAY-A3
 10
3239.0784385225929
 20
2768.6247307831159
 30
0.0
 11
3239.0784385225929
 21
2723.6247307831181
 31
0.0
  0
SOLID
  5
1705
  8
OVERLAY-A3
 10
3231.5784385225929
 20
3257.1247307831131
 30
0.0
 11
3246.578438522592
 21
3257.1247307831131
 31
0.0
 12
3239.0784385225929
 22
3212.1247307831131
 32
0.0
 13
3239.0784385225929
 23
3212.1247307831131
 33
0.0
  0
SOLID
  5
1706
  8
OVERLAY-A3
 10
3231.5784385225929
 20
2768.6247307831159
 30
0.0
 11
3246.578438522592
 21
2768.6247307831159
 31
0.0
 12
3239.0784385225929
 22
2813.6247307831159
 32
0.0
 13
3239.0784385225929
 23
2813.6247307831159
 33
0.0
  0
LINE
  5
1708
  8
OVERLAY-A3
 10
5488.8875457058293
 20
2813.6247307831159
 30
0.0
 11
5551.8282084885059
 21
2813.6247307831159
 31
0.0
  0
LINE
  5
1709
  8
OVERLAY-A3
 10
5480.5972933150979
 20
2794.1247307831181
 30
0.0
 11
5563.5379560977781
 21
2794.1247307831181
 31
0.0
  0
LINE
  5
170A
  8
OVERLAY-A3
 10
5523.5379560977781
 20
2853.6247307831159
 30
0.0
 11
5523.5379560977781
 21
2898.6247307831168
 31
0.0
  0
LINE
  5
170B
  8
OVERLAY-A3
 10
5523.5379560977781
 20
2749.1247307831181
 30
0.0
 11
5523.5379560977781
 21
2704.1247307831181
 31
0.0
  0
SOLID
  5
170C
  8
OVERLAY-A3
 10
5516.0379560977781
 20
2858.6247307831159
 30
0.0
 11
5531.0379560977781
 21
2858.6247307831159
 31
0.0
 12
5523.5379560977781
 22
2813.6247307831159
 32
0.0
 13
5523.5379560977781
 23
2813.6247307831159
 33
0.0
  0
SOLID
  5
170D
  8
OVERLAY-A3
 10
5516.0379560977781
 20
2749.1247307831181
 30
0.0
 11
5531.0379560977781
 21
2749.1247307831181
 31
0.0
 12
5523.5379560977781
 22
2794.1247307831181
 32
0.0
 13
5523.5379560977781
 23
2794.1247307831181
 33
0.0
  0
TEXT
  5
17F0
  8
OUTLINE
 10
2158.699581695857
 20
2985.1005819711781
 30
0.0
 40
60.0
  1
OSA 141RKTGH
  7
TITLE5
  0
TEXT
  5
17F1
  8
OUTLINE
 10
4558.4570899370174
 20
2985.1005819711781
 30
0.0
 40
60.0
  1
OSA 141RKTGH
  7
TITLE5
  0
TEXT
  5
17F2
  8
OUTLINE
 10
2626.728253300982
 20
917.3103916658506
 30
0.0
 40
60.0
  1
OSA 141
  7
TITLE5
  0
TEXT
  5
17F3
  8
OUTLINE
 10
2678.1568247295531
 20
817.31039166585026
 30
0.0
 40
60.0
  1
RKTGH
  7
TITLE5
  0
LINE
  5
19D0
  8
OVERLAY-A3
 10
2047.5143715286331
 20
303.14282502649542
 30
0.0
 11
1770.1766810885631
 21
303.14282502649542
 31
0.0
  0
TEXT
  5
19D3
  8
OVERLAY-A3
 10
1822.676681088564
 20
713.64282502649553
 30
0.0
 40
45.0
  1
964 O/A
 50
90.0
  0
TEXT
  5
1DB5
  8
OVERLAY-A3
 10
5545.0379560977772
 20
2546.62473078312
 30
0.0
 40
45.0
  1
19.5
 50
90.0
  0
TEXT
  5
1DB8
  8
OVERLAY-A3
 10
5363.7440490226281
 20
3331.4546224781361
 30
0.0
 40
45.0
  1
8
 50
90.0
  0
LINE
  5
1DC0
  8
OUTLINE
 10
4339.5972933150997
 20
3204.624730783115
 30
0.0
 11
4349.5972933150979
 21
3204.624730783115
 31
0.0
  0
LINE
  5
1DC1
  8
OUTLINE
 10
4349.5972933150979
 20
3204.624730783115
 30
0.0
 11
4349.5972933150979
 21
2808.624730783114
 31
0.0
  0
LINE
  5
1DC2
  8
OUTLINE
 10
4349.5972933150979
 20
2808.624730783114
 30
0.0
 11
4339.5972933150997
 21
2808.624730783114
 31
0.0
  0
ARC
  5
1DC3
  8
OUTLINE
 10
4339.5972933150997
 20
2813.6247307831159
 30
0.0
 40
5.0
 50
180.0
 51
270.0
  0
ARC
  5
1DC4
  8
OUTLINE
 10
4339.5972933150997
 20
3199.6247307831122
 30
0.0
 40
5.0
 50
90.0
 51
180.0
  0
TEXT
  5
1DC5
  8
OVERLAY-A3
 10
4240.5413026078322
 20
2944.6247307831181
 30
0.0
 40
45.0
  1
396
 50
90.0
  0
TEXT
  5
1DCF
  8
OVERLAY-A3
 10
1982.249245246875
 20
227.48869650817309
 30
0.0
 40
35.0
  1
185
  0
LINE
  5
1DD0
  8
OUTLINE
 10
1928.5143715286331
 20
1252.1428250264951
 30
0.0
 11
3053.5143715286331
 21
1252.1428250264951
 31
0.0
  0
ARC
  5
1DD1
  8
OUTLINE
 10
1933.5143715286331
 20
1262.1428250264951
 30
0.0
 40
5.0
 50
90.0
 51
180.0
  0
ARC
  5
1DD2
  8
OUTLINE
 10
3048.5143715286331
 20
1262.1428250264951
 30
0.0
 40
5.0
 50
0.0
 51
90.0
  0
LINE
  5
1E2C
  8
OUTLINE
 10
1928.5143715286331
 20
1262.1428250264951
 30
0.0
 11
1928.5143715286331
 21
1252.1428250264951
 31
0.0
  0
LINE
  5
1E2D
  8
OUTLINE
 10
3053.5143715286331
 20
1262.1428250264951
 30
0.0
 11
3053.5143715286331
 21
1252.1428250264951
 31
0.0
  0
LINE
  5
208E
  8
OUTLINE
 10
5450.5972933150997
 20
3220.1247307831122
 30
0.0
 11
5434.2074365185554
 21
3220.1247307831122
 31
0.0
  0
TEXT
  5
2093
  8
OVERLAY-A3
 10
3261.578438522592
 20
2839.794862905132
 30
0.0
 40
45.0
  1
398 CTRS
 50
90.0
  0
TEXT
  5
20AD
  8
OVERLAY-A3
 10
2332.5143715286331
 20
1323.3894707439281
 30
0.0
 40
45.0
  1
1125 O/A
  0
TEXT
  5
20B2
  8
OVERLAY-A3
 10
2314.2143715286329
 20
214.9776067537058
 30
0.0
 40
45.0
  1
753 CTRS
  0
LINE
  5
21E1
  8
OUTLINE
 10
1928.5143715286331
 20
2891.1247307831168
 30
0.0
 11
2009.5143715286331
 21
2810.1247307831168
 31
0.0
  0
LINE
  5
21E2
  8
OUTLINE
 10
3053.5143715286331
 20
2891.1247307831168
 30
0.0
 11
2972.5143715286331
 21
2810.1247307831168
 31
0.0
  0
LINE
  5
25CB
  8
OUTLINE
 10
2075.0143715286331
 20
1267.1428250264951
 30
0.0
 11
2155.0143715286331
 21
1267.1428250264951
 31
0.0
  0
CIRCLE
  5
25D9
  8
OUTLINE
 10
2332.8321061098068
 20
801.34282502649523
 30
0.0
 40
280.0
  0
ENDSEC
  0
EOF
