  0
SECTION
  2
HEADER
  9
$ACADVER
  1
AC1009
  9
$INSBASE
 10
0.0
 20
0.0
 30
0.0
  9
$EXTMIN
 10
1575.6826981712179
 20
-148.0833866795856
 30
-0.0000000000112498
  9
$EXTMAX
 10
6203.1302042667894
 20
3481.563169012059
 30
0.0000000000002956
  9
$LIMMIN
 10
0.0
 20
0.0
  9
$LIMMAX
 10
7780.0
 20
5320.0
  9
$ORTHOMODE
 70
     1
  9
$REGENMODE
 70
     1
  9
$FILLMODE
 70
     1
  9
$QTEXTMODE
 70
     0
  9
$MIRRTEXT
 70
     0
  9
$DRAGMODE
 70
     2
  9
$LTSCALE
 40
100.0
  9
$OSMODE
 70
  3071
  9
$ATTMODE
 70
     1
  9
$TEXTSIZE
 40
45.0
  9
$TRACEWID
 40
0.05
  9
$TEXTSTYLE
  7
TITLE3
  9
$CLAYER
  8
OUTLINE
  9
$CELTYPE
  6
BYLAYER
  9
$CECOLOR
 62
   256
  9
$DIMSCALE
 40
1.0
  9
$DIMASZ
 40
0.12
  9
$DIMEXO
 40
0.05
  9
$DIMDLI
 40
0.5
  9
$DIMRND
 40
0.0
  9
$DIMDLE
 40
0.0
  9
$DIMEXE
 40
0.1
  9
$DIMTP
 40
0.1
  9
$DIMTM
 40
0.1
  9
$DIMTXT
 40
0.12
  9
$DIMCEN
 40
0.0
  9
$DIMTSZ
 40
0.0
  9
$DIMTOL
 70
     0
  9
$DIMLIM
 70
     0
  9
$DIMTIH
 70
     1
  9
$DIMTOH
 70
     1
  9
$DIMSE1
 70
     0
  9
$DIMSE2
 70
     0
  9
$DIMTAD
 70
     0
  9
$DIMZIN
 70
     7
  9
$DIMBLK
  1

  9
$DIMASO
 70
     0
  9
$DIMSHO
 70
     0
  9
$DIMPOST
  1

  9
$DIMAPOST
  1
mm
  9
$DIMALT
 70
     0
  9
$DIMALTD
 70
     2
  9
$DIMALTF
 40
25.399999999999999
  9
$DIMLFAC
 40
1.0
  9
$DIMTOFL
 70
     0
  9
$DIMTVP
 40
0.0
  9
$DIMTIX
 70
     0
  9
$DIMSOXD
 70
     0
  9
$DIMSAH
 70
     0
  9
$DIMBLK1
  1

  9
$DIMBLK2
  1

  9
$DIMSTYLE
  2
AM_ANSI
  9
$DIMCLRD
 70
   256
  9
$DIMCLRE
 70
   256
  9
$DIMCLRT
 70
     2
  9
$DIMTFAC
 40
0.71
  9
$DIMGAP
 40
0.06
  9
$LUNITS
 70
     2
  9
$LUPREC
 70
     2
  9
$SKETCHINC
 40
0.1
  9
$FILLETRAD
 40
0.0
  9
$AUNITS
 70
     0
  9
$AUPREC
 70
     2
  9
$MENU
  1
\acad12\support\cnc
  9
$ELEVATION
 40
0.0
  9
$PELEVATION
 40
0.0
  9
$THICKNESS
 40
0.0
  9
$LIMCHECK
 70
     0
  9
$BLIPMODE
 70
     0
  9
$CHAMFERA
 40
0.0
  9
$CHAMFERB
 40
0.0
  9
$SKPOLY
 70
     0
  9
$TDCREATE
 40
2451402.6391548612
  9
$TDUPDATE
 40
2457155.6717711459
  9
$TDINDWG
 40
0.5544499884
  9
$TDUSRTIMER
 40
0.5544418056
  9
$USRTIMER
 70
     1
  9
$ANGBASE
 50
0.0
  9
$ANGDIR
 70
     0
  9
$PDMODE
 70
     2
  9
$PDSIZE
 40
15.0
  9
$PLINEWID
 40
0.0
  9
$COORDS
 70
     1
  9
$SPLFRAME
 70
     0
  9
$SPLINETYPE
 70
     6
  9
$SPLINESEGS
 70
     8
  9
$ATTDIA
 70
     1
  9
$ATTREQ
 70
     1
  9
$HANDLING
 70
     1
  9
$HANDSEED
  5
263B
  9
$SURFTAB1
 70
     6
  9
$SURFTAB2
 70
     6
  9
$SURFTYPE
 70
     6
  9
$SURFU
 70
     6
  9
$SURFV
 70
     6
  9
$UCSNAME
  2

  9
$UCSORG
 10
0.0
 20
0.0
 30
0.0
  9
$UCSXDIR
 10
1.0
 20
0.0
 30
0.0
  9
$UCSYDIR
 10
0.0
 20
1.0
 30
0.0
  9
$PUCSNAME
  2

  9
$PUCSORG
 10
0.0
 20
0.0
 30
0.0
  9
$PUCSXDIR
 10
1.0
 20
0.0
 30
0.0
  9
$PUCSYDIR
 10
0.0
 20
1.0
 30
0.0
  9
$USERI1
 70
     0
  9
$USERI2
 70
     0
  9
$USERI3
 70
     0
  9
$USERI4
 70
     0
  9
$USERI5
 70
     0
  9
$USERR1
 40
0.0
  9
$USERR2
 40
0.0
  9
$USERR3
 40
0.0
  9
$USERR4
 40
0.0
  9
$USERR5
 40
0.0
  9
$WORLDVIEW
 70
     1
  9
$SHADEDGE
 70
     3
  9
$SHADEDIF
 70
    70
  9
$TILEMODE
 70
     1
  9
$MAXACTVP
 70
    16
  9
$PLIMCHECK
 70
     0
  9
$PEXTMIN
 10
1.0000000000000000E+020
 20
1.0000000000000000E+020
 30
1.0000000000000000E+020
  9
$PEXTMAX
 10
-1.0000000000000000E+020
 20
-1.0000000000000000E+020
 30
-1.0000000000000000E+020
  9
$PLIMMIN
 10
0.0
 20
0.0
  9
$PLIMMAX
 10
12.0
 20
9.0
  9
$UNITMODE
 70
     0
  9
$VISRETAIN
 70
     0
  9
$PLINEGEN
 70
     0
  9
$PSLTSCALE
 70
     0
  0
ENDSEC
  0
SECTION
  2
TABLES
  0
TABLE
  2
VPORT
 70
     1
  0
VPORT
  2
*ACTIVE
 70
     0
 10
0.0
 20
0.0
 11
1.0
 21
1.0
 12
3889.4064512190039
 22
1666.7398911662369
 13
0.0
 23
0.0
 14
50.0
 24
50.0
 15
100.0
 25
100.0
 16
0.0
 26
0.0
 36
1.0
 17
0.0
 27
0.0
 37
0.0
 40
3653.8711155739029
 41
2.0467706013363021
 42
50.0
 43
0.0
 44
0.0
 50
0.0
 51
0.0
 71
     0
 72
   100
 73
     1
 74
     0
 75
     0
 76
     0
 77
     0
 78
     0
  0
ENDTAB
  0
TABLE
  2
LTYPE
 70
    21
  0
LTYPE
  2
CONTINUOUS
 70
     0
  3
Solid line
 72
    65
 73
     0
 40
0.0
  0
LTYPE
  2
PHANTOM2
 70
     0
  3
Phantom (.5x) ___ _ _ ___ _ _ ___ _ _ ___ _ _
 72
    65
 73
     6
 40
1.25
 49
0.625
 49
-0.125
 49
0.125
 49
-0.125
 49
0.125
 49
-0.125
  0
LTYPE
  2
PHANTOM
 70
     0
  3
______  __  __  ______  __  __  ______  __  __ 
 72
    65
 73
     6
 40
2.5
 49
1.25
 49
-0.25
 49
0.25
 49
-0.25
 49
0.25
 49
-0.25
  0
LTYPE
  2
HIDDEN
 70
     0
  3
Hidden __ __ __ __ __ __ __ __ __ __ __ __ __ _
 72
    65
 73
     2
 40
0.375
 49
0.25
 49
-0.125
  0
LTYPE
  2
CENTER
 70
     0
  3
Center ____ _ ____ _ ____ _ ____ _ ____ _ ____
 72
    65
 73
     4
 40
2.0
 49
1.25
 49
-0.25
 49
0.25
 49
-0.25
  0
LTYPE
  2
AM_ISO02W050
 70
     0
  3
__ __ __ __ __ __ __ __ __ __ __ __ __ __ __
 72
    65
 73
     2
 40
7.5
 49
6.0
 49
-1.5
  0
LTYPE
  2
AM_ISO08W050
 70
     0
  3
____ . ____ . ____ . ____ . ____ . ____ . ____
 72
    65
 73
     4
 40
18.0
 49
12.0
 49
-1.5
 49
3.0
 49
-1.5
  0
LTYPE
  2
AM_ISO09W050
 70
     0
  3
_____ . . _____ . . _____ . . ____ .. ____
 72
    65
 73
     6
 40
22.5
 49
12.0
 49
-1.5
 49
3.0
 49
-1.5
 49
3.0
 49
-1.5
  0
LTYPE
  2
AMCONSTR
 70
     0
  3
_______________________
 72
    65
 73
     2
 40
9999.0
 49
9999.0
 49
0.0
  0
LTYPE
  2
AM_ISO08W050X2
 70
     0
  3
__ . __ . __ . __ . __ . __
 72
    65
 73
     4
 40
9.0
 49
6.0
 49
-0.75
 49
1.5
 49
-0.75
  0
LTYPE
  2
AM_ISO02W050X2
 70
     0
  3
 _ _ _ _ _ _ _ _ _ _ _ _
 72
    65
 73
     2
 40
3.75
 49
3.0
 49
-0.75
  0
LTYPE
  2
AMZIGZAG
 70
     0
  3
/\/-/\/-/\/-/\/-/\/-/\/
 72
    65
 73
     2
 40
11.0001
 49
0.0001
 49
-11.0
  0
LTYPE
  2
CENTER2
 70
     0
  3
Center (.5x) ___ _ ___ _ ___ _ ___ _ ___ _ ___
 72
    65
 73
     4
 40
1.125
 49
0.75
 49
-0.125
 49
0.125
 49
-0.125
  0
LTYPE
  2
HIDDEN2
 70
     0
  3
Hidden (.5x) _ _ _ _ _ _ _ _ _ _ _ _ _ _ _ _ _
 72
    65
 73
     2
 40
0.1875
 49
0.125
 49
-0.0625
  0
LTYPE
  2
AMZIGZAG2
 70
     0
  3
/\/-/\/-/\/-/\/-/\/-/\/
 72
    65
 73
     2
 40
0.4401
 49
0.0001
 49
-0.4400000000000003
  0
LTYPE
  2
ACANSTGB
 70
     0
  3
__ . . __ . .
 72
    65
 73
     6
 40
0.35433070866
 49
0.15748031496
 49
-0.03937007874
 49
0.03937007874
 49
-0.03937007874
 49
0.03937007874
 49
-0.03937007874
  0
LTYPE
  2
ACANSTGL
 70
     0
  3
_ _ _ _ _
 72
    65
 73
     2
 40
0.11811023622
 49
0.07874015748
 49
-0.03937007874
  0
LTYPE
  2
DASHED
 70
     0
  3
Dashed __ __ __ __ __ __ __ __ __ __ __ __ __ _
 72
    65
 73
     2
 40
0.75
 49
0.5
 49
-0.25
  0
LTYPE
  2
DOT
 70
     0
  3
Dot . . . . . . . . . . . . . . . . . . . . . .
 72
    65
 73
     2
 40
0.25
 49
0.0
 49
-0.25
  0
ENDTAB
  0
TABLE
  2
LAYER
 70
     7
  0
LAYER
  2
0
 70
     0
 62
     7
  6
CONTINUOUS
  0
LAYER
  2
OUTLINE
 70
     0
 62
     7
  6
CONTINUOUS
  0
LAYER
  2
TEXT
 70
     0
 62
   100
  6
CONTINUOUS
  0
LAYER
  2
DIM
 70
     0
 62
     2
  6
CONTINUOUS
  0
LAYER
  2
MTG-FEET
 70
     0
 62
    30
  6
CONTINUOUS
  0
LAYER
  2
OVERLAY-A3
 70
     0
 62
     7
  6
CONTINUOUS
  0
LAYER
  2
CLEAR
 70
     0
 62
     1
  6
PHANTOM
  0
ENDTAB
  0
TABLE
  2
STYLE
 70
     8
  0
STYLE
  2
STANDARD
 70
     0
 40
0.0
 41
1.0
 50
0.0
 71
     0
 42
0.2
  3
txt
  4

  0
STYLE
  2
ANNOTATIVE
 70
     0
 40
0.0
 41
1.0
 50
0.0
 71
     0
 42
0.2
  3
txt
  4

  0
STYLE
  2
TITLE3
 70
     0
 40
45.0
 41
1.0
 50
0.0
 71
     0
 42
45.0
  3
SIMPLEX
  4

  0
STYLE
  2
TITLE5
 70
     0
 40
75.0
 41
1.0
 50
0.0
 71
     0
 42
100.0
  3
SIMPLEX
  4

  0
STYLE
  2
SIMPLEX
 70
     0
 40
60.0
 41
1.0
 50
0.0
 71
     0
 42
60.0
  3
simplex
  4

  0
STYLE
  2

 70
     1
 40
0.0
 41
1.0
 50
0.0
 71
     0
 42
45.0
  3
genltshp.shx
  4

  0
STYLE
  2
ACANSTS
 70
     0
 40
1.0
 41
1.0
 50
0.0
 71
     0
 42
45.0
  3
romans.shx
  4

  0
STYLE
  2
ACANSGDT
 70
     0
 40
0.0
 41
1.0
 50
0.0
 71
     0
 42
45.0
  3
amgdt.shx
  4

  0
ENDTAB
  0
TABLE
  2
VIEW
 70
     0
  0
ENDTAB
  0
TABLE
  2
UCS
 70
     0
  0
ENDTAB
  0
TABLE
  2
APPID
 70
    15
  0
APPID
  2
ACAD
 70
     0
  0
APPID
  2
ACADANNOTATIVE
 70
     0
  0
APPID
  2
ACAD_MLEADERVER
 70
     0
  0
APPID
  2
ACAD_PSEXT
 70
     0
  0
APPID
  2
MCAD_NO_VIS
 70
     0
  0
APPID
  2
ACAD_TEMP_GRAPHIC
 70
     0
  0
APPID
  2
AD_DRAW
 70
     0
  0
APPID
  2
ACATTRIBSERVICES
 70
     0
  0
APPID
  2
DESIGNERASSEMBLIES
 70
     0
  0
APPID
  2
ACADM_DIM_EDIT
 70
     0
  0
APPID
  2
AMDT_DM_ADJ
 70
     0
  0
APPID
  2
ACAD_EXEMPT_FROM_CAD_STANDARDS
 70
     0
  0
APPID
  2
ACAD_NAV_VCDISPLAY
 70
     0
  0
APPID
  2
ACAD_DSTYLE_DIMBREAK
 70
     0
  0
APPID
  2
ACAD_DSTYLE_DIMJAG
 70
     0
  0
ENDTAB
  0
TABLE
  2
DIMSTYLE
 70
     9
  0
DIMSTYLE
  2
STANDARD
 70
     0
  3

  4

  5

  6

  7

 40
1.0
 41
0.18
 42
0.0625
 43
0.38
 44
0.18
 45
0.0
 46
0.0
 47
0.0
 48
0.0
140
0.18
141
0.09
142
0.0
143
25.399999999999999
144
1.0
145
0.0
146
1.0
147
0.09
 71
     0
 72
     0
 73
     1
 74
     1
 75
     0
 76
     0
 77
     0
 78
     0
170
     0
171
     2
172
     0
173
     0
174
     0
175
     0
176
     0
177
     0
178
     0
  0
DIMSTYLE
  2
ANNOTATIVE
 70
     0
  3

  4

  5

  6

  7

 40
1.0
 41
0.18
 42
0.0625
 43
0.38
 44
0.18
 45
0.0
 46
0.0
 47
0.0
 48
0.0
140
0.18
141
0.09
142
0.0
143
25.399999999999999
144
1.0
145
0.0
146
1.0
147
0.09
 71
     0
 72
     0
 73
     1
 74
     1
 75
     0
 76
     0
 77
     0
 78
     0
170
     0
171
     2
172
     0
173
     0
174
     0
175
     0
176
     0
177
     0
178
     0
  0
DIMSTYLE
  2
AM_ANSI
 70
     0
  3

  4
mm
  5

  6

  7

 40
1.0
 41
0.12
 42
0.05
 43
0.5
 44
0.1
 45
0.0
 46
0.0
 47
0.1
 48
0.1
140
0.12
141
0.0
142
0.0
143
25.399999999999999
144
1.0
145
0.0
146
0.71
147
0.06
 71
     0
 72
     0
 73
     1
 74
     1
 75
     0
 76
     0
 77
     0
 78
     7
170
     0
171
     2
172
     0
173
     0
174
     0
175
     0
176
   256
177
   256
178
     2
  0
DIMSTYLE
  2
AM_ANSI$3
 70
     0
  3

  4
mm
  5

  6

  7

 40
1.0
 41
0.12
 42
0.05
 43
0.5
 44
0.1
 45
0.0
 46
0.0
 47
0.1
 48
0.1
140
0.12
141
0.0
142
0.0
143
25.399999999999999
144
1.0
145
0.0
146
0.71
147
0.06
 71
     0
 72
     0
 73
     1
 74
     1
 75
     0
 76
     0
 77
     0
 78
     7
170
     0
171
     2
172
     0
173
     0
174
     0
175
     0
176
   256
177
   256
178
     2
  0
DIMSTYLE
  2
AM_ANSI$4
 70
     0
  3

  4
mm
  5

  6

  7

 40
1.0
 41
0.12
 42
0.05
 43
0.5
 44
0.1
 45
0.0
 46
0.0
 47
0.1
 48
0.1
140
0.12
141
0.0
142
0.0
143
25.399999999999999
144
1.0
145
0.0
146
0.71
147
0.06
 71
     0
 72
     0
 73
     1
 74
     1
 75
     0
 76
     0
 77
     0
 78
     7
170
     0
171
     2
172
     0
173
     0
174
     0
175
     0
176
   256
177
   256
178
     2
  0
DIMSTYLE
  2
AM_ANSI$7
 70
     0
  3

  4
mm
  5

  6

  7

 40
1.0
 41
0.12
 42
0.05
 43
0.5
 44
0.1
 45
0.0
 46
0.0
 47
0.1
 48
0.1
140
0.12
141
0.0
142
0.0
143
25.399999999999999
144
1.0
145
0.0
146
0.71
147
0.06
 71
     0
 72
     0
 73
     1
 74
     1
 75
     0
 76
     0
 77
     0
 78
     7
170
     0
171
     2
172
     0
173
     0
174
     0
175
     0
176
   256
177
   256
178
     2
  0
DIMSTYLE
  2
AM_ANSI$SF
 70
     0
  3

  4
mm
  5

  6

  7

 40
1.0
 41
0.12
 42
0.05
 43
0.5
 44
0.1
 45
0.0
 46
0.0
 47
0.1
 48
0.1
140
0.12
141
0.0
142
0.0
143
25.399999999999999
144
1.0
145
0.0
146
0.71
147
0.06
 71
     0
 72
     0
 73
     1
 74
     1
 75
     1
 76
     1
 77
     0
 78
     7
170
     0
171
     2
172
     0
173
     0
174
     0
175
     0
176
   256
177
   256
178
     2
  0
DIMSTYLE
  2
AM_ANSI$SH
 70
     0
  3

  4
mm
  5

  6

  7

 40
1.0
 41
0.12
 42
0.05
 43
0.5
 44
0.1
 45
0.0
 46
0.0
 47
0.1
 48
0.1
140
0.12
141
0.0
142
0.0
143
25.399999999999999
144
1.0
145
0.0
146
0.71
147
0.06
 71
     0
 72
     0
 73
     1
 74
     1
 75
     1
 76
     1
 77
     0
 78
     7
170
     0
171
     2
172
     0
173
     1
174
     0
175
     0
176
   256
177
   256
178
     2
  0
ENDTAB
  0
ENDSEC
  0
SECTION
  2
BLOCKS
  0
BLOCK
  8
0
  2
$MODEL_SPACE
 70
     0
 10
0.0
 20
0.0
 30
0.0
  3
$MODEL_SPACE
  1

  0
ENDBLK
  5
2365
  8
0
  0
BLOCK
 67
     1
  8
0
  2
$PAPER_SPACE
 70
     0
 10
0.0
 20
0.0
 30
0.0
  3
$PAPER_SPACE
  1

  0
ENDBLK
  5
2361
 67
     1
  8
0
  0
BLOCK
  8
0
  2
LINES
 70
     0
 10
0.0
 20
0.0
 30
0.0
  3
LINES
  1

  0
ENDBLK
  5
F67
  8
0
  0
BLOCK
  8
0
  2
NEW_BLOCK
 70
     0
 10
0.0
 20
0.0
 30
0.0
  3
NEW_BLOCK
  1

  0
TEXT
  5
F6A
  8
TEXT
 10
27.285946821803002
 20
25.27142175952417
 30
0.0
 40
40.0
  1
available on request
  7
TITLE3
  0
TEXT
  5
F6B
  8
TEXT
 10
27.285946821803002
 20
93.842850330952714
 30
0.0
 40
40.0
  1
Certified dimensions
  7
TITLE3
  0
TEXT
  5
F6C
  8
TEXT
 10
27.285946821803002
 20
162.4142789023812
 30
0.0
 40
40.0
  1
without notice or obligation.
  7
TITLE3
  0
TEXT
  5
F6D
  8
TEXT
 10
27.285946821803002
 20
230.9857074738097
 30
0.0
 40
40.0
  1
specifications at any time
  7
TITLE3
  0
TEXT
  5
F6E
  8
TEXT
 10
27.285946821803002
 20
299.55713604523839
 30
0.0
 40
40.0
  1
the right to change 
  7
TITLE3
  0
TEXT
  5
F6F
  8
TEXT
 10
27.285946821803002
 20
436.69999318809488
 30
0.0
 40
40.0
  1
NOTE
  7
TITLE3
  0
TEXT
  5
F70
  8
TEXT
 10
27.285946821803002
 20
368.12856461666678
 30
0.0
 40
40.0
  1
The manufacturer reserves
  7
TITLE3
  0
ENDBLK
  5
F71
  8
0
  0
BLOCK
  8
0
  2
GENAXEH
 70
     0
 10
0.0
 20
0.0
 30
0.0
  3
GENAXEH
  1

  0
LINE
  5
11EC
  8
0
 10
-1.0
 20
0.0
 30
0.0
 11
1.0
 21
0.0
 31
0.0
  0
ENDBLK
  5
11EE
  8
0
  0
BLOCK
  8
0
  2
*U5
 70
     1
 10
0.0
 20
0.0
 30
0.0
  3
*U5
  1

  0
TEXT
  5
1550
  8
TEXT
 10
2626.728253300982
 20
705.96161876651979
 30
0.0
 40
60.0
  1
OSA 175
  7
TITLE5
  0
TEXT
  5
1551
  8
TEXT
 10
2678.1568247295531
 20
605.96161876651979
 30
0.0
 40
60.0
  1
RKTHG
  7
TITLE5
  0
ENDBLK
  5
1553
  8
0
  0
BLOCK
  8
0
  2
*U6
 70
     1
 10
0.0
 20
0.0
 30
0.0
  3
*U6
  1

  0
TEXT
  5
1555
  8
TEXT
 10
2158.699581695857
 20
4047.9584319483888
 30
0.0
 40
60.0
  1
OSA 175RKTHG
  7
TITLE5
  0
ENDBLK
  5
1557
  8
0
  0
BLOCK
  8
0
  2
*U7
 70
     1
 10
0.0
 20
0.0
 30
0.0
  3
*U7
  1

  0
TEXT
  5
1867
  8
OVERLAY-A3
 10
4236.5413026078313
 20
4150.0630656892281
 30
0.0
 40
45.0
  1
389
 50
90.0
  0
ENDBLK
  5
1869
  8
0
  0
BLOCK
  8
0
  2
*U8
 70
     1
 10
0.0
 20
0.0
 30
0.0
  3
*U8
  1

  0
TEXT
  5
186B
  8
OVERLAY-A3
 10
5609.6572296216964
 20
4060.5630656892272
 30
0.0
 40
45.0
  1
422 O/A
 50
90.0
  0
ENDBLK
  5
186D
  8
0
  0
BLOCK
  8
0
  2
*U9
 70
     1
 10
0.0
 20
0.0
 30
0.0
  3
*U9
  1

  0
TEXT
  5
186F
  8
OVERLAY-A3
 10
5363.7440490226281
 20
4532.892957384247
 30
0.0
 40
45.0
  1
17
 50
90.0
  0
ENDBLK
  5
1871
  8
0
  0
BLOCK
  8
0
  2
*U10
 70
     1
 10
0.0
 20
0.0
 30
0.0
  3
*U10
  1

  0
TEXT
  5
1873
  8
OVERLAY-A3
 10
1820.676681088564
 20
597.64282502649564
 30
0.0
 40
45.0
  1
1119 O/A
 50
90.0
  0
ENDBLK
  5
1875
  8
0
  0
BLOCK
  8
0
  2
*U11
 70
     1
 10
0.0
 20
0.0
 30
0.0
  3
*U11
  1

  0
TEXT
  5
1877
  8
OVERLAY-A3
 10
1967.864371528633
 20
100.7515184167496
 30
0.0
 40
45.0
  1
180
  0
ENDBLK
  5
1879
  8
0
  0
BLOCK
  8
0
  2
*U12
 70
     1
 10
0.0
 20
0.0
 30
0.0
  3
*U12
  1

  0
TEXT
  5
187B
  8
OVERLAY-A3
 10
2316.7143715286329
 20
100.7515184167496
 30
0.0
 40
45.0
  1
765 CTRS
  0
ENDBLK
  5
187D
  8
0
  0
BLOCK
  8
0
  2
*U13
 70
     1
 10
0.0
 20
0.0
 30
0.0
  3
*U13
  1

  0
TEXT
  5
187F
  8
OVERLAY-A3
 10
2332.5143715286331
 20
1354.8076330213951
 30
0.0
 40
45.0
  1
1127 O/A
  0
ENDBLK
  5
1881
  8
0
  0
BLOCK
  8
0
  2
*U14
 70
     1
 10
0.0
 20
0.0
 30
0.0
  3
*U14
  1

  0
TEXT
  5
1883
  8
OVERLAY-A3
 10
3261.578438522592
 20
4035.0630656892281
 30
0.0
 40
45.0
  1
375 CTRS
 50
90.0
  0
ENDBLK
  5
1885
  8
0
  0
BLOCK
  8
0
  2
*U15
 70
     1
 10
0.0
 20
0.0
 30
0.0
  3
*U15
  1

  0
TEXT
  5
1887
  8
OVERLAY-A3
 10
5545.0379560977772
 20
3752.0630656892299
 30
0.0
 40
45.0
  1
20.5
 50
90.0
  0
ENDBLK
  5
1889
  8
0
  0
ENDSEC
  0
SECTION
  2
ENTITIES
  0
LINE
  5
F73
  8
OUTLINE
 10
2100.0143715286331
 20
303.14282502649542
 30
0.0
 11
2180.0143715286331
 21
303.14282502649542
 31
0.0
  0
LINE
  5
F76
  8
OUTLINE
 10
1930.0143715286331
 20
1673.142825026496
 30
0.0
 11
1930.0143715286331
 21
335.44282502649543
 31
0.0
  0
TEXT
  5
F78
  8
TEXT
 10
4640.7698882569712
 20
259.2742466930232
 30
0.0
 40
75.0
  1
temperzone OSA 224RKTGH/FH
 41
0.8151508127178798
  7
TITLE5
 72
     5
 11
6108.0413511491552
 21
259.2742466930232
 31
0.0
  0
TEXT
  5
F79
  8
TEXT
 10
5535.1145011680301
 20
-41.001320039896591
 30
0.0
 40
40.499999999999993
  1
OSA224RKTGH/FH
 41
0.722419928825623
  7
TITLE3
 72
     5
 11
5926.6145011680301
 21
-41.001320039896591
 31
0.0
  0
INSERT
  5
FCE
  8
MTG-FEET
  2
LINES
 10
637.42319439946073
 20
2246.7294005091198
 30
0.0
  0
TEXT
  5
FDF
  8
TEXT
 10
4813.4812302888677
 20
17.0
 30
0.0
 40
45.0
  1
12-05-15
 41
0.7088607594936656
  7
TITLE3
 72
     5
 11
5053.4812302888658
 21
17.0
 31
0.0
  0
TEXT
  5
FE0
  8
OVERLAY-A3
 10
4640.2527955588921
 20
18.246820790151421
 30
0.0
 40
36.0
  1
Date
  7
SIMPLEX
  0
TEXT
  5
FE1
  8
OVERLAY-A3
 10
5987.0742496774192
 20
46.254953035116813
 30
0.0
 40
36.0
  1
Revision
 41
0.7812095035934883
  7
SIMPLEX
 72
     5
 11
6145.1017721186181
 21
46.254953035116813
 31
0.0
  0
LINE
  5
FE2
  8
OVERLAY-A3
 10
5969.6444861022574
 20
-116.7362607275243
 30
0.0
 11
5969.6444861022574
 21
104.40298356282
 31
0.0
  0
LINE
  5
FE3
  8
OVERLAY-A3
 10
4596.934755302741
 20
357.82662824683229
 30
0.0
 11
4596.934755302741
 21
-116.7362607275243
 31
0.0
  0
LINE
  5
FE4
  8
OVERLAY-A3
 10
5493.2779781366589
 20
-116.7362607275243
 30
0.0
 11
5493.2779781366589
 21
104.40298356282
 31
0.0
  0
LINE
  5
FE5
  8
OVERLAY-A3
 10
5493.2779781366562
 20
-8.0311010958044982
 30
0.0
 11
4596.934755302741
 21
-8.0311010958044982
 31
0.0
  0
LINE
  5
FE6
  8
OVERLAY-A3
 10
6160.2706589737818
 20
104.40298356282
 30
0.0
 11
4596.934755302741
 21
104.40298356282
 31
0.0
  0
LINE
  5
FE7
  8
OVERLAY-A3
 10
4596.934755302741
 20
-116.7362607275243
 30
0.0
 11
6159.824398206254
 21
-116.7362607275243
 31
0.0
  0
LINE
  5
FE8
  8
OVERLAY-A3
 10
6159.824398206254
 20
-116.7362607275243
 30
0.0
 11
6159.824398206254
 21
357.82662824683229
 31
0.0
  0
LINE
  5
FE9
  8
OVERLAY-A3
 10
6159.824398206254
 20
357.82662824683229
 30
0.0
 11
4596.934755302741
 21
357.82662824683229
 31
0.0
  0
TEXT
  5
FEA
  8
OVERLAY-A3
 10
4634.6322897716809
 20
-76.116267901963454
 30
0.0
 40
30.0
  1
Scale
 41
1.3701747965660029
  7
SIMPLEX
 72
     5
 11
4785.3515173939413
 21
-76.116267901963454
 31
0.0
  0
TEXT
  5
FEB
  8
OVERLAY-A3
 10
5580.196146518213
 20
45.340147260064313
 30
0.0
 40
30.0
  1
Drawing No.
  7
SIMPLEX
 72
     2
 11
5841.6247179467846
 21
45.340147260064313
 31
0.0
  0
LINE
  5
FEC
  8
OVERLAY-A3
 10
1576.1105239390611
 20
-148.0
 30
0.0
 11
6202.9074611170181
 21
-148.0
 31
0.0
  0
LINE
  5
FED
  8
OVERLAY-A3
 10
6202.9074611170181
 20
-148.0
 30
0.0
 11
6202.9074611170154
 21
3477.5393139767311
 31
0.0
  0
LINE
  5
FEE
  8
OVERLAY-A3
 10
6202.9074611170154
 20
3477.5393139767311
 30
0.0
 11
1576.1105239390611
 21
3481.5393139767302
 31
0.0
  0
LINE
  5
FEF
  8
OVERLAY-A3
 10
1576.1105239390611
 20
3481.5393139767302
 30
0.0
 11
1576.1105239390611
 21
-148.0
 31
0.0
  0
TEXT
  5
FF0
  8
TEXT
 10
4867.0507665719779
 20
-73.789942976643061
 30
0.0
 40
45.0
  1
1:20
  7
TITLE3
  0
TEXT
  5
10A0
  8
TEXT
 10
5483.7656345958276
 20
408.56898589035478
 30
0.0
 40
28.0
  1
available on request
  7
TITLE3
  0
TEXT
  5
10A1
  8
TEXT
 10
5483.7656345958276
 20
456.56898589035478
 30
0.0
 40
28.0
  1
Certified dimensions
  7
TITLE3
  0
TEXT
  5
10A2
  8
TEXT
 10
5483.7656345958276
 20
504.5689858903545
 30
0.0
 40
28.0
  1
without notice or obligation.
  7
TITLE3
  0
TEXT
  5
10A3
  8
TEXT
 10
5483.7656345958276
 20
552.56898589035472
 30
0.0
 40
28.0
  1
specifications at any time
  7
TITLE3
  0
TEXT
  5
10A4
  8
TEXT
 10
5483.7656345958276
 20
600.56898589035472
 30
0.0
 40
28.0
  1
the right to change 
  7
TITLE3
  0
TEXT
  5
10A5
  8
TEXT
 10
5483.7656345958276
 20
696.56898589035472
 30
0.0
 40
28.0
  1
NOTE
  7
TITLE3
  0
TEXT
  5
10A6
  8
TEXT
 10
5483.7656345958276
 20
648.56898589035472
 30
0.0
 40
28.0
  1
The manufacturer reserves
  7
TITLE3
  0
LINE
  5
1384
  8
OUTLINE
 10
3287.0143715286331
 20
1673.142825026496
 30
0.0
 11
3287.0143715286331
 21
335.4428250264952
 31
0.0
  0
LINE
  5
1387
  8
OUTLINE
 10
1933.5143715286331
 20
1688.142825026496
 30
0.0
 11
3283.5143715286331
 21
1688.142825026496
 31
0.0
  0
LINE
  5
1388
  8
OUTLINE
 10
1930.0143715286331
 20
335.44282502649543
 30
0.0
 11
3287.0143715286331
 21
335.4428250264952
 31
0.0
  0
LINE
  5
1389
  8
OUTLINE
 10
2140.0143715286331
 20
313.14282502649519
 30
0.0
 11
2140.0143715286331
 21
293.1428250264953
 31
0.0
  0
LINE
  5
1393
  8
OUTLINE
 10
2180.0143715286331
 20
303.14282502649542
 30
0.0
 11
2212.3143715286319
 21
335.44282502649543
 31
0.0
  0
LINE
  5
1394
  8
OUTLINE
 10
2100.0143715286331
 20
303.14282502649542
 30
0.0
 11
2067.7143715286338
 21
335.44282502649543
 31
0.0
  0
LINE
  5
1396
  8
OUTLINE
 10
3036.0143715286331
 20
303.14282502649519
 30
0.0
 11
3116.0143715286331
 21
303.14282502649519
 31
0.0
  0
LINE
  5
1397
  8
OUTLINE
 10
3116.0143715286331
 20
303.14282502649519
 30
0.0
 11
3148.3143715286328
 21
335.4428250264952
 31
0.0
  0
LINE
  5
1398
  8
OUTLINE
 10
3036.0143715286331
 20
303.14282502649519
 30
0.0
 11
3003.7143715286329
 21
335.4428250264952
 31
0.0
  0
LINE
  5
139B
  8
OUTLINE
 10
3076.0143715286322
 20
313.14282502649502
 30
0.0
 11
3076.0143715286322
 21
293.14282502649507
 31
0.0
  0
TEXT
  5
13A8
  8
DIM
 10
2479.054371645454
 20
2646.983315174326
 30
0.0
 40
45.0
  1
FLOW
  7
SIMPLEX
  0
TEXT
  5
13A9
  8
DIM
 10
2513.8162731559191
 20
2717.8032765645121
 30
0.0
 40
45.0
  1
AIR
  7
SIMPLEX
  0
LINE
  5
13AA
  8
DIM
 10
2407.484922833265
 20
2684.0048817445459
 30
0.0
 11
2407.484922833265
 21
2745.7241730831311
 31
0.0
  0
LINE
  5
13AB
  8
DIM
 10
2434.7057012422351
 20
2684.0048817445459
 30
0.0
 11
2407.484922833265
 21
2684.0048817445459
 31
0.0
  0
LINE
  5
13AC
  8
DIM
 10
2394.824095666298
 20
2651.2461809571419
 30
0.0
 11
2434.7057012422351
 21
2684.0048817445459
 31
0.0
  0
LINE
  5
13AD
  8
DIM
 10
2382.1632684993351
 20
2745.7241730831311
 30
0.0
 11
2407.484922833265
 21
2745.7241730831311
 31
0.0
  0
LINE
  5
13AE
  8
DIM
 10
2382.1632684993351
 20
2684.0048817445459
 30
0.0
 11
2382.1632684993351
 21
2745.7241730831311
 31
0.0
  0
LINE
  5
13AF
  8
DIM
 10
2354.9424900903632
 20
2684.0048817445459
 30
0.0
 11
2382.1632684993351
 21
2684.0048817445459
 31
0.0
  0
LINE
  5
13B0
  8
DIM
 10
2394.824095666298
 20
2651.2461809571419
 30
0.0
 11
2354.9424900903632
 21
2684.0048817445459
 31
0.0
  0
TEXT
  5
13DD
  8
TEXT
 10
2713.1907528433221
 20
3374.152380662023
 30
0.0
 40
45.0
  1
150 min CLEARANCE
  7
TITLE3
  0
TEXT
  5
13DE
  8
TEXT
 10
2218.5460644208888
 20
2057.4993087726821
 30
0.0
 40
45.0
  1
800 min CLEARANCE
  7
TITLE3
  0
TEXT
  5
13DF
  8
TEXT
 10
1675.0258966143001
 20
2986.9933018242291
 30
0.0
 40
45.0
  1
150 min
 50
90.0
  7
TITLE3
  0
TEXT
  5
13E0
  8
TEXT
 10
1752.1687537571579
 20
2918.5242822778619
 30
0.0
 40
45.0
  1
CLEARANCE
 50
90.0
  7
TITLE3
  0
TEXT
  5
13E1
  8
TEXT
 10
4172.8869505180619
 20
2939.3430090111942
 30
0.0
 40
45.0
  1
1000 min
 50
90.0
  7
TITLE3
  0
TEXT
  5
13E2
  8
TEXT
 10
4250.0298076609188
 20
2888.6877733386132
 30
0.0
 40
45.0
  1
CLEARANCE
 50
90.0
  7
TITLE3
  0
LINE
  5
1413
  8
OUTLINE
 10
1928.5143715286331
 20
3203.124730783115
 30
0.0
 11
3288.5143715286331
 21
3203.124730783115
 31
0.0
  0
LINE
  5
1414
  8
OUTLINE
 10
1928.5143715286331
 20
3203.124730783115
 30
0.0
 11
1928.5143715286331
 21
2891.1247307831168
 31
0.0
  0
LINE
  5
1415
  8
OUTLINE
 10
3288.5143715286331
 20
3203.124730783115
 30
0.0
 11
3288.5143715286331
 21
2891.1247307831168
 31
0.0
  0
LINE
  5
1416
  8
OUTLINE
 10
2009.5143715286331
 20
2810.1247307831168
 30
0.0
 11
3207.5143715286331
 21
2810.1247307831168
 31
0.0
  0
LINE
  5
1417
  8
OUTLINE
 10
2100.0143715286331
 20
3220.1247307831122
 30
0.0
 11
2180.0143715286331
 21
3220.1247307831159
 31
0.0
  0
LINE
  5
141A
  8
OUTLINE
 10
2100.0143715286331
 20
2794.1247307831181
 30
0.0
 11
2180.0143715286331
 21
2794.1247307831181
 31
0.0
  0
POINT
  5
142C
  8
OUTLINE
 10
2140.0143715286331
 20
2813.6247307831159
 30
0.0
  0
POINT
  5
142E
  8
OUTLINE
 10
2140.0143715286331
 20
3212.1247307831131
 30
0.0
  0
POINT
  5
1437
  8
OUTLINE
 10
3076.0143715286322
 20
2813.6247307831159
 30
0.0
  0
POINT
  5
1438
  8
OUTLINE
 10
3076.0143715286322
 20
3212.1247307831131
 30
0.0
  0
LINE
  5
146E
  8
CLEAR
 10
1778.514371528634
 20
3353.124730783115
 30
0.0
 11
1778.5143715286349
 21
2810.1247307831168
 31
0.0
  0
LINE
  5
146F
  8
CLEAR
 10
1778.514371528634
 20
3353.124730783115
 30
0.0
 11
4288.5143715286322
 21
3353.124730783115
 31
0.0
  0
LINE
  5
1470
  8
CLEAR
 10
4288.5143715286322
 20
3353.124730783115
 30
0.0
 11
4288.5143715286322
 21
2810.1247307831168
 31
0.0
  0
LINE
  5
1471
  8
CLEAR
 10
1928.5143715286331
 20
2010.124730783117
 30
0.0
 11
3288.5143715286331
 21
2010.124730783117
 31
0.0
  0
LINE
  5
1472
  8
CLEAR
 10
1928.5143715286331
 20
2785.1247307831168
 30
0.0
 11
1928.5143715286331
 21
2010.124730783117
 31
0.0
  0
LINE
  5
1473
  8
CLEAR
 10
3288.5143715286331
 20
2785.1247307831168
 30
0.0
 11
3288.5143715286331
 21
2010.124730783117
 31
0.0
  0
LINE
  5
1474
  8
CLEAR
 10
3313.5143715286331
 20
2810.1247307831168
 30
0.0
 11
4288.5143715286322
 21
2810.1247307831168
 31
0.0
  0
LINE
  5
1475
  8
CLEAR
 10
1903.514371528634
 20
2810.1247307831168
 30
0.0
 11
1778.5143715286349
 21
2810.1247307831168
 31
0.0
  0
LINE
  5
151A
  8
OUTLINE
 10
2100.0143715286331
 20
2794.1247307831181
 30
0.0
 11
2084.0143715286331
 21
2810.1247307831168
 31
0.0
  0
LINE
  5
151B
  8
OUTLINE
 10
2180.0143715286331
 20
2794.1247307831181
 30
0.0
 11
2196.0143715286331
 21
2810.1247307831168
 31
0.0
  0
LINE
  5
151C
  8
OUTLINE
 10
2100.0143715286331
 20
3220.1247307831122
 30
0.0
 11
2083.0143715286322
 21
3203.124730783115
 31
0.0
  0
LINE
  5
151D
  8
OUTLINE
 10
2180.0143715286331
 20
3220.1247307831159
 30
0.0
 11
2197.0143715286331
 21
3203.1247307831168
 31
0.0
  0
LINE
  5
151E
  8
OUTLINE
 10
3036.0143715286331
 20
3220.1247307831122
 30
0.0
 11
3116.0143715286331
 21
3220.1247307831159
 31
0.0
  0
LINE
  5
151F
  8
OUTLINE
 10
3036.0143715286331
 20
2794.1247307831181
 30
0.0
 11
3116.0143715286331
 21
2794.1247307831181
 31
0.0
  0
LINE
  5
1520
  8
OUTLINE
 10
3036.0143715286331
 20
2794.1247307831181
 30
0.0
 11
3020.0143715286331
 21
2810.1247307831168
 31
0.0
  0
LINE
  5
1521
  8
OUTLINE
 10
3116.0143715286331
 20
2794.1247307831181
 30
0.0
 11
3132.0143715286331
 21
2810.1247307831168
 31
0.0
  0
LINE
  5
1522
  8
OUTLINE
 10
3036.0143715286331
 20
3220.1247307831122
 30
0.0
 11
3019.0143715286308
 21
3203.124730783115
 31
0.0
  0
LINE
  5
1523
  8
OUTLINE
 10
3116.0143715286331
 20
3220.1247307831159
 30
0.0
 11
3133.014371528634
 21
3203.1247307831168
 31
0.0
  0
LINE
  5
168C
  8
OUTLINE
 10
4576.2843030911426
 20
3203.1247307831159
 30
0.0
 11
5913.9843030911434
 21
3203.124730783115
 31
0.0
  0
LINE
  5
168D
  8
OUTLINE
 10
4576.2843030911426
 20
2810.124730783115
 30
0.0
 11
5913.9843030911434
 21
2810.1247307831168
 31
0.0
  0
LINE
  5
169F
  8
OUTLINE
 10
4561.2843030911436
 20
2813.6247307831168
 30
0.0
 11
4561.2843030911436
 21
3199.624730783115
 31
0.0
  0
LINE
  5
16A0
  8
OUTLINE
 10
5913.9843030911434
 20
2810.1247307831168
 30
0.0
 11
5913.9843030911434
 21
3203.124730783115
 31
0.0
  0
LINE
  5
16B2
  8
OUTLINE
 10
5946.2843030911399
 20
2794.1247307831181
 30
0.0
 11
5946.2843030911436
 21
3220.1247307831122
 31
0.0
  0
LINE
  5
16B3
  8
OUTLINE
 10
5946.2843030911399
 20
2794.1247307831181
 30
0.0
 11
5913.9843030911434
 21
2826.424730783116
 31
0.0
  0
LINE
  5
16B4
  8
OUTLINE
 10
5946.2843030911436
 20
3220.1247307831122
 30
0.0
 11
5913.9843030911434
 21
3187.824730783113
 31
0.0
  0
LINE
  5
16B5
  8
OUTLINE
 10
5956.2843030911408
 20
3212.1247307831131
 30
0.0
 11
5936.2843030911454
 21
3212.1247307831131
 31
0.0
  0
LINE
  5
16B6
  8
OUTLINE
 10
5956.2843030911408
 20
2813.6247307831159
 30
0.0
 11
5936.2843030911408
 21
2813.6247307831159
 31
0.0
  0
LINE
  5
16BC
  8
OVERLAY-A3
 10
4531.2843030911426
 20
3204.6247307831168
 30
0.0
 11
4414.7283123838761
 21
3204.6247307831168
 31
0.0
  0
LINE
  5
16BD
  8
OVERLAY-A3
 10
4531.2843030911426
 20
2808.624730783115
 30
0.0
 11
4414.7283123838761
 21
2808.624730783115
 31
0.0
  0
LINE
  5
16BE
  8
OVERLAY-A3
 10
4444.7283123838752
 20
3159.624730783119
 30
0.0
 11
4444.7283123838752
 21
3094.624730783119
 31
0.0
  0
LINE
  5
16BF
  8
OVERLAY-A3
 10
4444.7283123838752
 20
2853.6247307831168
 30
0.0
 11
4444.7283123838752
 21
2914.624730783119
 31
0.0
  0
SOLID
  5
16C0
  8
OVERLAY-A3
 10
4437.2283123838743
 20
3159.624730783119
 30
0.0
 11
4452.2283123838743
 21
3159.624730783119
 31
0.0
 12
4444.7283123838752
 22
3204.6247307831168
 32
0.0
 13
4444.7283123838752
 23
3204.6247307831168
 33
0.0
  0
SOLID
  5
16C1
  8
OVERLAY-A3
 10
4437.2283123838743
 20
2853.6247307831168
 30
0.0
 11
4452.2283123838743
 21
2853.6247307831168
 31
0.0
 12
4444.7283123838752
 22
2808.624730783115
 32
0.0
 13
4444.7283123838752
 23
2808.624730783115
 33
0.0
  0
LINE
  5
16C3
  8
OVERLAY-A3
 10
5976.2843030911417
 20
3220.1247307831122
 30
0.0
 11
6113.8442393977393
 21
3220.1247307831122
 31
0.0
  0
LINE
  5
16C4
  8
OVERLAY-A3
 10
5976.2843030911417
 20
2794.1247307831181
 30
0.0
 11
6113.8442393977393
 21
2794.1247307831181
 31
0.0
  0
LINE
  5
16C5
  8
OVERLAY-A3
 10
6083.8442393977393
 20
3265.1247307831131
 30
0.0
 11
6083.8442393977393
 21
3310.124730783114
 31
0.0
  0
LINE
  5
16C6
  8
OVERLAY-A3
 10
6083.8442393977393
 20
2749.1247307831181
 30
0.0
 11
6083.8442393977393
 21
2704.1247307831181
 31
0.0
  0
SOLID
  5
16C7
  8
OVERLAY-A3
 10
6076.3442393977393
 20
3265.1247307831131
 30
0.0
 11
6091.3442393977393
 21
3265.1247307831131
 31
0.0
 12
6083.8442393977393
 22
3220.1247307831122
 32
0.0
 13
6083.8442393977393
 23
3220.1247307831122
 33
0.0
  0
SOLID
  5
16C8
  8
OVERLAY-A3
 10
6076.3442393977393
 20
2749.1247307831181
 30
0.0
 11
6091.3442393977393
 21
2749.1247307831181
 31
0.0
 12
6083.8442393977393
 22
2794.1247307831181
 32
0.0
 13
6083.8442393977393
 23
2794.1247307831181
 33
0.0
  0
INSERT
  5
16C9
  8
OUTLINE
  2
*U8
 10
496.36749450420388
 20
-1197.4705222838891
 30
0.0
  0
LINE
  5
16CA
  8
OVERLAY-A3
 10
5915.2843030911417
 20
3220.1247307831122
 30
0.0
 11
5806.931058798672
 21
3220.1247307831122
 31
0.0
  0
LINE
  5
16CB
  8
OVERLAY-A3
 10
5915.2843030911408
 20
3212.1247307831131
 30
0.0
 11
5808.0584971792114
 21
3212.1247307831159
 31
0.0
  0
LINE
  5
16CC
  8
OVERLAY-A3
 10
5836.9310587986738
 20
3265.1247307831131
 30
0.0
 11
5836.9310587986738
 21
3310.124730783114
 31
0.0
  0
LINE
  5
16CD
  8
OVERLAY-A3
 10
5836.9310587986711
 20
3167.1247307831168
 30
0.0
 11
5836.9310587986711
 21
3118.124730783119
 31
0.0
  0
SOLID
  5
16CE
  8
OVERLAY-A3
 10
5829.431058798672
 20
3265.1247307831131
 30
0.0
 11
5844.4310587986738
 21
3265.1247307831131
 31
0.0
 12
5836.9310587986738
 22
3220.1247307831122
 32
0.0
 13
5836.9310587986738
 23
3220.1247307831122
 33
0.0
  0
SOLID
  5
16CF
  8
OVERLAY-A3
 10
5829.431058798672
 20
3167.1247307831168
 30
0.0
 11
5844.4310587986711
 21
3167.1247307831168
 31
0.0
 12
5836.9310587986711
 22
3212.1247307831159
 32
0.0
 13
5836.9310587986711
 23
3212.1247307831159
 33
0.0
  0
LINE
  5
16D1
  8
OVERLAY-A3
 10
1898.514371528634
 20
1688.142825026496
 30
0.0
 11
1770.1766810885649
 21
1688.142825026496
 31
0.0
  0
LINE
  5
16D3
  8
OVERLAY-A3
 10
1800.1766810885649
 20
1647.142825026496
 30
0.0
 11
1800.1766810885649
 21
1199.7808578611471
 31
0.0
  0
LINE
  5
16D4
  8
OVERLAY-A3
 10
1800.1766810885649
 20
348.14282502649542
 30
0.0
 11
1800.1766810885649
 21
805.79439534115659
 31
0.0
  0
SOLID
  5
16D5
  8
OVERLAY-A3
 10
1792.6766810885649
 20
1647.142825026496
 30
0.0
 11
1807.6766810885649
 21
1647.142825026496
 31
0.0
 12
1800.1766810885649
 22
1688.142825026496
 32
0.0
 13
1800.1766810885649
 23
1688.142825026496
 33
0.0
  0
SOLID
  5
16D6
  8
OVERLAY-A3
 10
1792.6766810885649
 20
348.14282502649542
 30
0.0
 11
1807.6766810885649
 21
348.14282502649542
 31
0.0
 12
1800.1766810885649
 22
303.14282502649542
 32
0.0
 13
1800.1766810885649
 23
303.14282502649542
 33
0.0
  0
LINE
  5
16D8
  8
OVERLAY-A3
 10
1928.5143715286331
 20
305.44282502649543
 30
0.0
 11
1928.5143715286331
 21
209.25151841674949
 31
0.0
  0
LINE
  5
16D9
  8
OVERLAY-A3
 10
2140.0143715286331
 20
249.14282502649539
 30
0.0
 11
2140.0143715286331
 21
209.25151841674949
 31
0.0
  0
LINE
  5
16DA
  8
OVERLAY-A3
 10
1883.514371528634
 20
239.25151841674941
 30
0.0
 11
1838.514371528634
 21
239.25151841674941
 31
0.0
  0
LINE
  5
16DB
  8
OVERLAY-A3
 10
2185.0143715286322
 20
239.25151841674941
 30
0.0
 11
2230.0143715286331
 21
239.25151841674941
 31
0.0
  0
SOLID
  5
16DC
  8
OVERLAY-A3
 10
1883.514371528634
 20
246.75151841674949
 30
0.0
 11
1883.514371528634
 21
231.75151841674949
 31
0.0
 12
1928.5143715286331
 22
239.25151841674941
 32
0.0
 13
1928.5143715286331
 23
239.25151841674941
 33
0.0
  0
SOLID
  5
16DD
  8
OVERLAY-A3
 10
2185.0143715286322
 20
246.75151841674949
 30
0.0
 11
2185.0143715286322
 21
231.75151841674949
 31
0.0
 12
2140.0143715286331
 22
239.25151841674941
 32
0.0
 13
2140.0143715286331
 23
239.25151841674941
 33
0.0
  0
LINE
  5
16DF
  8
OVERLAY-A3
 10
2140.0143715286331
 20
276.65339673753249
 30
0.0
 11
2140.0143715286331
 21
209.25151841674949
 31
0.0
  0
LINE
  5
16E0
  8
OVERLAY-A3
 10
3076.0143715286322
 20
276.65339673753232
 30
0.0
 11
3076.0143715286322
 21
209.25151841674921
 31
0.0
  0
LINE
  5
16E1
  8
OVERLAY-A3
 10
2185.0143715286322
 20
239.25151841674941
 30
0.0
 11
2400.9662319760828
 21
239.25151841674941
 31
0.0
  0
LINE
  5
16E2
  8
OVERLAY-A3
 10
3031.0143715286331
 20
239.25151841674921
 30
0.0
 11
2805.9662319760828
 21
239.25151841674941
 31
0.0
  0
SOLID
  5
16E3
  8
OVERLAY-A3
 10
2185.0143715286322
 20
246.75151841674949
 30
0.0
 11
2185.0143715286322
 21
231.75151841674949
 31
0.0
 12
2140.0143715286331
 22
239.25151841674941
 32
0.0
 13
2140.0143715286331
 23
239.25151841674941
 33
0.0
  0
SOLID
  5
16E4
  8
OVERLAY-A3
 10
3031.0143715286331
 20
246.75151841674921
 30
0.0
 11
3031.0143715286331
 21
231.75151841674929
 31
0.0
 12
3076.0143715286322
 22
239.25151841674921
 32
0.0
 13
3076.0143715286322
 23
239.25151841674921
 33
0.0
  0
LINE
  5
16E6
  8
OVERLAY-A3
 10
1928.5143715286331
 20
1718.142825026496
 30
0.0
 11
1928.5143715286331
 21
1788.307633021396
 31
0.0
  0
LINE
  5
16E7
  8
OVERLAY-A3
 10
3288.5143715286331
 20
1718.142825026496
 30
0.0
 11
3288.5143715286331
 21
1788.307633021396
 31
0.0
  0
LINE
  5
16E8
  8
OVERLAY-A3
 10
1973.5143715286331
 20
1758.307633021396
 30
0.0
 11
2422.5577522911308
 21
1758.307633021396
 31
0.0
  0
LINE
  5
16E9
  8
OVERLAY-A3
 10
3243.5143715286331
 20
1758.307633021396
 30
0.0
 11
2797.5577522911321
 21
1758.307633021396
 31
0.0
  0
SOLID
  5
16EA
  8
OVERLAY-A3
 10
1973.5143715286331
 20
1765.807633021396
 30
0.0
 11
1973.5143715286331
 21
1750.807633021396
 31
0.0
 12
1928.5143715286331
 22
1758.307633021396
 32
0.0
 13
1928.5143715286331
 23
1758.307633021396
 33
0.0
  0
SOLID
  5
16EB
  8
OVERLAY-A3
 10
3243.5143715286331
 20
1765.807633021396
 30
0.0
 11
3243.5143715286331
 21
1750.807633021396
 31
0.0
 12
3288.5143715286331
 22
1758.307633021396
 32
0.0
 13
3288.5143715286331
 23
1758.307633021396
 33
0.0
  0
LINE
  5
1701
  8
OVERLAY-A3
 10
3107.2143715286338
 20
3212.1247307831131
 30
0.0
 11
3501.5784385225938
 21
3212.1247307831131
 31
0.0
  0
LINE
  5
1702
  8
OVERLAY-A3
 10
3107.2143715286338
 20
2813.6247307831159
 30
0.0
 11
3501.5784385225938
 21
2813.6247307831159
 31
0.0
  0
LINE
  5
1703
  8
OVERLAY-A3
 10
3474.0784385225938
 20
3257.1247307831131
 30
0.0
 11
3474.0784385225938
 21
3302.1247307831131
 31
0.0
  0
LINE
  5
1704
  8
OVERLAY-A3
 10
3474.0784385225938
 20
2768.6247307831159
 30
0.0
 11
3474.0784385225938
 21
2723.6247307831181
 31
0.0
  0
SOLID
  5
1705
  8
OVERLAY-A3
 10
3466.5784385225929
 20
3257.1247307831131
 30
0.0
 11
3481.5784385225929
 21
3257.1247307831131
 31
0.0
 12
3474.0784385225938
 22
3212.1247307831131
 32
0.0
 13
3474.0784385225938
 23
3212.1247307831131
 33
0.0
  0
SOLID
  5
1706
  8
OVERLAY-A3
 10
3466.5784385225929
 20
2768.6247307831159
 30
0.0
 11
3481.5784385225929
 21
2768.6247307831159
 31
0.0
 12
3474.0784385225938
 22
2813.6247307831159
 32
0.0
 13
3474.0784385225938
 23
2813.6247307831159
 33
0.0
  0
LINE
  5
1708
  8
OVERLAY-A3
 10
5984.5745554818714
 20
2813.6247307831159
 30
0.0
 11
6047.5152182645497
 21
2813.6247307831159
 31
0.0
  0
LINE
  5
1709
  8
OVERLAY-A3
 10
5976.2843030911417
 20
2794.1247307831181
 30
0.0
 11
6059.2249658738219
 21
2794.1247307831181
 31
0.0
  0
LINE
  5
170A
  8
OVERLAY-A3
 10
6019.2249658738219
 20
2853.6247307831159
 30
0.0
 11
6019.2249658738219
 21
2898.6247307831168
 31
0.0
  0
LINE
  5
170B
  8
OVERLAY-A3
 10
6019.2249658738219
 20
2749.1247307831181
 30
0.0
 11
6019.2249658738219
 21
2704.1247307831181
 31
0.0
  0
SOLID
  5
170C
  8
OVERLAY-A3
 10
6011.7249658738201
 20
2858.6247307831159
 30
0.0
 11
6026.7249658738219
 21
2858.6247307831159
 31
0.0
 12
6019.2249658738219
 22
2813.6247307831159
 32
0.0
 13
6019.2249658738219
 23
2813.6247307831159
 33
0.0
  0
SOLID
  5
170D
  8
OVERLAY-A3
 10
6011.7249658738201
 20
2749.1247307831181
 30
0.0
 11
6026.7249658738219
 21
2749.1247307831181
 31
0.0
 12
6019.2249658738219
 22
2794.1247307831181
 32
0.0
 13
6019.2249658738219
 23
2794.1247307831181
 33
0.0
  0
TEXT
  5
17F0
  8
OUTLINE
 10
2158.699581695857
 20
2985.1005819711781
 30
0.0
 40
60.0
  1
OSA 224RKTGH/FH
  7
TITLE5
  0
TEXT
  5
17F1
  8
OUTLINE
 10
4823.233698266924
 20
2985.1005819711781
 30
0.0
 40
60.0
  1
OSA 224RKTGH/FH
  7
TITLE5
  0
TEXT
  5
17F2
  8
OUTLINE
 10
2757.3854637244949
 20
1005.80444791915
 30
0.0
 40
60.0
  1
OSA 224
  7
TITLE5
  0
TEXT
  5
17F3
  8
OUTLINE
 10
2732.126716959267
 20
905.80444791914965
 30
0.0
 40
60.0
  1
RKTGH/FH
  7
TITLE5
  0
LINE
  5
19D0
  8
OVERLAY-A3
 10
2072.5143715286331
 20
303.14282502649542
 30
0.0
 11
1770.1766810885631
 21
303.14282502649542
 31
0.0
  0
TEXT
  5
19D3
  8
OVERLAY-A3
 10
1822.676681088564
 20
836.79439534115681
 30
0.0
 40
45.0
  1
1385 O/A
 50
90.0
  0
TEXT
  5
1DB5
  8
OVERLAY-A3
 10
6040.7249658738201
 20
2546.62473078312
 30
0.0
 40
45.0
  1
19.5
 50
90.0
  0
TEXT
  5
1DB8
  8
OVERLAY-A3
 10
5859.431058798672
 20
3331.4546224781361
 30
0.0
 40
45.0
  1
8
 50
90.0
  0
LINE
  5
1DC0
  8
OUTLINE
 10
4566.2843030911426
 20
3204.6247307831168
 30
0.0
 11
4576.2843030911426
 21
3204.6247307831168
 31
0.0
  0
LINE
  5
1DC1
  8
OUTLINE
 10
4576.2843030911426
 20
3204.6247307831168
 30
0.0
 11
4576.2843030911426
 21
2808.624730783115
 31
0.0
  0
LINE
  5
1DC2
  8
OUTLINE
 10
4576.2843030911426
 20
2808.624730783115
 30
0.0
 11
4566.2843030911426
 21
2808.624730783115
 31
0.0
  0
ARC
  5
1DC3
  8
OUTLINE
 10
4566.2843030911426
 20
2813.6247307831168
 30
0.0
 40
5.0
 50
180.0
 51
270.0
  0
ARC
  5
1DC4
  8
OUTLINE
 10
4566.2843030911426
 20
3199.624730783115
 30
0.0
 40
5.0
 50
90.0
 51
180.0
  0
TEXT
  5
1DC5
  8
OVERLAY-A3
 10
4467.2283123838761
 20
2944.624730783119
 30
0.0
 40
45.0
  1
396
 50
90.0
  0
TEXT
  5
1DCF
  8
OVERLAY-A3
 10
1990.309117127111
 20
227.48869650817309
 30
0.0
 40
35.0
  1
210
  0
LINE
  5
1DD0
  8
OUTLINE
 10
1928.5143715286331
 20
1673.142825026496
 30
0.0
 11
3288.5143715286331
 21
1673.142825026496
 31
0.0
  0
ARC
  5
1DD1
  8
OUTLINE
 10
1933.5143715286331
 20
1683.142825026496
 30
0.0
 40
5.0
 50
90.0
 51
180.0
  0
ARC
  5
1DD2
  8
OUTLINE
 10
3283.5143715286331
 20
1683.1428250264951
 30
0.0
 40
5.0
 50
0.0
 51
90.0
  0
LINE
  5
1E2C
  8
OUTLINE
 10
1928.5143715286331
 20
1683.142825026496
 30
0.0
 11
1928.5143715286331
 21
1673.142825026496
 31
0.0
  0
LINE
  5
1E2D
  8
OUTLINE
 10
3288.5143715286331
 20
1683.1428250264951
 30
0.0
 11
3288.5143715286331
 21
1673.142825026496
 31
0.0
  0
TEXT
  5
2093
  8
OVERLAY-A3
 10
3496.578438522592
 20
2839.794862905132
 30
0.0
 40
45.0
  1
398 CTRS
 50
90.0
  0
LINE
  5
20A7
  8
OUTLINE
 10
2064.2143715286329
 20
1688.142825026496
 30
0.0
 11
2144.2143715286329
 21
1688.142825026496
 31
0.0
  0
TEXT
  5
20AD
  8
OVERLAY-A3
 10
2452.5577522911308
 20
1744.3894707439281
 30
0.0
 40
45.0
  1
1360 O/A
  0
TEXT
  5
20B2
  8
OVERLAY-A3
 10
2430.9662319760828
 20
214.9776067537058
 30
0.0
 40
45.0
  1
936 CTRS
  0
LINE
  5
21E1
  8
OUTLINE
 10
1928.5143715286331
 20
2891.1247307831168
 30
0.0
 11
2009.5143715286331
 21
2810.1247307831168
 31
0.0
  0
LINE
  5
21E2
  8
OUTLINE
 10
3288.5143715286331
 20
2891.1247307831168
 30
0.0
 11
3207.5143715286331
 21
2810.1247307831168
 31
0.0
  0
CIRCLE
  5
242C
  8
OUTLINE
 10
2438.5143715286331
 20
1345.642825026496
 30
0.0
 40
269.5
  0
CIRCLE
  5
242D
  8
OUTLINE
 10
2438.5143715286331
 20
679.34282502649535
 30
0.0
 40
269.5
  0
ENDSEC
  0
EOF
