  0
SECTION
  2
HEADER
  9
$ACADVER
  1
AC1032
  9
$ACADMAINTVER
 90
        4
  9
$DWGCODEPAGE
  3
ANSI_1252
  9
$LASTSAVEDBY
  1
ssaheef
  9
$REQUIREDVERSIONS
160
                 0
  9
$INSBASE
 10
0.0
 20
0.0
 30
0.0
  9
$EXTMIN
 10
-482.8404491478814
 20
-202.1684177850093
 30
-0.0000000000000053
  9
$EXTMAX
 10
4051.394335267228
 20
4820.937804064235
 30
0.0000000000000099
  9
$LIMMIN
 10
0.0
 20
0.0
  9
$LIMMAX
 10
3890.0
 20
2660.0
  9
$ORTHOMODE
 70
     1
  9
$REGENMODE
 70
     1
  9
$FILLMODE
 70
     1
  9
$QTEXTMODE
 70
     0
  9
$MIRRTEXT
 70
     0
  9
$LTSCALE
 40
300.0
  9
$ATTMODE
 70
     1
  9
$TEXTSIZE
 40
30.0
  9
$TRACEWID
 40
0.05
  9
$TEXTSTYLE
  7
TITLE3
  9
$CLAYER
  8
0
  9
$CELTYPE
  6
ByLayer
  9
$CECOLOR
 62
   256
  9
$CELTSCALE
 40
1.0
  9
$DISPSILH
 70
     0
  9
$DIMSCALE
 40
1.0
  9
$DIMASZ
 40
0.18
  9
$DIMEXO
 40
0.0625
  9
$DIMDLI
 40
0.38
  9
$DIMRND
 40
0.0
  9
$DIMDLE
 40
0.0
  9
$DIMEXE
 40
0.18
  9
$DIMTP
 40
0.0
  9
$DIMTM
 40
0.0
  9
$DIMTXT
 40
0.18
  9
$DIMCEN
 40
0.09
  9
$DIMTSZ
 40
0.0
  9
$DIMTOL
 70
     0
  9
$DIMLIM
 70
     0
  9
$DIMTIH
 70
     1
  9
$DIMTOH
 70
     1
  9
$DIMSE1
 70
     0
  9
$DIMSE2
 70
     0
  9
$DIMTAD
 70
     0
  9
$DIMZIN
 70
     0
  9
$DIMBLK
  1

  9
$DIMASO
 70
     0
  9
$DIMSHO
 70
     0
  9
$DIMPOST
  1

  9
$DIMAPOST
  1

  9
$DIMALT
 70
     0
  9
$DIMALTD
 70
     2
  9
$DIMALTF
 40
25.4
  9
$DIMLFAC
 40
1.0
  9
$DIMTOFL
 70
     0
  9
$DIMTVP
 40
0.0
  9
$DIMTIX
 70
     0
  9
$DIMSOXD
 70
     0
  9
$DIMSAH
 70
     0
  9
$DIMBLK1
  1

  9
$DIMBLK2
  1

  9
$DIMSTYLE
  2
ANNOTATIVE
  9
$DIMCLRD
 70
     0
  9
$DIMCLRE
 70
     0
  9
$DIMCLRT
 70
     0
  9
$DIMTFAC
 40
1.0
  9
$DIMGAP
 40
0.09
  9
$DIMJUST
 70
     0
  9
$DIMSD1
 70
     0
  9
$DIMSD2
 70
     0
  9
$DIMTOLJ
 70
     1
  9
$DIMTZIN
 70
     0
  9
$DIMALTZ
 70
     0
  9
$DIMALTTZ
 70
     0
  9
$DIMUPT
 70
     0
  9
$DIMDEC
 70
     4
  9
$DIMTDEC
 70
     4
  9
$DIMALTU
 70
     2
  9
$DIMALTTD
 70
     2
  9
$DIMTXSTY
  7
STANDARD
  9
$DIMAUNIT
 70
     0
  9
$DIMADEC
 70
     0
  9
$DIMALTRND
 40
0.0
  9
$DIMAZIN
 70
     0
  9
$DIMDSEP
 70
    46
  9
$DIMATFIT
 70
     3
  9
$DIMFRAC
 70
     0
  9
$DIMLDRBLK
  1

  9
$DIMLUNIT
 70
     2
  9
$DIMLWD
 70
    -2
  9
$DIMLWE
 70
    -2
  9
$DIMTMOVE
 70
     0
  9
$DIMFXL
 40
1.0
  9
$DIMFXLON
 70
     0
  9
$DIMJOGANG
 40
0.7853981633974483
  9
$DIMTFILL
 70
     0
  9
$DIMTFILLCLR
 70
     0
  9
$DIMARCSYM
 70
     0
  9
$DIMLTYPE
  6

  9
$DIMLTEX1
  6

  9
$DIMLTEX2
  6

  9
$DIMTXTDIRECTION
 70
     0
  9
$LUNITS
 70
     2
  9
$LUPREC
 70
     2
  9
$SKETCHINC
 40
0.1
  9
$FILLETRAD
 40
0.0
  9
$AUNITS
 70
     0
  9
$AUPREC
 70
     2
  9
$MENU
  1
\acad12\support\cnc
  9
$ELEVATION
 40
0.0
  9
$PELEVATION
 40
0.0
  9
$THICKNESS
 40
0.0
  9
$LIMCHECK
 70
     0
  9
$CHAMFERA
 40
20.0
  9
$CHAMFERB
 40
20.0
  9
$CHAMFERC
 40
0.0
  9
$CHAMFERD
 40
0.0
  9
$SKPOLY
 70
     0
  9
$TDCREATE
 40
2450610.402627315
  9
$TDUCREATE
 40
2450609.902627315
  9
$TDUPDATE
 40
2458775.450081019
  9
$TDUUPDATE
 40
2458774.908414352
  9
$TDINDWG
 40
0.6304604051
  9
$TDUSRTIMER
 40
0.6304575579
  9
$USRTIMER
 70
     1
  9
$ANGBASE
 50
0.0
  9
$ANGDIR
 70
     0
  9
$PDMODE
 70
     2
  9
$PDSIZE
 40
10.0
  9
$PLINEWID
 40
2.0
  9
$SPLFRAME
 70
     0
  9
$SPLINETYPE
 70
     6
  9
$SPLINESEGS
 70
     8
  9
$HANDSEED
  5
ADDE
  9
$SURFTAB1
 70
     6
  9
$SURFTAB2
 70
     6
  9
$SURFTYPE
 70
     6
  9
$SURFU
 70
     6
  9
$SURFV
 70
     6
  9
$UCSBASE
  2

  9
$UCSNAME
  2

  9
$UCSORG
 10
0.0
 20
0.0
 30
0.0
  9
$UCSXDIR
 10
1.0
 20
0.0
 30
0.0
  9
$UCSYDIR
 10
0.0
 20
1.0
 30
0.0
  9
$UCSORTHOREF
  2

  9
$UCSORTHOVIEW
 70
     0
  9
$UCSORGTOP
 10
0.0
 20
0.0
 30
0.0
  9
$UCSORGBOTTOM
 10
0.0
 20
0.0
 30
0.0
  9
$UCSORGLEFT
 10
0.0
 20
0.0
 30
0.0
  9
$UCSORGRIGHT
 10
0.0
 20
0.0
 30
0.0
  9
$UCSORGFRONT
 10
0.0
 20
0.0
 30
0.0
  9
$UCSORGBACK
 10
0.0
 20
0.0
 30
0.0
  9
$PUCSBASE
  2

  9
$PUCSNAME
  2

  9
$PUCSORG
 10
0.0
 20
0.0
 30
0.0
  9
$PUCSXDIR
 10
1.0
 20
0.0
 30
0.0
  9
$PUCSYDIR
 10
0.0
 20
1.0
 30
0.0
  9
$PUCSORTHOREF
  2

  9
$PUCSORTHOVIEW
 70
     0
  9
$PUCSORGTOP
 10
0.0
 20
0.0
 30
0.0
  9
$PUCSORGBOTTOM
 10
0.0
 20
0.0
 30
0.0
  9
$PUCSORGLEFT
 10
0.0
 20
0.0
 30
0.0
  9
$PUCSORGRIGHT
 10
0.0
 20
0.0
 30
0.0
  9
$PUCSORGFRONT
 10
0.0
 20
0.0
 30
0.0
  9
$PUCSORGBACK
 10
0.0
 20
0.0
 30
0.0
  9
$USERI1
 70
     0
  9
$USERI2
 70
     0
  9
$USERI3
 70
     0
  9
$USERI4
 70
     0
  9
$USERI5
 70
     0
  9
$USERR1
 40
0.0
  9
$USERR2
 40
0.0
  9
$USERR3
 40
0.0
  9
$USERR4
 40
0.0
  9
$USERR5
 40
0.0
  9
$WORLDVIEW
 70
     1
  9
$SHADEDGE
 70
     3
  9
$SHADEDIF
 70
    70
  9
$TILEMODE
 70
     1
  9
$MAXACTVP
 70
    16
  9
$PINSBASE
 10
0.0
 20
0.0
 30
0.0
  9
$PLIMCHECK
 70
     0
  9
$PEXTMIN
 10
1.129416638471947
 20
0.7730833676856337
 30
0.0
  9
$PEXTMAX
 10
10.16474974624754
 20
6.957750309170696
 30
0.0
  9
$PLIMMIN
 10
-0.1979161059762549
 20
-0.2679166643638311
  9
$PLIMMAX
 10
11.49541659617987
 20
8.000416830768735
  9
$UNITMODE
 70
     0
  9
$VISRETAIN
 70
     0
  9
$PLINEGEN
 70
     0
  9
$PSLTSCALE
 70
     0
  9
$TREEDEPTH
 70
  3020
  9
$CMLSTYLE
  2
Standard
  9
$CMLJUST
 70
     0
  9
$CMLSCALE
 40
1.0
  9
$PROXYGRAPHICS
 70
     1
  9
$MEASUREMENT
 70
     0
  9
$CELWEIGHT
370
    -1
  9
$ENDCAPS
280
     0
  9
$JOINSTYLE
280
     0
  9
$LWDISPLAY
290
     0
  9
$INSUNITS
 70
     0
  9
$HYPERLINKBASE
  1

  9
$STYLESHEET
  1

  9
$XEDIT
290
     1
  9
$CEPSNTYPE
380
     0
  9
$PSTYLEMODE
290
     1
  9
$FINGERPRINTGUID
  2
{F46CB025-805E-A347-9242-1B04284DDC9F}
  9
$VERSIONGUID
  2
{83F80DB3-6204-8D4F-812B-3709A4CAF87B}
  9
$EXTNAMES
290
     1
  9
$PSVPSCALE
 40
0.0
  9
$OLESTARTUP
290
     0
  9
$SORTENTS
280
   127
  9
$INDEXCTL
280
     0
  9
$HIDETEXT
280
     0
  9
$XCLIPFRAME
280
     2
  9
$HALOGAP
280
     0
  9
$OBSCOLOR
 70
   257
  9
$OBSLTYPE
280
     0
  9
$INTERSECTIONDISPLAY
280
     0
  9
$INTERSECTIONCOLOR
 70
   257
  9
$DIMASSOC
280
     0
  9
$PROJECTNAME
  1

  9
$CAMERADISPLAY
290
     0
  9
$LENSLENGTH
 40
50.0
  9
$CAMERAHEIGHT
 40
0.0
  9
$STEPSPERSEC
 40
2.0
  9
$STEPSIZE
 40
6.0
  9
$3DDWFPREC
 40
2.0
  9
$PSOLWIDTH
 40
0.25
  9
$PSOLHEIGHT
 40
4.0
  9
$LOFTANG1
 40
1.570796326794896
  9
$LOFTANG2
 40
1.570796326794896
  9
$LOFTMAG1
 40
0.0
  9
$LOFTMAG2
 40
0.0
  9
$LOFTPARAM
 70
     7
  9
$LOFTNORMALS
280
     1
  9
$LATITUDE
 40
37.795
  9
$LONGITUDE
 40
-122.394
  9
$NORTHDIRECTION
 40
0.0
  9
$TIMEZONE
 70
 -8000
  9
$LIGHTGLYPHDISPLAY
280
     1
  9
$TILEMODELIGHTSYNCH
280
     1
  9
$CMATERIAL
347
ACE7
  9
$SOLIDHIST
280
     0
  9
$SHOWHIST
280
     1
  9
$DWFFRAME
280
     2
  9
$DGNFRAME
280
     0
  9
$REALWORLDSCALE
290
     1
  9
$INTERFERECOLOR
 62
     1
  9
$INTERFEREOBJVS
345
AD09
  9
$INTERFEREVPVS
346
AD06
  9
$CSHADOW
280
     0
  9
$SHADOWPLANELOCATION
 40
0.0
  0
ENDSEC
  0
SECTION
  2
CLASSES
  0
CLASS
  1
ACDBDICTIONARYWDFLT
  2
AcDbDictionaryWithDefault
  3
ObjectDBX Classes
 90
        0
 91
        1
280
     0
281
     0
  0
CLASS
  1
MATERIAL
  2
AcDbMaterial
  3
ObjectDBX Classes
 90
     1153
 91
        3
280
     0
281
     0
  0
CLASS
  1
VISUALSTYLE
  2
AcDbVisualStyle
  3
ObjectDBX Classes
 90
     4095
 91
       24
280
     0
281
     0
  0
CLASS
  1
SCALE
  2
AcDbScale
  3
ObjectDBX Classes
 90
     1153
 91
       17
280
     0
281
     0
  0
CLASS
  1
TABLESTYLE
  2
AcDbTableStyle
  3
ObjectDBX Classes
 90
     4095
 91
        1
280
     0
281
     0
  0
CLASS
  1
MLEADERSTYLE
  2
AcDbMLeaderStyle
  3
ACDB_MLEADERSTYLE_CLASS
 90
     4095
 91
        1
280
     0
281
     0
  0
CLASS
  1
ACDBSECTIONVIEWSTYLE
  2
AcDbSectionViewStyle
  3
ObjectDBX Classes
 90
     1025
 91
        1
280
     0
281
     0
  0
CLASS
  1
ACDBDETAILVIEWSTYLE
  2
AcDbDetailViewStyle
  3
ObjectDBX Classes
 90
     1025
 91
        1
280
     0
281
     0
  0
CLASS
  1
EXACXREFPANELOBJECT
  2
ExAcXREFPanelObject
  3
EXAC_ESW
 90
     1025
 91
        1
280
     0
281
     0
  0
CLASS
  1
NPOCOLLECTION
  2
AcDbImpNonPersistentObjectsCollection
  3
ObjectDBX Classes
 90
     1153
 91
        1
280
     0
281
     0
  0
CLASS
  1
DICTIONARYVAR
  2
AcDbDictionaryVar
  3
ObjectDBX Classes
 90
        0
 91
        9
280
     0
281
     0
  0
CLASS
  1
CELLSTYLEMAP
  2
AcDbCellStyleMap
  3
ObjectDBX Classes
 90
     1152
 91
        2
280
     0
281
     0
  0
ENDSEC
  0
SECTION
  2
TABLES
  0
TABLE
  2
VPORT
  5
ACDE
330
0
100
AcDbSymbolTable
 70
     1
  0
VPORT
  5
AD4A
330
ACDE
100
AcDbSymbolTableRecord
100
AcDbViewportTableRecord
  2
*ACTIVE
 70
     0
 10
0.0
 20
0.0
 11
1.0
 21
1.0
 12
195.3375270341803
 22
1432.792879399114
 13
0.0
 23
0.0
 14
25.0
 24
25.0
 15
100.0
 25
100.0
 16
0.0
 26
0.0
 36
1.0
 17
2057.480935701729
 27
2332.522350104288
 37
0.0
 40
3167.224046054643
 41
2.323640960809102
 42
50.0
 43
0.0
 44
0.0
 50
0.0
 51
0.0
 71
     0
 72
   100
 73
     1
 74
     0
 75
     0
 76
     0
 77
     0
 78
     0
281
     0
 65
     1
110
0.0
120
0.0
130
0.0
111
1.0
121
0.0
131
0.0
112
0.0
122
1.0
132
0.0
 79
     0
146
0.0
348
AD05
 60
     3
 61
     5
292
     1
282
     0
141
0.0
142
0.0
 63
   250
421
  3355443
1001
ACAD_NAV_VCDISPLAY
1070
     3
  0
ENDTAB
  0
TABLE
  2
LTYPE
  5
ACDB
330
0
100
AcDbSymbolTable
 70
     9
  0
LTYPE
  5
AD30
330
ACDB
100
AcDbSymbolTableRecord
100
AcDbLinetypeTableRecord
  2
ByBlock
 70
     0
  3

 72
    65
 73
     0
 40
0.0
  0
LTYPE
  5
AD31
330
ACDB
100
AcDbSymbolTableRecord
100
AcDbLinetypeTableRecord
  2
ByLayer
 70
     0
  3

 72
    65
 73
     0
 40
0.0
  0
LTYPE
  5
AD32
330
ACDB
100
AcDbSymbolTableRecord
100
AcDbLinetypeTableRecord
  2
CONTINUOUS
 70
     0
  3
Solid line
 72
    65
 73
     0
 40
0.0
  0
LTYPE
  5
AD4B
330
ACDB
100
AcDbSymbolTableRecord
100
AcDbLinetypeTableRecord
  2
PHANTOM2
 70
     0
  3
Phantom (.5x) ___ _ _ ___ _ _ ___ _ _ ___ _ _
 72
    65
 73
     6
 40
1.25
 49
0.625
 74
     0
 49
-0.125
 74
     0
 49
0.125
 74
     0
 49
-0.125
 74
     0
 49
0.125
 74
     0
 49
-0.125
 74
     0
  0
LTYPE
  5
AD4C
330
ACDB
100
AcDbSymbolTableRecord
100
AcDbLinetypeTableRecord
  2
HIDDEN
 70
     0
  3
_ _ _ _ _ _ _ _ _ _ _ _ _ _ _ _ _ _ _ _ _ _ _
 72
    65
 73
     2
 40
0.375
 49
0.25
 74
     0
 49
-0.125
 74
     0
  0
LTYPE
  5
AD4D
330
ACDB
100
AcDbSymbolTableRecord
100
AcDbLinetypeTableRecord
  2
HIDDEN2
 70
     0
  3
Hidden (.5x) _ _ _ _ _ _ _ _ _ _ _ _ _ _ _ _ _
 72
    65
 73
     2
 40
0.1875
 49
0.125
 74
     0
 49
-0.0625
 74
     0
  0
LTYPE
  5
AD4E
330
ACDB
100
AcDbSymbolTableRecord
100
AcDbLinetypeTableRecord
  2
CENTER
 70
     0
  3
Center ____ _ ____ _ ____ _ ____ _ ____ _ ____
 72
    65
 73
     4
 40
2.0
 49
1.25
 74
     0
 49
-0.25
 74
     0
 49
0.25
 74
     0
 49
-0.25
 74
     0
  0
LTYPE
  5
AD4F
330
ACDB
100
AcDbSymbolTableRecord
100
AcDbLinetypeTableRecord
  2
CENTER2
 70
     0
  3
Center (.5x) ___ _ ___ _ ___ _ ___ _ ___ _ ___
 72
    65
 73
     4
 40
1.125
 49
0.75
 74
     0
 49
-0.125
 74
     0
 49
0.125
 74
     0
 49
-0.125
 74
     0
  0
LTYPE
  5
AD50
330
ACDB
100
AcDbSymbolTableRecord
100
AcDbLinetypeTableRecord
  2
ACANSTGB
 70
     0
  3
__ . . __ . .
 72
    65
 73
     6
 40
0.35433070866
 49
0.15748031496
 74
     0
 49
-0.03937007874
 74
     0
 49
0.03937007874
 74
     0
 49
-0.03937007874
 74
     0
 49
0.03937007874
 74
     0
 49
-0.03937007874
 74
     0
  0
LTYPE
  5
AD51
330
ACDB
100
AcDbSymbolTableRecord
100
AcDbLinetypeTableRecord
  2
ACANSTGL
 70
     0
  3
_ _ _ _ _
 72
    65
 73
     2
 40
0.11811023622
 49
0.07874015748
 74
     0
 49
-0.03937007874
 74
     0
  0
ENDTAB
  0
TABLE
  2
LAYER
  5
ACD8
330
0
100
AcDbSymbolTable
 70
     1
  0
LAYER
  5
AD2A
102
{ACAD_XDICTIONARY
360
ADBD
102
}
330
ACD8
100
AcDbSymbolTableRecord
100
AcDbLayerTableRecord
  2
0
 70
     0
 62
     7
  6
CONTINUOUS
370
    -3
390
ACE5
347
ACF7
348
0
  0
ENDTAB
  0
TABLE
  2
STYLE
  5
ACD9
330
0
100
AcDbSymbolTable
 70
     7
  0
STYLE
  5
AD2B
330
ACD9
100
AcDbSymbolTableRecord
100
AcDbTextStyleTableRecord
  2
STANDARD
 70
     0
 40
0.0
 41
1.0
 50
0.0
 71
     0
 42
0.2
  3
txt
  4

  0
STYLE
  5
AD2F
330
ACD9
100
AcDbSymbolTableRecord
100
AcDbTextStyleTableRecord
  2
ANNOTATIVE
 70
     0
 40
0.0
 41
1.0
 50
0.0
 71
     0
 42
0.2
  3
txt
  4

1001
ACADANNOTATIVE
1000
AnnotativeData
1002
{
1070
     1
1070
     1
1002
}
  0
STYLE
  5
AD49
330
ACD9
100
AcDbSymbolTableRecord
100
AcDbTextStyleTableRecord
  2
TITLE3
 70
     0
 40
30.0
 41
1.0
 50
0.0
 71
     0
 42
30.0
  3
SIMPLEX
  4

  0
STYLE
  5
AD52
330
ACD9
100
AcDbSymbolTableRecord
100
AcDbTextStyleTableRecord
  2
TITLE5
 70
     0
 40
50.0
 41
1.0
 50
0.0
 71
     0
 42
50.0
  3
SIMPLEX
  4

  0
STYLE
  5
AD53
330
ACD9
100
AcDbSymbolTableRecord
100
AcDbTextStyleTableRecord
  2
SIMPLEX
 70
     0
 40
30.0
 41
1.0
 50
0.0
 71
     0
 42
25.0
  3
SIMPLEX.shx
  4

  0
STYLE
  5
AD54
330
ACD9
100
AcDbSymbolTableRecord
100
AcDbTextStyleTableRecord
  2
TITLE
 70
     0
 40
60.0
 41
1.0
 50
0.0
 71
     0
 42
60.0
  3
simplex.shx
  4

  0
STYLE
  5
AD55
330
ACD9
100
AcDbSymbolTableRecord
100
AcDbTextStyleTableRecord
  2
ACANSGDT
 70
     0
 40
0.0
 41
1.0
 50
0.0
 71
     0
 42
30.0
  3
amgdt.shx
  4

  0
ENDTAB
  0
TABLE
  2
VIEW
  5
ACDC
330
0
100
AcDbSymbolTable
 70
     0
  0
ENDTAB
  0
TABLE
  2
UCS
  5
ACDD
330
0
100
AcDbSymbolTable
 70
     0
  0
ENDTAB
  0
TABLE
  2
APPID
  5
ACDF
330
0
100
AcDbSymbolTable
 70
    27
  0
APPID
  5
AD2C
330
ACDF
100
AcDbSymbolTableRecord
100
AcDbRegAppTableRecord
  2
ACAD
 70
     0
  0
APPID
  5
AD33
330
ACDF
100
AcDbSymbolTableRecord
100
AcDbRegAppTableRecord
  2
ACADANNOTATIVE
 70
     0
  0
APPID
  5
AD56
330
ACDF
100
AcDbSymbolTableRecord
100
AcDbRegAppTableRecord
  2
ACAD_MLEADERVER
 70
     0
  0
APPID
  5
AD57
330
ACDF
100
AcDbSymbolTableRecord
100
AcDbRegAppTableRecord
  2
GENIUS_GENDIM_13
 70
     0
  0
APPID
  5
AD58
330
ACDF
100
AcDbSymbolTableRecord
100
AcDbRegAppTableRecord
  2
GENIUS_GENDTOL_13
 70
     0
  0
APPID
  5
AD59
330
ACDF
100
AcDbSymbolTableRecord
100
AcDbRegAppTableRecord
  2
GENIUS_GE3DTOL_13
 70
     0
  0
APPID
  5
AD5A
330
ACDF
100
AcDbSymbolTableRecord
100
AcDbRegAppTableRecord
  2
MCAD_NO_VIS
 70
     0
  0
APPID
  5
AD5B
330
ACDF
100
AcDbSymbolTableRecord
100
AcDbRegAppTableRecord
  2
ACAD_TEMP_GRAPHIC
 70
     0
  0
APPID
  5
AD5C
330
ACDF
100
AcDbSymbolTableRecord
100
AcDbRegAppTableRecord
  2
AD_DRAW
 70
     0
  0
APPID
  5
AD5D
330
ACDF
100
AcDbSymbolTableRecord
100
AcDbRegAppTableRecord
  2
ACATTRIBSERVICES
 70
     0
  0
APPID
  5
AD5E
330
ACDF
100
AcDbSymbolTableRecord
100
AcDbRegAppTableRecord
  2
ASURF_PCURVE_APPNAME
 70
     0
  0
APPID
  5
AD5F
330
ACDF
100
AcDbSymbolTableRecord
100
AcDbRegAppTableRecord
  2
AMG_3D2D_5_0
 70
     0
  0
APPID
  5
AD60
330
ACDF
100
AcDbSymbolTableRecord
100
AcDbRegAppTableRecord
  2
DESIGNERASSEMBLIES
 70
     0
  0
APPID
  5
AD61
330
ACDF
100
AcDbSymbolTableRecord
100
AcDbRegAppTableRecord
  2
ACADM_DIM_EDIT
 70
     0
  0
APPID
  5
AD62
330
ACDF
100
AcDbSymbolTableRecord
100
AcDbRegAppTableRecord
  2
AMDT_DM_ADJ
 70
     0
  0
APPID
  5
AD63
330
ACDF
100
AcDbSymbolTableRecord
100
AcDbRegAppTableRecord
  2
ACAD_PSEXT
 70
     0
  0
APPID
  5
AD64
330
ACDF
100
AcDbSymbolTableRecord
100
AcDbRegAppTableRecord
  2
AMG_3D2D_5_00
 70
     0
  0
APPID
  5
AD65
330
ACDF
100
AcDbSymbolTableRecord
100
AcDbRegAppTableRecord
  2
ACAD_EXEMPT_FROM_CAD_STANDARDS
 70
     0
  0
APPID
  5
AD66
330
ACDF
100
AcDbSymbolTableRecord
100
AcDbRegAppTableRecord
  2
AMG_3D2D_5_01
 70
     0
  0
APPID
  5
AD67
330
ACDF
100
AcDbSymbolTableRecord
100
AcDbRegAppTableRecord
  2
ACAD_NAV_VCDISPLAY
 70
     0
  0
APPID
  5
AD68
330
ACDF
100
AcDbSymbolTableRecord
100
AcDbRegAppTableRecord
  2
ACAD_DSTYLE_DIMRADIAL_EXTENSION
 70
     0
  0
APPID
  5
AD69
330
ACDF
100
AcDbSymbolTableRecord
100
AcDbRegAppTableRecord
  2
ACAD_DSTYLE_DIMBREAK
 70
     0
  0
APPID
  5
AD6A
330
ACDF
100
AcDbSymbolTableRecord
100
AcDbRegAppTableRecord
  2
ACAD_DSTYLE_DIMJAG
 70
     0
  0
APPID
  5
AD6B
330
ACDF
100
AcDbSymbolTableRecord
100
AcDbRegAppTableRecord
  2
GENIUS_GENSCREG_15
 70
     0
  0
APPID
  5
AD6C
330
ACDF
100
AcDbSymbolTableRecord
100
AcDbRegAppTableRecord
  2
GENIUS_GENOBJ-N-SDF_13
 70
     0
  0
APPID
  5
AD6D
330
ACDF
100
AcDbSymbolTableRecord
100
AcDbRegAppTableRecord
  2
GENIUS_GENODEF_13
 70
     0
  0
APPID
  5
AD6E
330
ACDF
100
AcDbSymbolTableRecord
100
AcDbRegAppTableRecord
  2
ACAECLAYERSTANDARD
 70
     0
  0
ENDTAB
  0
TABLE
  2
DIMSTYLE
  5
ACE0
330
0
100
AcDbSymbolTable
 70
     9
100
AcDbDimStyleTable
 71
     1
340
AD2E
  0
DIMSTYLE
105
AD2D
330
ACE0
100
AcDbSymbolTableRecord
100
AcDbDimStyleTableRecord
  2
STANDARD
 70
     0
271
     2
272
     2
279
     2
340
AD49
  0
DIMSTYLE
105
AD2E
330
ACE0
100
AcDbSymbolTableRecord
100
AcDbDimStyleTableRecord
  2
ANNOTATIVE
 70
     0
271
     2
272
     2
279
     2
340
AD49
1001
ACADANNOTATIVE
1000
AnnotativeData
1002
{
1070
     1
1070
     1
1002
}
  0
DIMSTYLE
105
AD6F
330
ACE0
100
AcDbSymbolTableRecord
100
AcDbDimStyleTableRecord
  2
AM_ANSI
 70
     0
  4
mm
 41
0.12
 42
0.05
 43
0.5
 44
0.1
 47
0.1
 48
0.1
 78
     7
140
0.12
141
0.0
146
0.71
147
0.06
176
   256
177
   256
178
     2
271
     2
272
     2
279
     2
340
AD49
  0
DIMSTYLE
105
AD70
330
ACE0
100
AcDbSymbolTableRecord
100
AcDbDimStyleTableRecord
  2
AM_ANSI$3
 70
     0
  4
mm
 41
0.12
 42
0.05
 43
0.5
 44
0.1
 47
0.1
 48
0.1
 78
     7
140
0.12
141
0.0
146
0.71
147
0.06
176
   256
177
   256
178
     2
271
     2
272
     2
279
     2
340
AD49
  0
DIMSTYLE
105
AD71
330
ACE0
100
AcDbSymbolTableRecord
100
AcDbDimStyleTableRecord
  2
AM_ANSI$4
 70
     0
  4
mm
 41
0.12
 42
0.05
 43
0.5
 44
0.1
 47
0.1
 48
0.1
 78
     7
140
0.12
141
0.0
146
0.71
147
0.06
176
   256
177
   256
178
     2
271
     2
272
     2
279
     2
340
AD49
  0
DIMSTYLE
105
AD72
330
ACE0
100
AcDbSymbolTableRecord
100
AcDbDimStyleTableRecord
  2
AM_ANSI$7
 70
     0
  4
mm
 41
0.12
 42
0.05
 43
0.5
 44
0.1
 47
0.1
 48
0.1
 78
     7
140
0.12
141
0.0
146
0.71
147
0.06
176
   256
177
   256
178
     2
271
     2
272
     2
279
     2
340
AD49
  0
DIMSTYLE
105
AD73
330
ACE0
100
AcDbSymbolTableRecord
100
AcDbDimStyleTableRecord
  2
AM_ANSI$SF
 70
     0
  4
mm
 41
0.12
 42
0.05
 43
0.5
 44
0.1
 47
0.1
 48
0.1
 75
     1
 76
     1
 78
     7
140
0.12
141
0.0
146
0.71
147
0.06
176
   256
177
   256
178
     2
271
     2
272
     2
279
     2
340
AD49
  0
DIMSTYLE
105
AD74
330
ACE0
100
AcDbSymbolTableRecord
100
AcDbDimStyleTableRecord
  2
AM_ANSI$SH
 70
     0
  4
mm
 41
0.12
 42
0.05
 43
0.5
 44
0.1
 47
0.1
 48
0.1
 75
     1
 76
     1
 78
     7
140
0.12
141
0.0
146
0.71
147
0.06
173
     1
176
   256
177
   256
178
     2
271
     2
272
     2
279
     2
340
AD49
  0
ENDTAB
  0
TABLE
  2
BLOCK_RECORD
  5
ACD7
330
0
100
AcDbSymbolTable
 70
     3
  0
BLOCK_RECORD
  5
AD45
330
ACD7
100
AcDbSymbolTableRecord
100
AcDbBlockTableRecord
  2
*Model_Space
340
AD48
 70
     0
280
     1
281
     0
  0
BLOCK_RECORD
  5
AD41
330
ACD7
100
AcDbSymbolTableRecord
100
AcDbBlockTableRecord
  2
*Paper_Space
340
AD44
 70
     0
280
     1
281
     0
  0
BLOCK_RECORD
  5
AD78
330
ACD7
100
AcDbSymbolTableRecord
100
AcDbBlockTableRecord
  2
$MODEL_SPACE
340
0
 70
     0
280
     1
281
     0
  0
BLOCK_RECORD
  5
AD7A
330
ACD7
100
AcDbSymbolTableRecord
100
AcDbBlockTableRecord
  2
$PAPER_SPACE
340
0
 70
     0
280
     1
281
     0
  0
ENDTAB
  0
ENDSEC
  0
SECTION
  2
BLOCKS
  0
BLOCK
  5
AD46
330
AD45
100
AcDbEntity
  8
0
100
AcDbBlockBegin
  2
*Model_Space
 70
     0
 10
0.0
 20
0.0
 30
0.0
  3
*Model_Space
  1

  0
ENDBLK
  5
AD47
330
AD45
100
AcDbEntity
  8
0
100
AcDbBlockEnd
  0
BLOCK
  5
AD42
330
AD41
100
AcDbEntity
 67
     1
  8
0
100
AcDbBlockBegin
  2
*Paper_Space
 70
     0
 10
0.0
 20
0.0
 30
0.0
  3
*Paper_Space
  1

  0
ENDBLK
  5
AD43
330
AD41
100
AcDbEntity
 67
     1
  8
0
100
AcDbBlockEnd
  0
BLOCK
  5
AD79
330
AD78
100
AcDbEntity
  8
0
100
AcDbBlockBegin
  2
$MODEL_SPACE
 70
     0
 10
0.0
 20
0.0
 30
0.0
  3
$MODEL_SPACE
  1

  0
ENDBLK
  5
AC38
330
AD78
100
AcDbEntity
  8
0
100
AcDbBlockEnd
  0
BLOCK
  5
AD7B
330
AD7A
100
AcDbEntity
  8
0
100
AcDbBlockBegin
  2
$PAPER_SPACE
 70
     0
 10
0.0
 20
0.0
 30
0.0
  3
$PAPER_SPACE
  1

  0
ENDBLK
  5
AC34
330
AD7A
100
AcDbEntity
  8
0
100
AcDbBlockEnd
  0
ENDSEC
  0
SECTION
  2
ENTITIES
  0
LINE
  5
8200
330
AD45
100
AcDbEntity
  8
0
 62
     7
100
AcDbLine
 10
-482.5073820823073
 20
-202.0215522544402
 30
0.0
 11
4051.121982417341
 21
-202.0215522544396
 31
0.0
  0
LINE
  5
8201
330
AD45
100
AcDbEntity
  8
0
 62
     7
100
AcDbLine
 10
4051.12198241734
 20
-202.0215522544396
 30
0.0
 11
4051.12198241734
 21
4820.593807197276
 31
0.0
  0
LINE
  5
8203
330
AD45
100
AcDbEntity
  8
0
 62
     7
100
AcDbLine
 10
-482.5073820823073
 20
4820.593807197276
 30
0.0
 11
-482.5073820823073
 21
-202.0215522544402
 31
0.0
  0
TEXT
  5
8205
330
AD45
100
AcDbEntity
  8
0
 62
     7
100
AcDbText
 10
1970.91287018875
 20
3059.715431347863
 30
0.0
 40
30.0
  1
2000 min CLEARANCE
  7
TITLE3
100
AcDbText
  0
LINE
  5
8212
330
AD45
100
AcDbEntity
  8
0
 62
     7
100
AcDbLine
 10
1561.113265979431
 20
-37.13134345226399
 30
0.0
 11
1645.113265979429
 21
-37.13134345226399
 31
0.0
  0
SOLID
  5
8232
330
AD45
100
AcDbEntity
  8
0
 62
     7
100
AcDbTrace
 10
2474.148687785761
 20
4673.132269712334
 30
0.0
 11
2483.52368778576
 21
4616.882269712332
 31
0.0
 12
2492.898687785761
 22
4673.132269712334
 32
0.0
 13
2492.898687785761
 23
4673.132269712334
 33
0.0
1001
ACAD
1000
DSTYLE
1002
{
1070
    41
1040
60.0
1070
    42
1040
40.0
1070
    44
1040
40.0
1070
    73
1070
     0
1070
    74
1070
     0
1070
   140
1040
60.0
1070
   147
1040
40.0
1070
   176
1070
    52
1070
   177
1070
    52
1070
   178
1070
    50
1070
   179
1070
     2
1070
   271
1070
     2
1070
   272
1070
     2
1070
   279
1070
     2
1070
   340
1005
FC6
1002
}
  0
LINE
  5
8233
330
AD45
100
AcDbEntity
  8
0
 62
     7
100
AcDbLine
 10
1675.063265979429
 20
3782.190952834255
 30
0.0
 11
1675.063265979429
 21
3808.190952834258
 31
0.0
  0
LINE
  5
8234
330
AD45
100
AcDbEntity
  8
0
 62
     7
100
AcDbLine
 10
1545.163265979429
 20
3782.190952834255
 30
0.0
 11
1545.163265979429
 21
3808.190952834256
 31
0.0
  0
LINE
  5
8235
330
AD45
100
AcDbEntity
  8
0
 62
     7
100
AcDbLine
 10
1545.163265979429
 20
3782.190952834255
 30
0.0
 11
1675.063265979429
 21
3782.190952834255
 31
0.0
  0
LINE
  5
8237
330
AD45
100
AcDbEntity
  8
0
 62
     7
100
AcDbLine
 10
-302.7342695255072
 20
3779.690952834255
 30
0.0
 11
-302.7342695255076
 21
4619.690952834255
 31
0.0
  0
LINE
  5
8238
330
AD45
100
AcDbEntity
  8
0
 62
     7
100
AcDbLine
 10
-282.7842695255064
 20
4590.540952834254
 30
0.0
 11
-269.7342695255047
 21
4590.540952834254
 31
0.0
  0
LINE
  5
823C
330
AD45
100
AcDbEntity
  8
0
 62
     7
100
AcDbLine
 10
-282.7842695255064
 20
4590.540952834254
 30
0.0
 11
-282.7842695255064
 21
4598.440952834255
 31
0.0
  0
LINE
  5
823E
330
AD45
100
AcDbEntity
  8
0
 62
     7
100
AcDbLine
 10
-282.7842695255064
 20
3808.390952834255
 30
0.0
 11
-269.7342695255047
 21
3808.390952834255
 31
0.0
  0
LINE
  5
8242
330
AD45
100
AcDbEntity
  8
0
 62
     7
100
AcDbLine
 10
-282.7842695255064
 20
3808.390952834255
 30
0.0
 11
-282.7842695255064
 21
3800.940952834255
 31
0.0
  0
LINE
  5
8243
330
AD45
100
AcDbEntity
  8
0
 62
     7
100
AcDbLine
 10
-302.7342695255072
 20
3779.690952834255
 30
0.0
 11
-301.5342695255084
 21
3779.690952834255
 31
0.0
  0
LINE
  5
8244
330
AD45
100
AcDbEntity
  8
0
 62
     7
100
AcDbLine
 10
-301.5342695255084
 20
3779.690952834255
 30
0.0
 11
-282.7842695255064
 21
3800.940952834255
 31
0.0
  0
LINE
  5
824E
330
AD45
100
AcDbEntity
  8
0
 62
     7
100
AcDbLine
 10
1399.11326597943
 20
1285.868656547736
 30
0.0
 11
1399.11326597943
 21
-4.131343452263679
 31
0.0
  0
LINE
  5
824F
330
AD45
100
AcDbEntity
  8
0
 62
     7
100
AcDbLine
 10
2995.113265979426
 20
-4.131343452263903
 30
0.0
 11
1399.11326597943
 21
-4.131343452263679
 31
0.0
  0
LINE
  5
8250
330
AD45
100
AcDbEntity
  8
0
 62
     7
100
AcDbLine
 10
2995.113265979431
 20
1285.868656547736
 30
0.0
 11
2995.113265979426
 21
-4.13134345226399
 31
0.0
  0
LINE
  5
8255
330
AD45
100
AcDbEntity
  8
0
 62
     7
100
AcDbLine
 10
1020.265730474492
 20
4591.190952834255
 30
0.0
 11
-269.7342695255047
 21
4591.190952834259
 31
0.0
  0
LINE
  5
8256
330
AD45
100
AcDbEntity
  8
0
 62
     7
100
AcDbLine
 10
1020.265730474492
 20
3808.190952834255
 30
0.0
 11
-269.7342695255047
 21
3808.190952834255
 31
0.0
  0
LINE
  5
8257
330
AD45
100
AcDbEntity
  8
0
 62
     7
100
AcDbLine
 10
-269.7342695255047
 20
4591.190952834259
 30
0.0
 11
-269.7342695255047
 21
3808.190952834255
 31
0.0
  0
LINE
  5
8258
330
AD45
100
AcDbEntity
  8
0
 62
     7
100
AcDbLine
 10
2996.113265979431
 20
4591.190952834256
 30
0.0
 11
2996.113265979431
 21
3808.190952834256
 31
0.0
  0
LINE
  5
8259
330
AD45
100
AcDbEntity
  8
0
 62
     7
100
AcDbLine
 10
1398.113265979431
 20
4591.190952834255
 30
0.0
 11
1398.113265979431
 21
3808.190952834255
 31
0.0
  0
LINE
  5
825A
330
AD45
100
AcDbEntity
  8
0
 62
     7
100
AcDbLine
 10
1398.113265979431
 20
3808.190952834255
 30
0.0
 11
2996.113265979431
 21
3808.190952834256
 31
0.0
  0
LINE
  5
825B
330
AD45
100
AcDbEntity
  8
0
 62
     7
100
AcDbLine
 10
2996.113265979431
 20
4591.190952834256
 30
0.0
 11
1398.113265979431
 21
4591.190952834255
 31
0.0
  0
LINE
  5
825E
330
AD45
100
AcDbEntity
  8
0
 62
     7
100
AcDbLine
 10
1399.11326597943
 20
1285.868656547736
 30
0.0
 11
2995.113265979431
 21
1285.868656547736
 31
0.0
  0
LINE
  5
8260
330
AD45
100
AcDbEntity
  8
0
 62
     7
100
AcDbLine
 10
1020.265730474492
 20
4591.190952834255
 30
0.0
 11
1020.265730474492
 21
3808.190952834255
 31
0.0
  0
LINE
  5
8273
330
AD45
100
AcDbEntity
  8
0
  6
PHANTOM2
 62
     7
100
AcDbLine
 10
1399.11326597943
 20
3122.99797447686
 30
0.0
 11
2995.113265979431
 21
3122.99797447686
 31
0.0
  0
TEXT
  5
8276
330
AD45
100
AcDbEntity
  8
0
 62
     7
100
AcDbText
 10
1890.24242882458
 20
522.4250288078012
 30
0.0
 40
56.25
  1
OSA294RKTGV
  7
TITLE5
 72
     1
 11
2186.224571681723
 21
522.4250288078012
 31
0.0
100
AcDbText
  0
SOLID
  5
827E
330
AD45
100
AcDbEntity
  8
0
 62
     7
100
AcDbTrace
 10
2335.363245269652
 20
1508.206468279175
 30
0.0
 11
2310.363245269651
 21
1658.206468279174
 31
0.0
 12
2285.36324526965
 22
1508.206468279175
 32
0.0
 13
2285.36324526965
 23
1508.206468279175
 33
0.0
1001
ACAD
1000
DSTYLE
1002
{
1070
    41
1040
60.0
1070
    42
1040
40.0
1070
    44
1040
40.0
1070
    73
1070
     0
1070
    74
1070
     0
1070
   140
1040
60.0
1070
   147
1040
40.0
1070
   176
1070
    52
1070
   177
1070
    52
1070
   178
1070
    50
1070
   179
1070
     2
1070
   271
1070
     2
1070
   272
1070
     2
1070
   279
1070
     2
1070
   340
1005
FC6
1002
}
  0
TEXT
  5
8283
330
AD45
100
AcDbEntity
  8
0
 62
     7
100
AcDbText
 10
1347.4482373453
 20
4073.503281100895
 30
0.0
 40
30.0
  1
CLEARANCE
 50
90.0
  7
TITLE3
100
AcDbText
  0
TEXT
  5
8284
330
AD45
100
AcDbEntity
  8
0
 62
     7
100
AcDbText
 10
1302.189676010323
 20
4108.862804410237
 30
0.0
 40
30.0
  1
150 min
 50
90.0
  7
TITLE3
100
AcDbText
  0
TEXT
  5
8285
330
AD45
100
AcDbEntity
  8
0
 62
     7
100
AcDbText
 10
1986.405250585317
 20
3238.783802857472
 30
0.0
 40
30.0
  1
750 min CLEARANCE
  7
TITLE3
100
AcDbText
  0
TEXT
  5
8286
330
AD45
100
AcDbEntity
  8
0
 62
     7
100
AcDbText
 10
3955.584961116117
 20
4070.716099233401
 30
0.0
 40
30.0
  1
CLEARANCE
 50
90.0
  7
TITLE3
100
AcDbText
  0
TEXT
  5
8287
330
AD45
100
AcDbEntity
  8
0
 62
     7
100
AcDbText
 10
-12.62848273199171
 20
4202.950672344389
 30
0.0
 40
56.25
  1
OSA294RKTGV
  7
TITLE5
 72
     1
 11
283.3536601251511
 21
4202.950672344389
 31
0.0
100
AcDbText
  0
TEXT
  5
8288
330
AD45
100
AcDbEntity
  8
0
 62
     7
100
AcDbText
 10
1844.559051446047
 20
4299.034928784926
 30
0.0
 40
56.25
  1
OSA
  7
TITLE5
 72
     1
 11
1922.237622874619
 21
4299.034928784926
 31
0.0
100
AcDbText
  0
TEXT
  5
828A
330
AD45
100
AcDbEntity
  8
0
 62
     7
100
AcDbText
 10
1985.02097955123
 20
4690.812001090922
 30
0.0
 40
30.0
  1
150 min CLEARANCE
  7
TITLE3
100
AcDbText
  0
LINE
  5
828B
330
AD45
100
AcDbEntity
  8
0
  6
HIDDEN
 62
     7
100
AcDbLine
 10
1689.129127403458
 20
4518.424830578502
 30
0.0
 11
2745.929127403457
 21
4518.424830578502
 31
0.0
  0
LINE
  5
828C
330
AD45
100
AcDbEntity
  8
0
  6
HIDDEN
 62
     7
100
AcDbLine
 10
1689.129127403458
 20
4573.424830578504
 30
0.0
 11
2745.929127403461
 21
4573.424830578504
 31
0.0
  0
ARC
  5
828D
330
AD45
100
AcDbEntity
  8
0
  6
HIDDEN
 62
     7
100
AcDbCircle
 10
1689.129127403459
 20
4318.424830578506
 30
0.0
 40
255.0
100
AcDbArc
 50
90.0
 51
180.0
  0
ARC
  5
828E
330
AD45
100
AcDbEntity
  8
0
  6
HIDDEN
 62
     7
100
AcDbCircle
 10
1689.129127403459
 20
4318.424830578506
 30
0.0
 40
200.0
100
AcDbArc
 50
90.0
 51
180.0
  0
LINE
  5
828F
330
AD45
100
AcDbEntity
  8
0
  6
HIDDEN
 62
     7
100
AcDbLine
 10
1489.129127403458
 20
3847.424830578501
 30
0.0
 11
1489.129127403458
 21
4318.424830578506
 31
0.0
  0
LINE
  5
8290
330
AD45
100
AcDbEntity
  8
0
  6
HIDDEN
 62
     7
100
AcDbLine
 10
1434.129127403456
 20
4318.424830578506
 30
0.0
 11
1434.129127403456
 21
3846.224830578503
 31
0.0
  0
LINE
  5
8291
330
AD45
100
AcDbEntity
  8
0
  6
HIDDEN
 62
     7
100
AcDbLine
 10
1489.129127403458
 20
3846.224830578503
 30
0.0
 11
1434.129127403456
 21
3846.224830578503
 31
0.0
  0
LINE
  5
8292
330
AD45
100
AcDbEntity
  8
0
  6
HIDDEN
 62
     7
100
AcDbLine
 10
2783.673720377411
 20
4556.390952834251
 30
0.0
 11
2783.673720377411
 21
4555.190952834252
 31
0.0
  0
LINE
  5
8293
330
AD45
100
AcDbEntity
  8
0
  6
HIDDEN
 62
     7
100
AcDbLine
 10
2745.929127403461
 20
4518.424830578502
 30
0.0
 11
2745.929127403461
 21
4573.424830578504
 31
0.0
  0
TEXT
  5
8295
330
AD45
100
AcDbEntity
  8
0
 62
     7
100
AcDbText
 10
3895.061439751219
 20
4111.789908257033
 30
0.0
 40
30.0
  1
1000 min
 50
90.0
  7
TITLE3
100
AcDbText
  0
TEXT
  5
8430
330
AD45
100
AcDbEntity
  8
0
 62
     7
100
AcDbText
 10
-432.6425776166646
 20
148.9748278020899
 30
0.0
 40
61.0
  1
temperzone OSA 294RKTGV
  7
TITLE5
 72
     1
 11
212.2145652404782
 21
148.9748278020899
 31
0.0
100
AcDbText
  0
TEXT
  5
8431
330
AD45
100
AcDbEntity
  8
0
 62
     7
100
AcDbText
 10
-270.0073820823076
 20
-114.5215522544401
 30
0.0
 40
37.5
  1
OSA294RKTGV
 41
0.918552036199096
  7
TITLE3
 72
     5
 11
92.49261791769276
 21
-114.5215522544401
 31
0.0
100
AcDbText
  0
TEXT
  5
8432
330
AD45
100
AcDbEntity
  8
0
 62
     7
100
AcDbText
 10
406.2458489514358
 20
-68.25394454491089
 30
0.0
 40
37.5
  1
27-07-15
 41
0.6913580246913588
  7
TITLE3
 72
     5
 11
606.245848951436
 21
-68.25394454491089
 31
0.0
100
AcDbText
  0
TEXT
  5
8433
330
AD45
100
AcDbEntity
  8
0
 62
     7
100
AcDbText
 10
670.7520487197301
 20
-63.4825349293141
 30
0.0
 40
30.0
  1
: Date
  7
SIMPLEX
100
AcDbText
  0
TEXT
  5
8434
330
AD45
100
AcDbEntity
  8
0
 62
     7
100
AcDbText
 10
-434.3359745836383
 20
-40.14242472517617
 30
0.0
 40
30.0
  1
Revision
 41
0.7812095035934832
  7
SIMPLEX
 72
     5
 11
-302.6463725493083
 21
-40.14242472517617
 31
0.0
100
AcDbText
  0
LINE
  5
8435
330
AD45
100
AcDbEntity
  8
0
 62
     7
100
AcDbLine
 10
-288.1215695700045
 20
-175.9684361940437
 30
0.0
 11
-288.1215695700045
 21
8.314267381242698
 31
0.0
  0
LINE
  5
8436
330
AD45
100
AcDbEntity
  8
0
 62
     7
100
AcDbLine
 10
879.2745478978025
 20
231.2779438624862
 30
0.0
 11
879.2745478978025
 21
-175.9684361940437
 31
0.0
  0
LINE
  5
8437
330
AD45
100
AcDbEntity
  8
0
 62
     7
100
AcDbLine
 10
108.8505204013259
 20
-175.9684361940437
 30
0.0
 11
108.8505204013259
 21
8.314267381242698
 31
0.0
  0
LINE
  5
8438
330
AD45
100
AcDbEntity
  8
0
 62
     7
100
AcDbLine
 10
108.8505204013259
 20
-85.38080316761048
 30
0.0
 11
879.2745478978025
 21
-85.38080316761048
 31
0.0
  0
LINE
  5
8439
330
AD45
100
AcDbEntity
  8
0
 62
     7
100
AcDbLine
 10
-446.9767136296081
 20
8.314267381242698
 30
0.0
 11
879.2745478978025
 21
8.314267381242698
 31
0.0
  0
LINE
  5
843A
330
AD45
100
AcDbEntity
  8
0
 62
     7
100
AcDbLine
 10
879.2745478978025
 20
-175.9684361940437
 30
0.0
 11
-446.6048296566714
 21
-175.9684361940437
 31
0.0
  0
LINE
  5
843B
330
AD45
100
AcDbEntity
  8
0
 62
     7
100
AcDbLine
 10
-446.6048296566714
 20
-175.9684361940437
 30
0.0
 11
-446.6048296566714
 21
231.2779438624862
 31
0.0
  0
LINE
  5
843C
330
AD45
100
AcDbEntity
  8
0
 62
     7
100
AcDbLine
 10
-446.6048296566714
 20
231.2779438624862
 30
0.0
 11
879.2745478978025
 21
231.2779438624862
 31
0.0
  0
TEXT
  5
843D
330
AD45
100
AcDbEntity
  8
0
 62
     7
100
AcDbText
 10
672.022362644796
 20
-142.118442172743
 30
0.0
 40
25.0
  1
: Scale
 41
1.167301397240684
  7
SIMPLEX
 72
     5
 11
826.2729044230292
 21
-142.118442172743
 31
0.0
100
AcDbText
  0
TEXT
  5
843E
330
AD45
100
AcDbEntity
  8
0
 62
     7
100
AcDbText
 10
-181.4384294404465
 20
-40.90476287105332
 30
0.0
 40
25.0
  1
Drawing No.
  7
SIMPLEX
 72
     2
 11
36.4187134166963
 21
-40.90476287105332
 31
0.0
100
AcDbText
  0
LINE
  5
85ED
330
AD45
100
AcDbEntity
  8
0
 62
     7
100
AcDbLine
 10
2310.363245269651
 20
1507.422599002374
 30
0.0
 11
2310.363245269651
 21
1385.973304747927
 31
0.0
1001
ACAD
1000
DSTYLE
1002
{
1070
    41
1040
60.0
1070
    42
1040
40.0
1070
    44
1040
40.0
1070
    73
1070
     0
1070
    74
1070
     0
1070
   140
1040
60.0
1070
   147
1040
40.0
1070
   176
1070
    52
1070
   177
1070
    52
1070
   178
1070
    50
1070
   179
1070
     2
1070
   271
1070
     2
1070
   272
1070
     2
1070
   279
1070
     2
1070
   340
1005
FC6
1002
}
  0
TEXT
  5
85EF
330
AD45
100
AcDbEntity
  8
0
 62
     7
100
AcDbText
 10
2055.740100077494
 20
1523.299697955096
 30
0.0
 40
60.0
  1
AIR
  7
TITLE
100
AcDbText
  0
TEXT
  5
85F0
330
AD45
100
AcDbEntity
  8
0
 62
     7
100
AcDbText
 10
2008.597242934639
 20
1423.299697955096
 30
0.0
 40
60.0
  1
FLOW
  7
TITLE
100
AcDbText
  0
LINE
  5
85F1
330
AD45
100
AcDbEntity
  8
0
 62
     7
100
AcDbLine
 10
2483.52368778576
 20
4616.882269712332
 30
0.0
 11
2483.52368778576
 21
4718.969706036552
 31
0.0
1001
ACAD
1000
DSTYLE
1002
{
1070
    41
1040
60.0
1070
    42
1040
40.0
1070
    44
1040
40.0
1070
    73
1070
     0
1070
    74
1070
     0
1070
   140
1040
60.0
1070
   147
1040
40.0
1070
   176
1070
    52
1070
   177
1070
    52
1070
   178
1070
    50
1070
   179
1070
     2
1070
   271
1070
     2
1070
   272
1070
     2
1070
   279
1070
     2
1070
   340
1005
FC6
1002
}
  0
TEXT
  5
85F4
330
AD45
100
AcDbEntity
  8
0
 62
     7
100
AcDbText
 10
-442.166531476969
 20
300.6041013234358
 30
0.0
 40
31.25
  1
available on request
  7
TITLE3
100
AcDbText
  0
TEXT
  5
85F5
330
AD45
100
AcDbEntity
  8
0
 62
     7
100
AcDbText
 10
-442.166531476969
 20
354.1755298948643
 30
0.0
 40
31.25
  1
Certified dimensions
  7
TITLE3
100
AcDbText
  0
TEXT
  5
85F6
330
AD45
100
AcDbEntity
  8
0
 62
     7
100
AcDbText
 10
-442.166531476969
 20
407.7469584662928
 30
0.0
 40
31.25
  1
without notice or obligation.
  7
TITLE3
100
AcDbText
  0
TEXT
  5
85F7
330
AD45
100
AcDbEntity
  8
0
 62
     7
100
AcDbText
 10
-442.166531476969
 20
461.3183870377214
 30
0.0
 40
31.25
  1
specifications at any time
  7
TITLE3
100
AcDbText
  0
TEXT
  5
85F8
330
AD45
100
AcDbEntity
  8
0
 62
     7
100
AcDbText
 10
-442.166531476969
 20
514.8898156091497
 30
0.0
 40
31.25
  1
the right to change 
  7
TITLE3
100
AcDbText
  0
TEXT
  5
85F9
330
AD45
100
AcDbEntity
  8
0
 62
     7
100
AcDbText
 10
-442.166531476969
 20
622.0326727520061
 30
0.0
 40
31.25
  1
NOTE
  7
TITLE3
100
AcDbText
  0
TEXT
  5
85FA
330
AD45
100
AcDbEntity
  8
0
 62
     7
100
AcDbText
 10
-442.166531476969
 20
568.4612441805779
 30
0.0
 40
31.25
  1
The manufacturer reserves
  7
TITLE3
100
AcDbText
  0
TEXT
  5
862B
330
AD45
100
AcDbEntity
  8
0
 62
     7
100
AcDbText
 10
1711.969765731762
 20
4220.95024201053
 30
0.0
 40
56.25
  1
294RKTGV
  7
TITLE5
 72
     1
 11
1922.237622874619
 21
4220.95024201053
 31
0.0
100
AcDbText
  0
LINE
  5
8666
330
AD45
100
AcDbEntity
  8
0
 62
     7
100
AcDbLine
 10
1561.113265979431
 20
-37.13134345226399
 30
0.0
 11
1535.613265979429
 21
-4.131343452263903
 31
0.0
  0
LINE
  5
8667
330
AD45
100
AcDbEntity
  8
0
 62
     7
100
AcDbLine
 10
1645.113265979429
 20
-37.13134345226399
 30
0.0
 11
1670.613265979429
 21
-4.131343452263903
 31
0.0
  0
LINE
  5
866B
330
AD45
100
AcDbEntity
  8
0
 62
     7
100
AcDbLine
 10
2834.113265979429
 20
-37.13134345226399
 30
0.0
 11
2750.113265979431
 21
-37.13134345226399
 31
0.0
  0
LINE
  5
866F
330
AD45
100
AcDbEntity
  8
0
 62
     7
100
AcDbLine
 10
2834.113265979429
 20
-37.13134345226399
 30
0.0
 11
2859.613265979429
 21
-4.131343452263903
 31
0.0
  0
LINE
  5
8670
330
AD45
100
AcDbEntity
  8
0
 62
     7
100
AcDbLine
 10
2750.113265979431
 20
-37.13134345226399
 30
0.0
 11
2724.613265979429
 21
-4.131343452263903
 31
0.0
  0
LINE
  5
86BB
330
AD45
100
AcDbEntity
  8
0
 62
     7
100
AcDbLine
 10
1399.11326597943
 20
-24.13134345226388
 30
0.0
 11
1399.11326597943
 21
-171.7458262314048
 31
0.0
  0
LINE
  5
86BC
330
AD45
100
AcDbEntity
  8
0
 62
     7
100
AcDbLine
 10
2994.113265979425
 20
-24.1313434522641
 30
0.0
 11
2994.113265979425
 21
-171.745826231405
 31
0.0
  0
LINE
  5
86BD
330
AD45
100
AcDbEntity
  8
0
 62
     7
100
AcDbLine
 10
1429.113265979431
 20
-151.7458262314047
 30
0.0
 11
2075.071612415733
 21
-151.7458262314048
 31
0.0
  0
LINE
  5
86BE
330
AD45
100
AcDbEntity
  8
0
 62
     7
100
AcDbLine
 10
2964.113265979424
 20
-151.7458262314048
 30
0.0
 11
2312.50893936921
 21
-151.7458262314048
 31
0.0
  0
SOLID
  5
86BF
330
AD45
100
AcDbEntity
  8
0
 62
     7
100
AcDbTrace
 10
1429.113265979431
 20
-146.7458262314048
 30
0.0
 11
1429.113265979431
 21
-156.7458262314047
 31
0.0
 12
1399.11326597943
 22
-151.7458262314047
 32
0.0
 13
1399.11326597943
 23
-151.7458262314047
 33
0.0
  0
SOLID
  5
86C0
330
AD45
100
AcDbEntity
  8
0
 62
     7
100
AcDbTrace
 10
2964.113265979424
 20
-146.7458262314051
 30
0.0
 11
2964.113265979424
 21
-156.7458262314048
 31
0.0
 12
2994.113265979425
 22
-151.7458262314048
 32
0.0
 13
2994.113265979425
 23
-151.7458262314048
 33
0.0
  0
LINE
  5
86C2
330
AD45
100
AcDbEntity
  8
0
 62
     7
100
AcDbLine
 10
1603.11326597943
 20
-67.1313434522639
 30
0.0
 11
1603.11326597943
 21
-109.7583453813041
 31
0.0
  0
LINE
  5
86C3
330
AD45
100
AcDbEntity
  8
0
 62
     7
100
AcDbLine
 10
2792.113265979429
 20
-67.13134345226399
 30
0.0
 11
2792.113265979429
 21
-109.7583453813042
 31
0.0
  0
LINE
  5
86C4
330
AD45
100
AcDbEntity
  8
0
 62
     7
100
AcDbLine
 10
1633.113265979431
 20
-89.75834538130412
 30
0.0
 11
2062.356272244337
 21
-89.75834538130412
 31
0.0
  0
LINE
  5
86C5
330
AD45
100
AcDbEntity
  8
0
 62
     7
100
AcDbLine
 10
2762.113265979429
 20
-89.75834538130419
 30
0.0
 11
2322.356272244337
 21
-89.75834538130412
 31
0.0
  0
SOLID
  5
86C6
330
AD45
100
AcDbEntity
  8
0
 62
     7
100
AcDbTrace
 10
1633.113265979431
 20
-84.75834538130412
 30
0.0
 11
1633.113265979431
 21
-94.75834538130412
 31
0.0
 12
1603.11326597943
 22
-89.75834538130412
 32
0.0
 13
1603.11326597943
 23
-89.75834538130412
 33
0.0
  0
SOLID
  5
86C7
330
AD45
100
AcDbEntity
  8
0
 62
     7
100
AcDbTrace
 10
2762.113265979429
 20
-84.75834538130419
 30
0.0
 11
2762.113265979429
 21
-94.75834538130422
 31
0.0
 12
2792.113265979429
 22
-89.75834538130419
 32
0.0
 13
2792.113265979429
 23
-89.75834538130419
 33
0.0
  0
LINE
  5
86C9
330
AD45
100
AcDbEntity
  8
0
 62
     7
100
AcDbLine
 10
1592.975367951233
 20
1299.868656547736
 30
0.0
 11
1256.720978501358
 21
1299.868656547735
 31
0.0
  0
LINE
  5
86CA
330
AD45
100
AcDbEntity
  8
0
 62
     7
100
AcDbLine
 10
1541.113265979431
 20
-37.13134345226399
 30
0.0
 11
1256.720978501358
 21
-37.13134345226356
 31
0.0
  0
LINE
  5
86CB
330
AD45
100
AcDbEntity
  8
0
 62
     7
100
AcDbLine
 10
1276.720978501358
 20
1269.868656547735
 30
0.0
 11
1276.720978501354
 21
755.1276817130776
 31
0.0
  0
LINE
  5
86CC
330
AD45
100
AcDbEntity
  8
0
 62
     7
100
AcDbLine
 10
1276.720978501354
 20
-7.131343452263561
 30
0.0
 11
1276.720978501354
 21
515.1276817130776
 31
0.0
  0
SOLID
  5
86CD
330
AD45
100
AcDbEntity
  8
0
 62
     7
100
AcDbTrace
 10
1271.720978501358
 20
1269.868656547735
 30
0.0
 11
1281.720978501358
 21
1269.868656547735
 31
0.0
 12
1276.720978501358
 22
1299.868656547735
 32
0.0
 13
1276.720978501358
 23
1299.868656547735
 33
0.0
  0
SOLID
  5
86CE
330
AD45
100
AcDbEntity
  8
0
 62
     7
100
AcDbTrace
 10
1271.720978501355
 20
-7.131343452263561
 30
0.0
 11
1281.720978501358
 21
-7.131343452263561
 31
0.0
 12
1276.720978501354
 22
-37.13134345226356
 32
0.0
 13
1276.720978501354
 23
-37.13134345226356
 33
0.0
  0
CIRCLE
  5
86F4
330
AD45
100
AcDbEntity
  8
0
100
AcDbCircle
 10
1919.113265979429
 20
4221.190952834257
 30
0.0
 40
292.5
  0
CIRCLE
  5
86F5
330
AD45
100
AcDbEntity
  8
0
100
AcDbCircle
 10
2583.113265979429
 20
4221.190952834257
 30
0.0
 40
292.5
  0
LINE
  5
871B
330
AD45
100
AcDbEntity
  8
0
 62
     7
100
AcDbLine
 10
1045.265730474492
 20
4591.190952834255
 30
0.0
 11
1118.32800819969
 21
4591.190952834255
 31
0.0
  0
LINE
  5
871C
330
AD45
100
AcDbEntity
  8
0
 62
     7
100
AcDbLine
 10
1045.265730474492
 20
3808.190952834255
 30
0.0
 11
1118.32800819969
 21
3808.190952834255
 31
0.0
  0
LINE
  5
871D
330
AD45
100
AcDbEntity
  8
0
 62
     7
100
AcDbLine
 10
1088.36415141116
 20
4561.190952834254
 30
0.0
 11
1088.36415141116
 21
4256.38205142201
 31
0.0
  0
LINE
  5
871E
330
AD45
100
AcDbEntity
  8
0
 62
     7
100
AcDbLine
 10
1088.36415141116
 20
3838.190952834255
 30
0.0
 11
1088.36415141116
 21
4159.708331091191
 31
0.0
  0
SOLID
  5
871F
330
AD45
100
AcDbEntity
  8
0
 62
     7
100
AcDbTrace
 10
1083.36415141116
 20
4561.190952834254
 30
0.0
 11
1093.364151411158
 21
4561.190952834254
 31
0.0
 12
1088.36415141116
 22
4591.190952834255
 32
0.0
 13
1088.36415141116
 23
4591.190952834255
 33
0.0
  0
SOLID
  5
8720
330
AD45
100
AcDbEntity
  8
0
 62
     7
100
AcDbTrace
 10
1083.36415141116
 20
3838.190952834255
 30
0.0
 11
1093.364151411158
 21
3838.190952834255
 31
0.0
 12
1088.36415141116
 22
3808.190952834255
 32
0.0
 13
1088.36415141116
 23
3808.190952834255
 33
0.0
  0
LINE
  5
8722
330
AD45
100
AcDbEntity
  8
0
 62
     7
100
AcDbLine
 10
-327.7342695255076
 20
4619.690952834258
 30
0.0
 11
-457.0038069989106
 21
4619.690952834258
 31
0.0
  0
LINE
  5
8723
330
AD45
100
AcDbEntity
  8
0
 62
     7
100
AcDbLine
 10
-327.7342695255072
 20
3779.690952834255
 30
0.0
 11
-457.0038069989106
 21
3779.690952834255
 31
0.0
  0
LINE
  5
8724
330
AD45
100
AcDbEntity
  8
0
 62
     7
100
AcDbLine
 10
-437.0038069989106
 20
4589.690952834257
 30
0.0
 11
-437.0038069989106
 21
4314.75891211588
 31
0.0
  0
LINE
  5
8725
330
AD45
100
AcDbEntity
  8
0
 62
     7
100
AcDbLine
 10
-437.0038069989106
 20
3809.690952834257
 30
0.0
 11
-437.0038069989106
 21
4089.087561608407
 31
0.0
  0
SOLID
  5
8726
330
AD45
100
AcDbEntity
  8
0
 62
     7
100
AcDbTrace
 10
-442.0038069989105
 20
4589.690952834257
 30
0.0
 11
-432.0038069989106
 21
4589.690952834257
 31
0.0
 12
-437.0038069989106
 22
4619.690952834258
 32
0.0
 13
-437.0038069989106
 23
4619.690952834258
 33
0.0
  0
SOLID
  5
8727
330
AD45
100
AcDbEntity
  8
0
 62
     7
100
AcDbTrace
 10
-442.0038069989105
 20
3809.690952834257
 30
0.0
 11
-432.0038069989106
 21
3809.690952834257
 31
0.0
 12
-437.0038069989106
 22
3779.690952834255
 32
0.0
 13
-437.0038069989106
 23
3779.690952834255
 33
0.0
  0
LINE
  5
8754
330
AD45
100
AcDbEntity
  8
0
 62
     7
100
AcDbLine
 10
-312.7342695255076
 20
3799.690952834257
 30
0.0
 11
-292.7342695255069
 21
3799.690952834255
 31
0.0
  0
LINE
  5
8758
330
AD45
100
AcDbEntity
  8
0
 62
     7
100
AcDbLine
 10
-332.9048153334588
 20
4599.690952834253
 30
0.0
 11
-380.4893080177441
 21
4599.690952834253
 31
0.0
  0
LINE
  5
8759
330
AD45
100
AcDbEntity
  8
0
 62
     7
100
AcDbLine
 10
-332.7342695255072
 20
3799.690952834257
 30
0.0
 11
-380.3187622097659
 21
3799.690952834257
 31
0.0
  0
LINE
  5
875A
330
AD45
100
AcDbEntity
  8
0
 62
     7
100
AcDbLine
 10
-360.318762209766
 20
4569.690952834252
 30
0.0
 11
-360.318762209766
 21
4428.707940043633
 31
0.0
  0
LINE
  5
875B
330
AD45
100
AcDbEntity
  8
0
 62
     7
100
AcDbLine
 10
-360.3187622097658
 20
3829.690952834256
 30
0.0
 11
-360.3187622097658
 21
4043.627324598593
 31
0.0
  0
SOLID
  5
875C
330
AD45
100
AcDbEntity
  8
0
 62
     7
100
AcDbTrace
 10
-365.489308017744
 20
4569.690952834252
 30
0.0
 11
-355.489308017744
 21
4569.690952834252
 31
0.0
 12
-360.4893080177443
 22
4599.690952834253
 32
0.0
 13
-360.4893080177443
 23
4599.690952834253
 33
0.0
  0
SOLID
  5
875D
330
AD45
100
AcDbEntity
  8
0
 62
     7
100
AcDbTrace
 10
-365.3187622097655
 20
3829.690952834256
 30
0.0
 11
-355.3187622097659
 21
3829.690952834256
 31
0.0
 12
-360.3187622097658
 22
3799.690952834257
 32
0.0
 13
-360.3187622097658
 23
3799.690952834257
 33
0.0
  0
LINE
  5
875F
330
AD45
100
AcDbEntity
  8
0
 62
     7
100
AcDbLine
 10
1603.11326597943
 20
-47.13134345226399
 30
0.0
 11
1603.11326597943
 21
-27.13134345226391
 31
0.0
  0
LINE
  5
8762
330
AD45
100
AcDbEntity
  8
0
 62
     7
100
AcDbLine
 10
2792.113265979429
 20
-47.1313434522641
 30
0.0
 11
2792.113265979429
 21
-27.13134345226391
 31
0.0
  0
LINE
  5
8792
330
AD45
100
AcDbEntity
  8
0
 62
     7
100
AcDbLine
 10
-332.9048153334588
 20
4599.690952834253
 30
0.0
 11
-380.3187622097734
 21
4599.690952834253
 31
0.0
  0
LINE
  5
8799
330
AD45
100
AcDbEntity
  8
0
 62
     7
100
AcDbLine
 10
1603.11326597943
 20
-67.1313434522639
 30
0.0
 11
1603.11326597943
 21
-109.6922752610791
 31
0.0
  0
LINE
  5
879A
330
AD45
100
AcDbEntity
  8
0
 62
     7
100
AcDbLine
 10
1399.11326597943
 20
-24.13134345226388
 30
0.0
 11
1399.11326597943
 21
-109.6922752610788
 31
0.0
  0
LINE
  5
879B
330
AD45
100
AcDbEntity
  8
0
 62
     7
100
AcDbLine
 10
1573.113265979429
 20
-89.69227526107911
 30
0.0
 11
1429.113265979431
 21
-89.69227526107884
 31
0.0
  0
LINE
  5
879C
330
AD45
100
AcDbEntity
  8
0
 62
     7
100
AcDbLine
 10
1399.11326597943
 20
-89.69227526107884
 30
0.0
 11
1369.113265979431
 21
-89.69227526107884
 31
0.0
  0
SOLID
  5
879D
330
AD45
100
AcDbEntity
  8
0
 62
     7
100
AcDbTrace
 10
1573.113265979429
 20
-84.69227526107923
 30
0.0
 11
1573.113265979429
 21
-94.69227526107912
 31
0.0
 12
1603.11326597943
 22
-89.69227526107911
 32
0.0
 13
1603.11326597943
 23
-89.69227526107911
 33
0.0
  0
SOLID
  5
879E
330
AD45
100
AcDbEntity
  8
0
 62
     7
100
AcDbTrace
 10
1429.113265979431
 20
-84.69227526107886
 30
0.0
 11
1429.113265979431
 21
-94.69227526107884
 31
0.0
 12
1399.11326597943
 22
-89.69227526107884
 32
0.0
 13
1399.11326597943
 23
-89.69227526107884
 33
0.0
  0
LINE
  5
8942
330
AD45
100
AcDbEntity
  8
0
100
AcDbLine
 10
4051.121982417341
 20
4820.593807197276
 30
0.0
 11
-482.5073820823073
 21
4820.593807197276
 31
0.0
  0
TEXT
  5
8946
330
AD45
100
AcDbEntity
  8
0
 62
     7
100
AcDbText
 10
-345.3187622097666
 20
4063.914893884947
 30
0.0
 40
30.0
  1
800 MTG CTRS
 50
90.0
100
AcDbText
  0
TEXT
  5
8947
330
AD45
100
AcDbEntity
  8
0
 62
     7
100
AcDbText
 10
-422.0038069989112
 20
4102.986990835616
 30
0.0
 40
30.0
  1
841 O/D
 50
90.0
100
AcDbText
  0
TEXT
  5
8948
330
AD45
100
AcDbEntity
  8
0
 62
     7
100
AcDbText
 10
1103.364151411158
 20
4168.438336874387
 30
0.0
 40
30.0
  1
783
 50
90.0
100
AcDbText
  0
TEXT
  5
8949
330
AD45
100
AcDbEntity
  8
0
 62
     7
100
AcDbText
 10
1283.77042709911
 20
-104.6922752610787
 30
0.0
 40
30.0
  1
204
100
AcDbText
  0
TEXT
  5
894A
330
AD45
100
AcDbEntity
  8
0
 62
     7
100
AcDbText
 10
1291.720978501355
 20
528.7384132523961
 30
0.0
 40
30.0
  1
1330 O/A
 50
90.0
100
AcDbText
  0
TEXT
  5
894B
330
AD45
100
AcDbEntity
  8
0
 62
     7
100
AcDbText
 10
2070.797072982397
 20
-104.7583453813041
 30
0.0
 40
30.0
  1
1189 CTRS
100
AcDbText
  0
TEXT
  5
894C
330
AD45
100
AcDbEntity
  8
0
 62
     7
100
AcDbText
 10
2083.118277232487
 20
-166.745826231405
 30
0.0
 40
30.0
  1
1596 O/D
100
AcDbText
  0
LWPOLYLINE
  5
9073
330
AD45
100
AcDbEntity
  8
0
100
AcDbPolyline
 90
        4
 70
     1
 43
0.0
 10
1034.265730474491
 20
4513.690952834259
 10
1034.265730474491
 20
3928.690952834259
 10
1020.265730474492
 20
3928.690952834259
 10
1020.265730474492
 20
4513.690952834259
  0
LINE
  5
90F2
330
AD45
100
AcDbEntity
  8
0
 62
     7
100
AcDbLine
 10
2852.063265979428
 20
3782.190952834258
 30
0.0
 11
2852.063265979428
 21
3808.190952834259
 31
0.0
  0
LINE
  5
90F3
330
AD45
100
AcDbEntity
  8
0
 62
     7
100
AcDbLine
 10
2722.163265979429
 20
3782.190952834258
 30
0.0
 11
2722.163265979429
 21
3808.190952834257
 31
0.0
  0
LINE
  5
90F4
330
AD45
100
AcDbEntity
  8
0
 62
     7
100
AcDbLine
 10
2722.163265979429
 20
3782.190952834258
 30
0.0
 11
2852.063265979428
 21
3782.190952834258
 31
0.0
  0
LINE
  5
90F6
330
AD45
100
AcDbEntity
  8
0
 62
     7
100
AcDbLine
 10
1675.063265979429
 20
4617.190952834257
 30
0.0
 11
1675.063265979429
 21
4591.190952834255
 31
0.0
  0
LINE
  5
90F7
330
AD45
100
AcDbEntity
  8
0
 62
     7
100
AcDbLine
 10
1545.163265979429
 20
4617.190952834257
 30
0.0
 11
1545.163265979429
 21
4591.190952834256
 31
0.0
  0
LINE
  5
90F8
330
AD45
100
AcDbEntity
  8
0
 62
     7
100
AcDbLine
 10
1545.163265979429
 20
4617.190952834257
 30
0.0
 11
1675.063265979429
 21
4617.190952834257
 31
0.0
  0
LINE
  5
90F9
330
AD45
100
AcDbEntity
  8
0
 62
     7
100
AcDbLine
 10
2852.063265979428
 20
4617.190952834257
 30
0.0
 11
2852.063265979428
 21
4591.190952834255
 31
0.0
  0
LINE
  5
90FA
330
AD45
100
AcDbEntity
  8
0
 62
     7
100
AcDbLine
 10
2722.163265979429
 20
4617.190952834257
 30
0.0
 11
2722.163265979429
 21
4591.190952834256
 31
0.0
  0
LINE
  5
90FB
330
AD45
100
AcDbEntity
  8
0
 62
     7
100
AcDbLine
 10
2722.163265979429
 20
4617.190952834257
 30
0.0
 11
2852.063265979428
 21
4617.190952834257
 31
0.0
  0
LWPOLYLINE
  5
9103
330
AD45
100
AcDbEntity
  8
0
100
AcDbPolyline
 90
        4
 70
     1
 43
0.0
 10
1626.61326597943
 20
1299.868656547736
 10
2211.613265979429
 20
1299.868656547736
 10
2211.613265979429
 20
1285.868656547737
 10
1626.61326597943
 20
1285.868656547737
  0
LWPOLYLINE
  5
910C
330
AD45
100
AcDbEntity
  8
0
100
AcDbPolyline
 90
        4
 70
     1
 43
0.0
 10
2288.613265979429
 20
1299.868656547736
 10
2873.613265979431
 20
1299.868656547736
 10
2873.613265979431
 20
1285.868656547737
 10
2288.613265979429
 20
1285.868656547737
  0
LINE
  5
9181
330
AD45
100
AcDbEntity
  8
0
 62
     7
100
AcDbLine
 10
-302.7342695255072
 20
4619.690952834255
 30
0.0
 11
-301.5342695255084
 21
4619.690952834255
 31
0.0
  0
LINE
  5
9182
330
AD45
100
AcDbEntity
  8
0
 62
     7
100
AcDbLine
 10
-301.5342695255084
 20
4619.690952834255
 30
0.0
 11
-282.7842695255064
 21
4598.440952834255
 31
0.0
  0
LINE
  5
9183
330
AD45
100
AcDbEntity
  8
0
 62
     7
100
AcDbLine
 10
-312.7342695255076
 20
4599.690952834253
 30
0.0
 11
-292.7342695255072
 21
4599.690952834257
 31
0.0
  0
LINE
  5
9189
330
AD45
100
AcDbEntity
  8
0
 62
     7
100
AcDbLine
 10
-373.8783097231929
 20
3779.690952834255
 30
0.0
 11
-421.4628024074782
 21
3779.690952834255
 31
0.0
  0
LINE
  5
918A
330
AD45
100
AcDbEntity
  8
0
 62
     7
100
AcDbLine
 10
-373.7077639152419
 20
3799.690952834257
 30
0.0
 11
-421.2922565995001
 21
3799.690952834257
 31
0.0
  0
LINE
  5
918B
330
AD45
100
AcDbEntity
  8
0
 62
     7
100
AcDbLine
 10
-401.2922565995002
 20
3749.690952834255
 30
0.0
 11
-401.2922565995002
 21
3722.884583142838
 31
0.0
  0
SOLID
  5
918D
330
AD45
100
AcDbEntity
  8
0
 62
     7
100
AcDbTrace
 10
-406.462802407478
 20
3749.690952834255
 30
0.0
 11
-396.4628024074782
 21
3749.690952834255
 31
0.0
 12
-401.4628024074782
 22
3779.690952834255
 32
0.0
 13
-401.4628024074782
 23
3779.690952834255
 33
0.0
  0
SOLID
  5
918E
330
AD45
100
AcDbEntity
  8
0
 62
     7
100
AcDbTrace
 10
-406.2922565994998
 20
3829.690952834256
 30
0.0
 11
-396.2922565995003
 21
3829.690952834256
 31
0.0
 12
-401.2922565995002
 22
3799.690952834257
 32
0.0
 13
-401.2922565995002
 23
3799.690952834257
 33
0.0
  0
LINE
  5
918F
330
AD45
100
AcDbEntity
  8
0
 62
     7
100
AcDbLine
 10
-373.8783097231929
 20
3779.690952834255
 30
0.0
 11
-421.2922565995076
 21
3779.690952834255
 31
0.0
  0
TEXT
  5
9190
330
AD45
100
AcDbEntity
  8
0
 62
     7
100
AcDbText
 10
-386.2922565995011
 20
3664.571184482581
 30
0.0
 40
30.0
  1
20
 50
90.0
100
AcDbText
  0
LINE
  5
91A5
330
AD45
100
AcDbEntity
  8
0
 62
     7
100
AcDbLine
 10
-401.2922565994998
 20
3856.497322525675
 30
0.0
 11
-401.2922565994998
 21
3829.690952834256
 31
0.0
  0
LINE
  5
AD8A
330
AD45
100
AcDbEntity
  8
0
  6
PHANTOM2
100
AcDbLine
 10
1248.11326597943
 20
4741.190952834258
 30
0.0
 11
1248.11326597943
 21
3208.190952834258
 31
0.0
  0
LINE
  5
AD8D
330
AD45
100
AcDbEntity
  8
0
  6
PHANTOM2
100
AcDbLine
 10
2996.113265979431
 20
3808.190952834256
 30
0.0
 11
3996.113265979431
 21
3808.190952834256
 31
0.0
  0
LINE
  5
AD8E
330
AD45
100
AcDbEntity
  8
0
  6
PHANTOM2
100
AcDbLine
 10
3996.113265979431
 20
4741.190952834258
 30
0.0
 11
3996.113265979431
 21
3808.190952834256
 31
0.0
  0
LINE
  5
ADAC
330
AD45
100
AcDbEntity
  8
0
  6
PHANTOM2
100
AcDbLine
 10
1248.11326597943
 20
3208.190952834258
 30
0.0
 11
2996.113265979431
 21
3208.190952834255
 31
0.0
  0
LINE
  5
ADAD
330
AD45
100
AcDbEntity
  8
0
  6
PHANTOM2
100
AcDbLine
 10
2996.113265979431
 20
3208.190952834255
 30
0.0
 11
2996.113265979431
 21
3808.190952834256
 31
0.0
  0
MTEXT
  5
ADAE
330
AD45
100
AcDbEntity
  8
0
100
AcDbMText
 10
1995.113719525026
 20
3700.822189112014
 30
0.0
 40
30.0
 41
475.8120462345541
 46
0.0
 71
     1
 72
     5
  1
ACCESS PANEL
  7
TITLE3
 73
     1
 44
1.0
101
Embedded Object
 70
     1
 10
1.0
 20
0.0
 30
0.0
 11
1995.113719525026
 21
3700.822189112014
 31
0.0
 40
475.8120462345541
 41
0.0
 42
339.9999999999999
 43
30.00000000000001
 71
     2
 72
     1
 44
475.8120462345541
 45
150.0
 73
     0
 74
     0
 46
0.0
  0
LINE
  5
ADAF
330
AD45
100
AcDbEntity
  8
0
  6
PHANTOM2
100
AcDbLine
 10
1399.11326597943
 20
3122.99797447686
 30
0.0
 11
1399.11326597943
 21
1285.868656547736
 31
0.0
  0
LINE
  5
ADB0
330
AD45
100
AcDbEntity
  8
0
  6
PHANTOM2
100
AcDbLine
 10
2995.113265979431
 20
3122.99797447686
 30
0.0
 11
2995.113265979431
 21
1285.868656547736
 31
0.0
  0
LINE
  5
ADB1
330
AD45
100
AcDbEntity
  8
0
  6
PHANTOM2
100
AcDbLine
 10
1248.11326597943
 20
4741.190952834258
 30
0.0
 11
3996.113265979431
 21
4741.190952834258
 31
0.0
  0
VIEWPORT
  5
900C
330
AD41
100
AcDbEntity
 67
     1
  8
0
348
AD05
100
AcDbViewport
 10
5.648750245101807
 20
3.866250083202451
 30
0.0
 40
19.97260784063401
 41
8.747896837850252
 68
     1
 69
     1
 12
5.648750245101807
 22
3.866250083202451
 13
0.0
 23
0.0
 14
10.0
 24
10.0
 15
10.0
 25
10.0
 16
0.0
 26
0.0
 36
1.0
 17
0.0
 27
0.0
 37
0.0
 42
50.0
 43
0.0
 44
0.0
 45
8.747896837850252
 50
0.0
 51
0.0
 72
   100
 90
    32800
  1

281
     0
 71
     0
 74
     0
110
0.0
120
0.0
130
0.0
111
1.0
121
0.0
131
0.0
112
0.0
122
1.0
132
0.0
 79
     0
146
0.0
170
     0
 61
     5
292
     1
282
     1
141
0.0
142
0.0
 63
   250
421
  3355443
1001
GENIUS_GENOBJ-N-SDF_13
1002
{
1000
OWNER
1000
GEN
1002
}
1001
GENIUS_GENODEF_13
1002
{
1000
HIER
1070
     0
1002
}
1002
{
1000
MANEDIT
1070
     0
1002
}
1002
{
1000
NOSEL
1070
     0
1002
}
1002
{
1000
BEHIND
1070
     0
1002
}
1002
{
1000
OTHER
1070
     0
1002
}
1002
{
1000
REACTOR
1002
}
1001
GENIUS_GENSCREG_15
1000
PF
1040
1.0
1000
DF
1040
1.0
1000
MIN
1011
-4.337553675215196
1021
-0.5076983357226759
1031
0.0
1000
MAX
1011
15.63505416541881
1021
8.240198502127576
1031
0.0
1000
FLAGS
1070
     4
  0
VIEWPORT
  5
9010
330
AD41
100
AcDbEntity
 67
     1
  8
0
348
AD05
100
AcDbViewport
 10
5.647083192359744
 20
3.865416838428165
 30
0.0
 40
9.03533310777559
 41
6.184666941485065
 68
     2
 69
     2
 12
2057.543746594443
 22
2332.344441907721
 13
0.0
 23
0.0
 14
10.0
 24
10.0
 15
10.0
 25
10.0
 16
0.0
 26
0.0
 36
1.0
 17
0.0
 27
0.0
 37
0.0
 42
50.0
 43
0.0
 44
0.0
 45
4713.100285012325
 50
0.0
 51
0.0
 72
   100
 90
    32800
  1

281
     0
 71
     0
 74
     0
110
0.0
120
0.0
130
0.0
111
1.0
121
0.0
131
0.0
112
0.0
122
1.0
132
0.0
 79
     0
146
0.0
170
     0
 61
     5
292
     1
282
     1
141
0.0
142
0.0
 63
   250
421
  3355443
1001
GENIUS_GENOBJ-N-SDF_13
1002
{
1000
OWNER
1000
GEN
1002
}
1001
GENIUS_GENODEF_13
1002
{
1000
HIER
1070
     0
1002
}
1002
{
1000
MANEDIT
1070
     0
1002
}
1002
{
1000
NOSEL
1070
     0
1002
}
1002
{
1000
BEHIND
1070
     0
1002
}
1002
{
1000
OTHER
1070
     0
1002
}
1002
{
1000
REACTOR
1002
}
1001
GENIUS_GENSCREG_15
1000
PF
1040
0.0
1000
DF
1040
0.0
1000
MIN
1011
1.129416638471947
1021
0.7730833676856337
1031
0.0
1000
MAX
1011
10.16474974624754
1021
6.957750309170696
1031
0.0
1000
FLAGS
1070
     4
  0
ENDSEC
  0
SECTION
  2
OBJECTS
  0
DICTIONARY
  5
ACE2
330
0
100
AcDbDictionary
281
     1
  3
ACAD_CIP_PREVIOUS_PRODUCT_INFO
350
AD7F
  3
ACAD_COLOR
350
AD38
  3
ACAD_DETAILVIEWSTYLE
350
AD3F
  3
ACAD_GROUP
350
ACE3
  3
ACAD_LAYOUT
350
AD37
  3
ACAD_MATERIAL
350
ACE6
  3
ACAD_MLEADERSTYLE
350
AD3B
  3
ACAD_MLINESTYLE
350
AD34
  3
ACAD_PLOTSETTINGS
350
AD36
  3
ACAD_PLOTSTYLENAME
350
ACE4
  3
ACAD_SCALELIST
350
AD18
  3
ACAD_SECTIONVIEWSTYLE
350
AD3D
  3
ACAD_TABLESTYLE
350
AD39
  3
ACAD_VISUALSTYLE
350
ACFF
  3
ACDB_RECOMPOSE_DATA
350
ADDD
  3
AcDbVariableDictionary
350
ADBF
  0
DICTIONARY
  5
ADBD
330
AD2A
100
AcDbDictionary
280
     1
281
     1
  3
ADSK_XREC_LAYER_RECONCILED
360
ADBE
  0
XRECORD
  5
AD7F
102
{ACAD_REACTORS
330
ACE2
102
}
330
ACE2
100
AcDbXrecord
280
     1
300
ACAD_E
300
2018
300
PDSU_F_S
  0
DICTIONARY
  5
AD38
102
{ACAD_REACTORS
330
ACE2
102
}
330
ACE2
100
AcDbDictionary
281
     1
  0
DICTIONARY
  5
AD3F
102
{ACAD_REACTORS
330
ACE2
102
}
330
ACE2
100
AcDbDictionary
281
     1
  3
Imperial24
350
AD40
  0
DICTIONARY
  5
ACE3
102
{ACAD_REACTORS
330
ACE2
102
}
330
ACE2
100
AcDbDictionary
281
     1
  0
DICTIONARY
  5
AD37
102
{ACAD_REACTORS
330
ACE2
102
}
330
ACE2
100
AcDbDictionary
281
     1
  3
Layout1
350
AD44
  3
Model
350
AD48
  0
DICTIONARY
  5
ACE6
102
{ACAD_REACTORS
330
ACE2
102
}
330
ACE2
100
AcDbDictionary
281
     1
  3
ByBlock
350
ACEF
  3
ByLayer
350
ACE7
  3
Global
350
ACF7
  0
DICTIONARY
  5
AD3B
102
{ACAD_REACTORS
330
ACE2
102
}
330
ACE2
100
AcDbDictionary
281
     1
  3
Standard
350
AD3C
  0
DICTIONARY
  5
AD34
102
{ACAD_REACTORS
330
ACE2
102
}
330
ACE2
100
AcDbDictionary
281
     1
  3
Standard
350
AD35
  0
DICTIONARY
  5
AD36
102
{ACAD_REACTORS
330
ACE2
102
}
330
ACE2
100
AcDbDictionary
281
     1
  0
ACDBDICTIONARYWDFLT
  5
ACE4
102
{ACAD_REACTORS
330
ACE2
102
}
330
ACE2
100
AcDbDictionary
281
     1
  3
Normal
350
ACE5
100
AcDbDictionaryWithDefault
340
ACE5
  0
DICTIONARY
  5
AD18
102
{ACAD_REACTORS
330
ACE2
102
}
330
ACE2
100
AcDbDictionary
281
     1
  3
A0
350
AD19
  3
A1
350
AD1A
  3
A2
350
AD1B
  3
A3
350
AD1C
  3
A4
350
AD1D
  3
A5
350
AD1E
  3
A6
350
AD1F
  3
A7
350
AD20
  3
A8
350
AD21
  3
A9
350
AD22
  3
B0
350
AD23
  3
B1
350
AD24
  3
B2
350
AD25
  3
B3
350
AD26
  3
B4
350
AD27
  3
B5
350
AD28
  3
B6
350
AD29
  0
DICTIONARY
  5
AD3D
102
{ACAD_REACTORS
330
ACE2
102
}
330
ACE2
100
AcDbDictionary
281
     1
  3
Imperial24
350
AD3E
  0
DICTIONARY
  5
AD39
102
{ACAD_REACTORS
330
ACE2
102
}
330
ACE2
100
AcDbDictionary
281
     1
  3
Standard
350
AD3A
  0
DICTIONARY
  5
ACFF
102
{ACAD_REACTORS
330
ACE2
102
}
330
ACE2
100
AcDbDictionary
281
     1
  3
2dWireframe
350
AD05
  3
Basic
350
AD04
  3
Brighten
350
AD0B
  3
ColorChange
350
AD0F
  3
Conceptual
350
AD08
  3
Dim
350
AD0A
  3
EdgeColorOff
350
AD17
  3
Facepattern
350
AD0E
  3
Flat
350
AD00
  3
FlatWithEdges
350
AD01
  3
Gouraud
350
AD02
  3
GouraudWithEdges
350
AD03
  3
Hidden
350
AD07
  3
JitterOff
350
AD15
  3
Linepattern
350
AD0D
  3
OverhangOff
350
AD16
  3
Realistic
350
AD09
  3
Shaded
350
AD14
  3
Shaded with edges
350
AD13
  3
Shades of Gray
350
AD10
  3
Sketchy
350
AD11
  3
Thicken
350
AD0C
  3
Wireframe
350
AD06
  3
X-Ray
350
AD12
  0
XRECORD
  5
ADDD
102
{ACAD_REACTORS
330
ACE2
102
}
330
ACE2
100
AcDbXrecord
280
     1
 90
        1
330
AD3A
  0
DICTIONARY
  5
ADBF
102
{ACAD_REACTORS
330
ACE2
102
}
330
ACE2
100
AcDbDictionary
281
     1
  3
CANNOSCALE
350
ADC5
  3
CMLEADERSTYLE
350
ADC1
  3
CTABLESTYLE
350
ADC0
  3
CVIEWDETAILSTYLE
350
ADC2
  3
CVIEWSECTIONSTYLE
350
ADC3
  3
LAYEREVAL
350
ADC7
  3
LAYERNOTIFY
350
ADC8
  3
LIGHTINGUNITS
350
ADC6
  3
MSLTSCALE
350
ADC4
  0
XRECORD
  5
ADBE
102
{ACAD_REACTORS
330
ADBD
102
}
330
ADBD
100
AcDbXrecord
280
     1
290
     1
  0
ACDBDETAILVIEWSTYLE
  5
AD40
102
{ACAD_REACTORS
330
AD3F
102
}
330
AD3F
100
AcDbModelDocViewStyle
 70
     0
  3
Imperial24
290
     0
300
Imperial24
 90
        0
100
AcDbDetailViewStyle
 70
     0
 71
     0
 90
        3
 71
     1
340
AD2B
 62
   256
 40
0.24
340
0
 62
   256
 40
0.24
300

 40
0.36
280
     3
 71
     2
340
AD32
 90
       25
 62
   256
 71
     3
340
AD2B
 62
   256
 40
0.24
 90
        1
 40
0.75
 90
        1
300
%<\AcVar ViewType \f "%tc1">% %<\AcVar ViewDetailId>%\PSCALE %<\AcVar ViewScale \f "%sn">%
 71
     4
340
AD32
 90
       25
 62
   256
340
AD32
 90
       25
 62
   256
280
     0
  0
LAYOUT
  5
AD44
102
{ACAD_REACTORS
330
AD37
102
}
330
AD37
100
AcDbPlotSettings
  1

  2
\\TZ-AKL-PRT1\TZ-AKL-CUS2
  4

  6

 40
0.0
 41
0.0
 42
0.0
 43
0.0
 44
0.0
 45
0.0
 46
0.0
 47
0.0
 48
0.0
 49
0.0
140
0.0
141
0.0
142
1.0
143
1.0
 70
   688
 72
     0
 73
     0
 74
     5
  7

 75
    16
147
1.0
 76
     0
 77
     2
 78
   300
148
0.0
149
0.0
100
AcDbLayout
  1
Layout1
 70
     0
 71
     1
 10
-0.1979161059762549
 20
-0.2679166643638311
 11
11.49541659617987
 21
8.000416830768735
 12
0.0
 22
0.0
 32
0.0
 14
1.129416638471947
 24
0.7730833676856337
 34
0.0
 15
10.16474974624754
 25
6.957750309170696
 35
0.0
146
0.0
 13
0.0
 23
0.0
 33
0.0
 16
1.0
 26
0.0
 36
0.0
 17
0.0
 27
1.0
 37
0.0
 76
     0
330
AD41
331
900C
  0
LAYOUT
  5
AD48
102
{ACAD_REACTORS
330
AD37
102
}
330
AD37
100
AcDbPlotSettings
  1

  2
\\TZ-AKL-PRT1\TZ-AKL-CUS2
  4

  6

 40
0.0
 41
0.0
 42
0.0
 43
0.0
 44
0.0
 45
0.0
 46
0.0
 47
0.0
 48
0.0
 49
0.0
140
0.0
141
0.0
142
1.0
143
1.0
 70
  1712
 72
     0
 73
     0
 74
     0
  7

 75
     0
147
1.0
 76
     0
 77
     2
 78
   300
148
0.0
149
0.0
100
AcDbLayout
  1
Model
 70
     1
 71
     0
 10
0.0
 20
0.0
 11
12.0
 21
9.0
 12
0.0
 22
0.0
 32
0.0
 14
0.0
 24
0.0
 34
0.0
 15
0.0
 25
0.0
 35
0.0
146
0.0
 13
0.0
 23
0.0
 33
0.0
 16
1.0
 26
0.0
 36
0.0
 17
0.0
 27
1.0
 37
0.0
 76
     0
330
AD45
331
AD4A
  0
MATERIAL
  5
ACEF
102
{ACAD_XDICTIONARY
360
ACF0
102
}
102
{ACAD_REACTORS
330
ACE6
102
}
330
ACE6
100
AcDbMaterial
  1
ByBlock
 72
     0
 43
0.0208333333333333
 43
0.0
 43
0.0
 43
0.0
 43
0.0
 43
0.0208333333333333
 43
0.0
 43
0.0
 43
0.0
 43
0.0
 43
1.0
 43
0.0
 43
0.0
 43
0.0
 43
0.0
 43
1.0
 77
     0
 47
0.0208333333333333
 47
0.0
 47
0.0
 47
0.0
 47
0.0
 47
0.0208333333333333
 47
0.0
 47
0.0
 47
0.0
 47
0.0
 47
1.0
 47
0.0
 47
0.0
 47
0.0
 47
0.0
 47
1.0
171
     0
 49
0.0208333333333333
 49
0.0
 49
0.0
 49
0.0
 49
0.0
 49
0.0208333333333333
 49
0.0
 49
0.0
 49
0.0
 49
0.0
 49
1.0
 49
0.0
 49
0.0
 49
0.0
 49
0.0
 49
1.0
175
     0
142
0.0208333333333333
142
0.0
142
0.0
142
0.0
142
0.0
142
0.0208333333333333
142
0.0
142
0.0
142
0.0
142
0.0
142
1.0
142
0.0
142
0.0
142
0.0
142
0.0
142
1.0
179
     0
144
0.0208333333333333
144
0.0
144
0.0
144
0.0
144
0.0
144
0.0208333333333333
144
0.0
144
0.0
144
0.0
144
0.0
144
1.0
144
0.0
144
0.0
144
0.0
144
0.0
144
1.0
147
0.0208333333333333
147
0.0
147
0.0
147
0.0
147
0.0
147
0.0208333333333333
147
0.0
147
0.0
147
0.0
147
0.0
147
1.0
147
0.0
147
0.0
147
0.0
147
0.0
147
1.0
  0
MATERIAL
  5
ACE7
102
{ACAD_XDICTIONARY
360
ACE8
102
}
102
{ACAD_REACTORS
330
ACE6
102
}
330
ACE6
100
AcDbMaterial
  1
ByLayer
 72
     0
 43
0.0208333333333333
 43
0.0
 43
0.0
 43
0.0
 43
0.0
 43
0.0208333333333333
 43
0.0
 43
0.0
 43
0.0
 43
0.0
 43
1.0
 43
0.0
 43
0.0
 43
0.0
 43
0.0
 43
1.0
 77
     0
 47
0.0208333333333333
 47
0.0
 47
0.0
 47
0.0
 47
0.0
 47
0.0208333333333333
 47
0.0
 47
0.0
 47
0.0
 47
0.0
 47
1.0
 47
0.0
 47
0.0
 47
0.0
 47
0.0
 47
1.0
171
     0
 49
0.0208333333333333
 49
0.0
 49
0.0
 49
0.0
 49
0.0
 49
0.0208333333333333
 49
0.0
 49
0.0
 49
0.0
 49
0.0
 49
1.0
 49
0.0
 49
0.0
 49
0.0
 49
0.0
 49
1.0
175
     0
142
0.0208333333333333
142
0.0
142
0.0
142
0.0
142
0.0
142
0.0208333333333333
142
0.0
142
0.0
142
0.0
142
0.0
142
1.0
142
0.0
142
0.0
142
0.0
142
0.0
142
1.0
179
     0
144
0.0208333333333333
144
0.0
144
0.0
144
0.0
144
0.0
144
0.0208333333333333
144
0.0
144
0.0
144
0.0
144
0.0
144
1.0
144
0.0
144
0.0
144
0.0
144
0.0
144
1.0
147
0.0208333333333333
147
0.0
147
0.0
147
0.0
147
0.0
147
0.0208333333333333
147
0.0
147
0.0
147
0.0
147
0.0
147
1.0
147
0.0
147
0.0
147
0.0
147
0.0
147
1.0
  0
MATERIAL
  5
ACF7
102
{ACAD_XDICTIONARY
360
ACF8
102
}
102
{ACAD_REACTORS
330
ACE6
102
}
330
ACE6
100
AcDbMaterial
  1
Global
 72
     0
 43
0.0208333333333333
 43
0.0
 43
0.0
 43
0.0
 43
0.0
 43
0.0208333333333333
 43
0.0
 43
0.0
 43
0.0
 43
0.0
 43
1.0
 43
0.0
 43
0.0
 43
0.0
 43
0.0
 43
1.0
 77
     0
 47
0.0208333333333333
 47
0.0
 47
0.0
 47
0.0
 47
0.0
 47
0.0208333333333333
 47
0.0
 47
0.0
 47
0.0
 47
0.0
 47
1.0
 47
0.0
 47
0.0
 47
0.0
 47
0.0
 47
1.0
171
     0
 49
0.0208333333333333
 49
0.0
 49
0.0
 49
0.0
 49
0.0
 49
0.0208333333333333
 49
0.0
 49
0.0
 49
0.0
 49
0.0
 49
1.0
 49
0.0
 49
0.0
 49
0.0
 49
0.0
 49
1.0
175
     0
142
0.0208333333333333
142
0.0
142
0.0
142
0.0
142
0.0
142
0.0208333333333333
142
0.0
142
0.0
142
0.0
142
0.0
142
1.0
142
0.0
142
0.0
142
0.0
142
0.0
142
1.0
179
     0
144
0.0208333333333333
144
0.0
144
0.0
144
0.0
144
0.0
144
0.0208333333333333
144
0.0
144
0.0
144
0.0
144
0.0
144
1.0
144
0.0
144
0.0
144
0.0
144
0.0
144
1.0
147
0.0208333333333333
147
0.0
147
0.0
147
0.0
147
0.0
147
0.0208333333333333
147
0.0
147
0.0
147
0.0
147
0.0
147
1.0
147
0.0
147
0.0
147
0.0
147
0.0
147
1.0
  0
MLEADERSTYLE
  5
AD3C
102
{ACAD_REACTORS
330
AD3B
102
}
330
AD3B
100
AcDbMLeaderStyle
179
     2
170
     2
171
     1
172
     0
 90
        2
 40
0.0
 41
0.0
173
     1
 91
-1056964608
340
AD30
 92
       -2
290
     1
 42
0.09
291
     1
 43
0.36
  3
Standard
 44
0.18
300

342
AD2B
174
     1
178
     6
175
     1
176
     0
 93
-1056964608
 45
0.18
292
     0
297
     0
 46
0.18
 94
-1056964608
 47
1.0
 49
1.0
140
1.0
293
     1
141
0.0
294
     1
177
     0
142
1.0
295
     0
296
     0
143
0.125
271
     0
272
     9
273
     9
298
     0
  0
MLINESTYLE
  5
AD35
102
{ACAD_REACTORS
330
AD34
102
}
330
AD34
100
AcDbMlineStyle
  2
STANDARD
 70
     0
  3

 62
   256
 51
90.0
 52
90.0
 71
     2
 49
0.5
 62
   256
  6
BYLAYER
 49
-0.5
 62
   256
  6
BYLAYER
  0
ACDBPLACEHOLDER
  5
ACE5
102
{ACAD_REACTORS
330
ACE4
102
}
330
ACE4
  0
SCALE
  5
AD19
102
{ACAD_REACTORS
330
AD18
102
}
330
AD18
100
AcDbScale
 70
     0
300
1:1
140
1.0
141
1.0
290
     1
  0
SCALE
  5
AD1A
102
{ACAD_REACTORS
330
AD18
102
}
330
AD18
100
AcDbScale
 70
     0
300
1/128" = 1'-0"
140
0.0078125
141
12.0
290
     0
  0
SCALE
  5
AD1B
102
{ACAD_REACTORS
330
AD18
102
}
330
AD18
100
AcDbScale
 70
     0
300
1/64" = 1'-0"
140
0.015625
141
12.0
290
     0
  0
SCALE
  5
AD1C
102
{ACAD_REACTORS
330
AD18
102
}
330
AD18
100
AcDbScale
 70
     0
300
1/32" = 1'-0"
140
0.03125
141
12.0
290
     0
  0
SCALE
  5
AD1D
102
{ACAD_REACTORS
330
AD18
102
}
330
AD18
100
AcDbScale
 70
     0
300
1/16" = 1'-0"
140
0.0625
141
12.0
290
     0
  0
SCALE
  5
AD1E
102
{ACAD_REACTORS
330
AD18
102
}
330
AD18
100
AcDbScale
 70
     0
300
3/32" = 1'-0"
140
0.09375
141
12.0
290
     0
  0
SCALE
  5
AD1F
102
{ACAD_REACTORS
330
AD18
102
}
330
AD18
100
AcDbScale
 70
     0
300
1/8" = 1'-0"
140
0.125
141
12.0
290
     0
  0
SCALE
  5
AD20
102
{ACAD_REACTORS
330
AD18
102
}
330
AD18
100
AcDbScale
 70
     0
300
3/16" = 1'-0"
140
0.1875
141
12.0
290
     0
  0
SCALE
  5
AD21
102
{ACAD_REACTORS
330
AD18
102
}
330
AD18
100
AcDbScale
 70
     0
300
1/4" = 1'-0"
140
0.25
141
12.0
290
     0
  0
SCALE
  5
AD22
102
{ACAD_REACTORS
330
AD18
102
}
330
AD18
100
AcDbScale
 70
     0
300
3/8" = 1'-0"
140
0.375
141
12.0
290
     0
  0
SCALE
  5
AD23
102
{ACAD_REACTORS
330
AD18
102
}
330
AD18
100
AcDbScale
 70
     0
300
1/2" = 1'-0"
140
0.5
141
12.0
290
     0
  0
SCALE
  5
AD24
102
{ACAD_REACTORS
330
AD18
102
}
330
AD18
100
AcDbScale
 70
     0
300
3/4" = 1'-0"
140
0.75
141
12.0
290
     0
  0
SCALE
  5
AD25
102
{ACAD_REACTORS
330
AD18
102
}
330
AD18
100
AcDbScale
 70
     0
300
1" = 1'-0"
140
1.0
141
12.0
290
     0
  0
SCALE
  5
AD26
102
{ACAD_REACTORS
330
AD18
102
}
330
AD18
100
AcDbScale
 70
     0
300
1-1/2" = 1'-0"
140
1.5
141
12.0
290
     0
  0
SCALE
  5
AD27
102
{ACAD_REACTORS
330
AD18
102
}
330
AD18
100
AcDbScale
 70
     0
300
3" = 1'-0"
140
3.0
141
12.0
290
     0
  0
SCALE
  5
AD28
102
{ACAD_REACTORS
330
AD18
102
}
330
AD18
100
AcDbScale
 70
     0
300
6" = 1'-0"
140
6.0
141
12.0
290
     0
  0
SCALE
  5
AD29
102
{ACAD_REACTORS
330
AD18
102
}
330
AD18
100
AcDbScale
 70
     0
300
1'-0" = 1'-0"
140
12.0
141
12.0
290
     0
  0
ACDBSECTIONVIEWSTYLE
  5
AD3E
102
{ACAD_REACTORS
330
AD3D
102
}
330
AD3D
100
AcDbModelDocViewStyle
 70
     0
  3
Imperial24
290
     0
300
Imperial24
 90
        0
100
AcDbSectionViewStyle
 70
     0
 71
     0
 90
       78
 71
     1
340
AD2B
 62
   256
 40
0.24
340
0
340
0
 62
   256
 40
0.24
300
I, O, Q, S, X, Z
 40
0.48
 90
        3
 40
0.18
 90
        1
 71
     2
340
AD32
 90
       25
 62
   256
340
AD32
 90
       50
 62
   256
 40
0.24
 40
0.0
 40
0.24
 71
     3
340
AD2B
 62
   256
 40
0.24
 90
        1
 40
0.75
 90
        1
300
%<\AcVar ViewType \f "%tc1">% %<\AcVar ViewSectionStartId>%-%<\AcVar ViewSectionEndId>%\PSCALE %<\AcVar ViewScale \f "%sn">%
 71
     4
 62
   256
 62
   257
300
ANSI31
 40
1.0
 90
        0
290
     0
290
     0
 90
        6
 40
0.0
 40
1.570796326794896
 40
0.2617993877991494
 40
1.308996938995747
 40
-0.2617993877991494
 40
1.832595714594045
  0
TABLESTYLE
  5
AD3A
102
{ACAD_XDICTIONARY
360
ADC9
102
}
102
{ACAD_REACTORS
330
AD39
102
}
330
AD39
100
AcDbTableStyle
280
     0
  3
Standard
 70
     0
 71
     0
 40
0.06
 41
0.06
280
     0
281
     0
  7
STANDARD
140
0.18
170
     2
 62
     0
 63
     7
283
     0
 90
      512
 91
        0
  1

274
    -2
284
     1
 64
     0
275
    -2
285
     1
 65
     0
276
    -2
286
     1
 66
     0
277
    -2
287
     1
 67
     0
278
    -2
288
     1
 68
     0
279
    -2
289
     1
 69
     0
  7
STANDARD
140
0.25
170
     5
 62
     0
 63
     7
283
     0
 90
      512
 91
        0
  1

274
    -2
284
     1
 64
     0
275
    -2
285
     1
 65
     0
276
    -2
286
     1
 66
     0
277
    -2
287
     1
 67
     0
278
    -2
288
     1
 68
     0
279
    -2
289
     1
 69
     0
  7
STANDARD
140
0.18
170
     5
 62
     0
 63
     7
283
     0
 90
      512
 91
        0
  1

274
    -2
284
     1
 64
     0
275
    -2
285
     1
 65
     0
276
    -2
286
     1
 66
     0
277
    -2
287
     1
 67
     0
278
    -2
288
     1
 68
     0
279
    -2
289
     1
 69
     0
  0
VISUALSTYLE
  5
AD05
102
{ACAD_REACTORS
330
ACFF
102
}
330
ACFF
100
AcDbVisualStyle
  2
2dWireframe
 70
     4
177
     3
291
     0
 70
    58
 90
        0
176
     1
 90
        2
176
     1
 90
        0
176
     1
 90
        0
176
     1
 40
0.6
176
     1
 40
30.0
176
     1
 62
     7
420
 16777215
176
     1
 90
        1
176
     1
 90
        4
176
     1
 62
     7
176
     1
 62
   257
176
     1
 90
        1
176
     1
 90
        1
176
     1
 40
1.0
176
     1
 90
        0
176
     1
 62
   257
176
     1
 40
1.0
176
     1
 90
        1
176
     1
 90
        6
176
     1
 90
        2
176
     1
 62
     7
176
     1
 90
        5
176
     1
 90
        0
176
     1
 90
        0
176
     1
290
     0
176
     1
 90
        1
176
     1
 40
0.0
176
     1
 90
        0
176
     1
290
     1
176
     1
290
     1
176
     1
290
     0
176
     1
290
     0
176
     1
290
     0
176
     1
290
     0
176
     1
290
     0
176
     1
290
     0
176
     1
290
     0
176
     1
 90
       50
176
     1
 40
0.0
176
     1
 40
1.0
176
     1
 90
        0
176
     1
 62
    18
176
     1
 90
       50
176
     1
 90
        3
176
     1
 62
     5
420
      255
176
     1
290
     0
176
     1
 90
       50
176
     1
 90
       50
176
     1
 90
       50
176
     1
290
     0
176
     1
 90
       50
176
     1
 62
   256
176
     0
 40
1.0
176
     0
 90
        2
176
     1
  1
strokes_ogs.tif
176
     1
290
     0
176
     1
 40
1.0
176
     1
 40
1.0
176
     1
  0
VISUALSTYLE
  5
AD04
102
{ACAD_REACTORS
330
ACFF
102
}
330
ACFF
100
AcDbVisualStyle
  2
Basic
 70
     7
177
     3
291
     1
 70
    58
 90
        1
176
     1
 90
        0
176
     1
 90
        1
176
     1
 90
        0
176
     1
 40
0.6
176
     1
 40
30.0
176
     1
 62
     7
420
 16777215
176
     1
 90
        0
176
     1
 90
        4
176
     1
 62
     7
176
     1
 62
   257
176
     1
 90
        1
176
     1
 90
        1
176
     1
 40
1.0
176
     1
 90
        8
176
     1
 62
     7
176
     1
 40
1.0
176
     1
 90
        1
176
     1
 90
        6
176
     1
 90
        2
176
     1
 62
     7
176
     1
 90
        5
176
     1
 90
        0
176
     1
 90
        0
176
     1
290
     0
176
     1
 90
        1
176
     1
 40
0.0
176
     1
 90
        0
176
     1
290
     0
176
     1
290
     1
176
     1
290
     1
176
     1
290
     0
176
     1
290
     0
176
     1
290
     0
176
     1
290
     0
176
     1
290
     0
176
     1
290
     0
176
     1
 90
       50
176
     1
 40
0.0
176
     1
 40
1.0
176
     1
 90
        0
176
     1
 62
    18
176
     1
 90
       50
176
     1
 90
        3
176
     1
 62
     5
420
      255
176
     1
290
     0
176
     1
 90
       50
176
     1
 90
       50
176
     1
 90
       50
176
     1
290
     0
176
     1
 90
       50
176
     1
 62
   256
176
     0
 40
1.0
176
     0
 90
        2
176
     1
  1
strokes_ogs.tif
176
     1
290
     0
176
     1
 40
1.0
176
     1
 40
1.0
176
     1
  0
VISUALSTYLE
  5
AD0B
102
{ACAD_REACTORS
330
ACFF
102
}
330
ACFF
100
AcDbVisualStyle
  2
Brighten
 70
    12
177
     3
291
     1
 70
    58
 90
        2
176
     1
 90
        2
176
     1
 90
        0
176
     1
 90
        0
176
     1
 40
0.6
176
     1
 40
30.0
176
     1
 62
     7
420
 16777215
176
     1
 90
        1
176
     1
 90
        4
176
     1
 62
     7
176
     1
 62
   257
176
     1
 90
        1
176
     1
 90
        1
176
     1
 40
1.0
176
     1
 90
        8
176
     1
 62
     7
176
     1
 40
1.0
176
     1
 90
        1
176
     1
 90
        6
176
     1
 90
        2
176
     1
 62
     7
176
     1
 90
        5
176
     1
 90
        0
176
     1
 90
        0
176
     1
290
     0
176
     1
 90
        1
176
     1
 40
50.0
176
     1
 90
        0
176
     1
290
     0
176
     1
290
     1
176
     1
290
     1
176
     1
290
     0
176
     1
290
     0
176
     1
290
     0
176
     1
290
     0
176
     1
290
     0
176
     1
290
     0
176
     1
 90
       50
176
     1
 40
0.0
176
     1
 40
1.0
176
     1
 90
        0
176
     1
 62
    18
176
     1
 90
       50
176
     1
 90
        3
176
     1
 62
     5
420
      255
176
     1
290
     0
176
     1
 90
       50
176
     1
 90
       50
176
     1
 90
       50
176
     1
290
     0
176
     1
 90
       50
176
     1
 62
   256
176
     0
 40
1.0
176
     0
 90
        2
176
     1
  1
strokes_ogs.tif
176
     1
290
     0
176
     1
 40
1.0
176
     1
 40
1.0
176
     1
  0
VISUALSTYLE
  5
AD0F
102
{ACAD_REACTORS
330
ACFF
102
}
330
ACFF
100
AcDbVisualStyle
  2
ColorChange
 70
    16
177
     3
291
     1
 70
    58
 90
        2
176
     1
 90
        2
176
     1
 90
        3
176
     1
 90
        0
176
     1
 40
0.6
176
     1
 40
30.0
176
     1
 62
     8
420
  8421504
176
     1
 90
        1
176
     1
 90
        4
176
     1
 62
     7
176
     1
 62
   257
176
     1
 90
        1
176
     1
 90
        1
176
     1
 40
1.0
176
     1
 90
        8
176
     1
 62
     8
420
  8421504
176
     1
 40
1.0
176
     1
 90
        1
176
     1
 90
        6
176
     1
 90
        2
176
     1
 62
     7
176
     1
 90
        5
176
     1
 90
        0
176
     1
 90
        0
176
     1
290
     0
176
     1
 90
        1
176
     1
 40
0.0
176
     1
 90
        0
176
     1
290
     0
176
     1
290
     1
176
     1
290
     1
176
     1
290
     0
176
     1
290
     0
176
     1
290
     0
176
     1
290
     0
176
     1
290
     0
176
     1
290
     0
176
     1
 90
       50
176
     1
 40
0.0
176
     1
 40
1.0
176
     1
 90
        0
176
     1
 62
    18
176
     1
 90
       50
176
     1
 90
        3
176
     1
 62
     5
420
      255
176
     1
290
     0
176
     1
 90
       50
176
     1
 90
       50
176
     1
 90
       50
176
     1
290
     0
176
     1
 90
       50
176
     1
 62
   256
176
     0
 40
1.0
176
     0
 90
        2
176
     1
  1
strokes_ogs.tif
176
     1
290
     0
176
     1
 40
1.0
176
     1
 40
1.0
176
     1
  0
VISUALSTYLE
  5
AD08
102
{ACAD_REACTORS
330
ACFF
102
}
330
ACFF
100
AcDbVisualStyle
  2
Conceptual
 70
     9
177
     3
291
     0
 70
    58
 90
        3
176
     1
 90
        2
176
     1
 90
        0
176
     1
 90
        0
176
     1
 40
0.6
176
     1
 40
30.0
176
     1
 62
     7
420
 16777215
176
     1
 90
        2
176
     1
 90
        2
176
     1
 62
     7
176
     1
 62
   257
176
     1
 90
        1
176
     1
 90
        1
176
     1
 40
179.0
176
     1
 90
        8
176
     1
 62
     7
176
     1
 40
1.0
176
     1
 90
        1
176
     1
 90
        6
176
     1
 90
        2
176
     1
 62
     7
176
     1
 90
        3
176
     1
 90
        0
176
     1
 90
        0
176
     1
290
     0
176
     1
 90
        1
176
     1
 40
0.0
176
     1
 90
        0
176
     1
290
     0
176
     1
290
     1
176
     1
290
     1
176
     1
290
     0
176
     1
290
     0
176
     1
290
     0
176
     1
290
     0
176
     1
290
     0
176
     1
290
     0
176
     1
 90
       50
176
     1
 40
0.0
176
     1
 40
1.0
176
     1
 90
        0
176
     1
 62
    18
176
     1
 90
       50
176
     1
 90
        3
176
     1
 62
     5
420
      255
176
     1
290
     0
176
     1
 90
       50
176
     1
 90
       50
176
     1
 90
       50
176
     1
290
     0
176
     1
 90
       50
176
     1
 62
   256
176
     0
 40
1.0
176
     0
 90
        2
176
     1
  1
strokes_ogs.tif
176
     1
290
     0
176
     1
 40
1.0
176
     1
 40
1.0
176
     1
  0
VISUALSTYLE
  5
AD0A
102
{ACAD_REACTORS
330
ACFF
102
}
330
ACFF
100
AcDbVisualStyle
  2
Dim
 70
    11
177
     3
291
     1
 70
    58
 90
        2
176
     1
 90
        2
176
     1
 90
        0
176
     1
 90
        0
176
     1
 40
0.6
176
     1
 40
30.0
176
     1
 62
     7
420
 16777215
176
     1
 90
        1
176
     1
 90
        4
176
     1
 62
     7
176
     1
 62
   257
176
     1
 90
        1
176
     1
 90
        1
176
     1
 40
1.0
176
     1
 90
        8
176
     1
 62
     7
176
     1
 40
1.0
176
     1
 90
        1
176
     1
 90
        6
176
     1
 90
        2
176
     1
 62
     7
176
     1
 90
        5
176
     1
 90
        0
176
     1
 90
        0
176
     1
290
     0
176
     1
 90
        1
176
     1
 40
-50.0
176
     1
 90
        0
176
     1
290
     0
176
     1
290
     1
176
     1
290
     1
176
     1
290
     0
176
     1
290
     0
176
     1
290
     0
176
     1
290
     0
176
     1
290
     0
176
     1
290
     0
176
     1
 90
       50
176
     1
 40
0.0
176
     1
 40
1.0
176
     1
 90
        0
176
     1
 62
    18
176
     1
 90
       50
176
     1
 90
        3
176
     1
 62
     5
420
      255
176
     1
290
     0
176
     1
 90
       50
176
     1
 90
       50
176
     1
 90
       50
176
     1
290
     0
176
     1
 90
       50
176
     1
 62
   256
176
     0
 40
1.0
176
     0
 90
        2
176
     1
  1
strokes_ogs.tif
176
     1
290
     0
176
     1
 40
1.0
176
     1
 40
1.0
176
     1
  0
VISUALSTYLE
  5
AD17
102
{ACAD_REACTORS
330
ACFF
102
}
330
ACFF
100
AcDbVisualStyle
  2
EdgeColorOff
 70
    22
177
     3
291
     1
 70
    58
 90
        2
176
     0
 90
        2
176
     0
 90
        0
176
     0
 90
        0
176
     0
 40
0.6
176
     0
 40
30.0
176
     0
 62
     7
420
 16777215
176
     0
 90
        1
176
     0
 90
        4
176
     0
 62
     7
176
     0
 62
   257
176
     0
 90
        1
176
     0
 90
        1
176
     0
 40
1.0
176
     0
 90
        8
176
     2
 62
     7
176
     0
 40
1.0
176
     0
 90
        1
176
     0
 90
        6
176
     0
 90
        2
176
     0
 62
     7
176
     0
 90
        5
176
     0
 90
        0
176
     0
 90
        0
176
     0
290
     0
176
     0
 90
        1
176
     0
 40
0.0
176
     0
 90
        0
176
     0
290
     0
176
     1
290
     1
176
     1
290
     1
176
     1
290
     0
176
     1
290
     0
176
     1
290
     0
176
     1
290
     0
176
     1
290
     0
176
     1
290
     0
176
     1
 90
       50
176
     0
 40
0.0
176
     0
 40
1.0
176
     0
 90
        0
176
     0
 62
    18
176
     0
 90
       50
176
     0
 90
        3
176
     0
 62
     5
420
      255
176
     0
290
     0
176
     1
 90
       50
176
     0
 90
       50
176
     0
 90
       50
176
     0
290
     0
176
     1
 90
       50
176
     0
 62
   256
176
     0
 40
1.0
176
     0
 90
        2
176
     0
  1
strokes_ogs.tif
176
     0
290
     0
176
     1
 40
1.0
176
     0
 40
1.0
176
     0
  0
VISUALSTYLE
  5
AD0E
102
{ACAD_REACTORS
330
ACFF
102
}
330
ACFF
100
AcDbVisualStyle
  2
Facepattern
 70
    15
177
     3
291
     1
 70
    58
 90
        2
176
     1
 90
        2
176
     1
 90
        0
176
     1
 90
        0
176
     1
 40
0.6
176
     1
 40
30.0
176
     1
 62
     7
420
 16777215
176
     1
 90
        1
176
     1
 90
        4
176
     1
 62
     7
176
     1
 62
   257
176
     1
 90
        1
176
     1
 90
        1
176
     1
 40
1.0
176
     1
 90
        8
176
     1
 62
     7
176
     1
 40
1.0
176
     1
 90
        1
176
     1
 90
        6
176
     1
 90
        2
176
     1
 62
     7
176
     1
 90
        5
176
     1
 90
        0
176
     1
 90
        0
176
     1
290
     0
176
     1
 90
        1
176
     1
 40
0.0
176
     1
 90
        0
176
     1
290
     0
176
     1
290
     1
176
     1
290
     1
176
     1
290
     0
176
     1
290
     0
176
     1
290
     0
176
     1
290
     0
176
     1
290
     0
176
     1
290
     0
176
     1
 90
       50
176
     1
 40
0.0
176
     1
 40
1.0
176
     1
 90
        0
176
     1
 62
    18
176
     1
 90
       50
176
     1
 90
        3
176
     1
 62
     5
420
      255
176
     1
290
     0
176
     1
 90
       50
176
     1
 90
       50
176
     1
 90
       50
176
     1
290
     0
176
     1
 90
       50
176
     1
 62
   256
176
     0
 40
1.0
176
     0
 90
        2
176
     1
  1
strokes_ogs.tif
176
     1
290
     0
176
     1
 40
1.0
176
     1
 40
1.0
176
     1
  0
VISUALSTYLE
  5
AD00
102
{ACAD_REACTORS
330
ACFF
102
}
330
ACFF
100
AcDbVisualStyle
  2
Flat
 70
     0
177
     3
291
     1
 70
    58
 90
        2
176
     1
 90
        1
176
     1
 90
        1
176
     1
 90
        2
176
     1
 40
0.6
176
     1
 40
30.0
176
     1
 62
     7
420
 16777215
176
     1
 90
        0
176
     1
 90
        0
176
     1
 62
     7
176
     1
 62
   257
176
     1
 90
        1
176
     1
 90
        1
176
     1
 40
1.0
176
     1
 90
        8
176
     1
 62
     7
176
     1
 40
1.0
176
     1
 90
        1
176
     1
 90
        6
176
     1
 90
        2
176
     1
 62
     7
176
     1
 90
        5
176
     1
 90
        0
176
     1
 90
        0
176
     1
290
     0
176
     1
 90
       13
176
     1
 40
0.0
176
     1
 90
        0
176
     1
290
     0
176
     1
290
     1
176
     1
290
     1
176
     1
290
     0
176
     1
290
     0
176
     1
290
     0
176
     1
290
     0
176
     1
290
     0
176
     1
290
     0
176
     1
 90
       50
176
     1
 40
0.0
176
     1
 40
1.0
176
     1
 90
        0
176
     1
 62
    18
176
     1
 90
       50
176
     1
 90
        3
176
     1
 62
     5
420
      255
176
     1
290
     0
176
     1
 90
       50
176
     1
 90
       50
176
     1
 90
       50
176
     1
290
     0
176
     1
 90
       50
176
     1
 62
   256
176
     0
 40
1.0
176
     0
 90
        2
176
     1
  1
strokes_ogs.tif
176
     1
290
     0
176
     1
 40
1.0
176
     1
 40
1.0
176
     1
  0
VISUALSTYLE
  5
AD01
102
{ACAD_REACTORS
330
ACFF
102
}
330
ACFF
100
AcDbVisualStyle
  2
FlatWithEdges
 70
     1
177
     3
291
     1
 70
    58
 90
        2
176
     1
 90
        1
176
     1
 90
        1
176
     1
 90
        2
176
     1
 40
0.6
176
     1
 40
30.0
176
     1
 62
     7
420
 16777215
176
     1
 90
        1
176
     1
 90
        0
176
     1
 62
     7
176
     1
 62
   257
176
     1
 90
        1
176
     1
 90
        1
176
     1
 40
1.0
176
     1
 90
        0
176
     1
 62
   257
176
     1
 40
1.0
176
     1
 90
        1
176
     1
 90
        6
176
     1
 90
        2
176
     1
 62
     7
176
     1
 90
        5
176
     1
 90
        0
176
     1
 90
        0
176
     1
290
     0
176
     1
 90
       13
176
     1
 40
0.0
176
     1
 90
        0
176
     1
290
     0
176
     1
290
     1
176
     1
290
     1
176
     1
290
     0
176
     1
290
     0
176
     1
290
     0
176
     1
290
     0
176
     1
290
     0
176
     1
290
     0
176
     1
 90
       50
176
     1
 40
0.0
176
     1
 40
1.0
176
     1
 90
        0
176
     1
 62
    18
176
     1
 90
       50
176
     1
 90
        3
176
     1
 62
     5
420
      255
176
     1
290
     0
176
     1
 90
       50
176
     1
 90
       50
176
     1
 90
       50
176
     1
290
     0
176
     1
 90
       50
176
     1
 62
   256
176
     0
 40
1.0
176
     0
 90
        2
176
     1
  1
strokes_ogs.tif
176
     1
290
     0
176
     1
 40
1.0
176
     1
 40
1.0
176
     1
  0
VISUALSTYLE
  5
AD02
102
{ACAD_REACTORS
330
ACFF
102
}
330
ACFF
100
AcDbVisualStyle
  2
Gouraud
 70
     2
177
     3
291
     1
 70
    58
 90
        2
176
     1
 90
        2
176
     1
 90
        1
176
     1
 90
        2
176
     1
 40
0.6
176
     1
 40
30.0
176
     1
 62
     7
420
 16777215
176
     1
 90
        0
176
     1
 90
        0
176
     1
 62
     7
176
     1
 62
   257
176
     1
 90
        1
176
     1
 90
        1
176
     1
 40
1.0
176
     1
 90
        0
176
     1
 62
     7
176
     1
 40
1.0
176
     1
 90
        1
176
     1
 90
        6
176
     1
 90
        2
176
     1
 62
     7
176
     1
 90
        5
176
     1
 90
        0
176
     1
 90
        0
176
     1
290
     0
176
     1
 90
       13
176
     1
 40
0.0
176
     1
 90
        0
176
     1
290
     0
176
     1
290
     1
176
     1
290
     1
176
     1
290
     0
176
     1
290
     0
176
     1
290
     0
176
     1
290
     0
176
     1
290
     0
176
     1
290
     0
176
     1
 90
       50
176
     1
 40
0.0
176
     1
 40
1.0
176
     1
 90
        0
176
     1
 62
    18
176
     1
 90
       50
176
     1
 90
        3
176
     1
 62
     5
420
      255
176
     1
290
     0
176
     1
 90
       50
176
     1
 90
       50
176
     1
 90
       50
176
     1
290
     0
176
     1
 90
       50
176
     1
 62
   256
176
     0
 40
1.0
176
     0
 90
        2
176
     1
  1
strokes_ogs.tif
176
     1
290
     0
176
     1
 40
1.0
176
     1
 40
1.0
176
     1
  0
VISUALSTYLE
  5
AD03
102
{ACAD_REACTORS
330
ACFF
102
}
330
ACFF
100
AcDbVisualStyle
  2
GouraudWithEdges
 70
     3
177
     3
291
     1
 70
    58
 90
        2
176
     1
 90
        2
176
     1
 90
        1
176
     1
 90
        2
176
     1
 40
0.6
176
     1
 40
30.0
176
     1
 62
     7
420
 16777215
176
     1
 90
        1
176
     1
 90
        0
176
     1
 62
     7
176
     1
 62
   257
176
     1
 90
        1
176
     1
 90
        1
176
     1
 40
1.0
176
     1
 90
        0
176
     1
 62
   257
176
     1
 40
1.0
176
     1
 90
        1
176
     1
 90
        6
176
     1
 90
        2
176
     1
 62
     7
176
     1
 90
        5
176
     1
 90
        0
176
     1
 90
        0
176
     1
290
     0
176
     1
 90
       13
176
     1
 40
0.0
176
     1
 90
        0
176
     1
290
     0
176
     1
290
     1
176
     1
290
     1
176
     1
290
     0
176
     1
290
     0
176
     1
290
     0
176
     1
290
     0
176
     1
290
     0
176
     1
290
     0
176
     1
 90
       50
176
     1
 40
0.0
176
     1
 40
1.0
176
     1
 90
        0
176
     1
 62
    18
176
     1
 90
       50
176
     1
 90
        3
176
     1
 62
     5
420
      255
176
     1
290
     0
176
     1
 90
       50
176
     1
 90
       50
176
     1
 90
       50
176
     1
290
     0
176
     1
 90
       50
176
     1
 62
   256
176
     0
 40
1.0
176
     0
 90
        2
176
     1
  1
strokes_ogs.tif
176
     1
290
     0
176
     1
 40
1.0
176
     1
 40
1.0
176
     1
  0
VISUALSTYLE
  5
AD07
102
{ACAD_REACTORS
330
ACFF
102
}
330
ACFF
100
AcDbVisualStyle
  2
Hidden
 70
     6
177
     3
291
     0
 70
    58
 90
        1
176
     1
 90
        2
176
     1
 90
        2
176
     1
 90
        0
176
     1
 40
0.6
176
     1
 40
30.0
176
     1
 62
     7
420
 16777215
176
     1
 90
        2
176
     1
 90
        2
176
     1
 62
     7
176
     1
 62
   257
176
     1
 90
        2
176
     1
 90
        1
176
     1
 40
40.0
176
     1
 90
        0
176
     1
 62
   257
176
     1
 40
1.0
176
     1
 90
        1
176
     1
 90
        6
176
     1
 90
        2
176
     1
 62
     7
176
     1
 90
        3
176
     1
 90
        0
176
     1
 90
        0
176
     1
290
     0
176
     1
 90
        1
176
     1
 40
0.0
176
     1
 90
        0
176
     1
290
     0
176
     1
290
     1
176
     1
290
     1
176
     1
290
     0
176
     1
290
     0
176
     1
290
     0
176
     1
290
     0
176
     1
290
     0
176
     1
290
     0
176
     1
 90
       50
176
     1
 40
0.0
176
     1
 40
1.0
176
     1
 90
        0
176
     1
 62
    18
176
     1
 90
       50
176
     1
 90
        3
176
     1
 62
     5
420
      255
176
     1
290
     0
176
     1
 90
       50
176
     1
 90
       50
176
     1
 90
       50
176
     1
290
     0
176
     1
 90
       50
176
     1
 62
   256
176
     0
 40
1.0
176
     0
 90
        2
176
     1
  1
strokes_ogs.tif
176
     1
290
     0
176
     1
 40
1.0
176
     1
 40
1.0
176
     1
  0
VISUALSTYLE
  5
AD15
102
{ACAD_REACTORS
330
ACFF
102
}
330
ACFF
100
AcDbVisualStyle
  2
JitterOff
 70
    20
177
     3
291
     1
 70
    58
 90
        2
176
     0
 90
        2
176
     0
 90
        0
176
     0
 90
        0
176
     0
 40
0.6
176
     0
 40
30.0
176
     0
 62
     7
420
 16777215
176
     0
 90
        1
176
     0
 90
        4
176
     0
 62
     7
176
     0
 62
   257
176
     0
 90
        1
176
     0
 90
        1
176
     0
 40
1.0
176
     0
 90
       10
176
     2
 62
     7
176
     0
 40
1.0
176
     0
 90
        1
176
     0
 90
        6
176
     0
 90
        2
176
     0
 62
     7
176
     0
 90
        5
176
     0
 90
        0
176
     0
 90
        0
176
     0
290
     0
176
     0
 90
        1
176
     0
 40
0.0
176
     0
 90
        0
176
     0
290
     0
176
     1
290
     1
176
     1
290
     1
176
     1
290
     0
176
     1
290
     0
176
     1
290
     0
176
     1
290
     0
176
     1
290
     0
176
     1
290
     0
176
     1
 90
       50
176
     0
 40
0.0
176
     0
 40
1.0
176
     0
 90
        0
176
     0
 62
    18
176
     0
 90
       50
176
     0
 90
        3
176
     0
 62
     5
420
      255
176
     0
290
     0
176
     1
 90
       50
176
     0
 90
       50
176
     0
 90
       50
176
     0
290
     0
176
     1
 90
       50
176
     0
 62
   256
176
     0
 40
1.0
176
     0
 90
        2
176
     0
  1
strokes_ogs.tif
176
     0
290
     0
176
     1
 40
1.0
176
     0
 40
1.0
176
     0
  0
VISUALSTYLE
  5
AD0D
102
{ACAD_REACTORS
330
ACFF
102
}
330
ACFF
100
AcDbVisualStyle
  2
Linepattern
 70
    14
177
     3
291
     1
 70
    58
 90
        2
176
     1
 90
        2
176
     1
 90
        0
176
     1
 90
        0
176
     1
 40
0.6
176
     1
 40
30.0
176
     1
 62
     7
420
 16777215
176
     1
 90
        1
176
     1
 90
        4
176
     1
 62
     7
176
     1
 62
   257
176
     1
 90
        7
176
     1
 90
        7
176
     1
 40
1.0
176
     1
 90
        8
176
     1
 62
     7
176
     1
 40
1.0
176
     1
 90
        1
176
     1
 90
        6
176
     1
 90
        2
176
     1
 62
     7
176
     1
 90
        5
176
     1
 90
        0
176
     1
 90
        0
176
     1
290
     0
176
     1
 90
        1
176
     1
 40
0.0
176
     1
 90
        0
176
     1
290
     0
176
     1
290
     1
176
     1
290
     1
176
     1
290
     0
176
     1
290
     0
176
     1
290
     0
176
     1
290
     0
176
     1
290
     0
176
     1
290
     0
176
     1
 90
       50
176
     1
 40
0.0
176
     1
 40
1.0
176
     1
 90
        0
176
     1
 62
    18
176
     1
 90
       50
176
     1
 90
        3
176
     1
 62
     5
420
      255
176
     1
290
     0
176
     1
 90
       50
176
     1
 90
       50
176
     1
 90
       50
176
     1
290
     0
176
     1
 90
       50
176
     1
 62
   256
176
     0
 40
1.0
176
     0
 90
        2
176
     1
  1
strokes_ogs.tif
176
     1
290
     0
176
     1
 40
1.0
176
     1
 40
1.0
176
     1
  0
VISUALSTYLE
  5
AD16
102
{ACAD_REACTORS
330
ACFF
102
}
330
ACFF
100
AcDbVisualStyle
  2
OverhangOff
 70
    21
177
     3
291
     1
 70
    58
 90
        2
176
     0
 90
        2
176
     0
 90
        0
176
     0
 90
        0
176
     0
 40
0.6
176
     0
 40
30.0
176
     0
 62
     7
420
 16777215
176
     0
 90
        1
176
     0
 90
        4
176
     0
 62
     7
176
     0
 62
   257
176
     0
 90
        1
176
     0
 90
        1
176
     0
 40
1.0
176
     0
 90
        9
176
     2
 62
     7
176
     0
 40
1.0
176
     0
 90
        1
176
     0
 90
        6
176
     0
 90
        2
176
     0
 62
     7
176
     0
 90
        5
176
     0
 90
        0
176
     0
 90
        0
176
     0
290
     0
176
     0
 90
        1
176
     0
 40
0.0
176
     0
 90
        0
176
     0
290
     0
176
     1
290
     1
176
     1
290
     1
176
     1
290
     0
176
     1
290
     0
176
     1
290
     0
176
     1
290
     0
176
     1
290
     0
176
     1
290
     0
176
     1
 90
       50
176
     0
 40
0.0
176
     0
 40
1.0
176
     0
 90
        0
176
     0
 62
    18
176
     0
 90
       50
176
     0
 90
        3
176
     0
 62
     5
420
      255
176
     0
290
     0
176
     1
 90
       50
176
     0
 90
       50
176
     0
 90
       50
176
     0
290
     0
176
     1
 90
       50
176
     0
 62
   256
176
     0
 40
1.0
176
     0
 90
        2
176
     0
  1
strokes_ogs.tif
176
     0
290
     0
176
     1
 40
1.0
176
     0
 40
1.0
176
     0
  0
VISUALSTYLE
  5
AD09
102
{ACAD_REACTORS
330
ACFF
102
}
330
ACFF
100
AcDbVisualStyle
  2
Realistic
 70
     8
177
     3
291
     0
 70
    58
 90
        2
176
     1
 90
        3
176
     1
 90
        0
176
     1
 90
        2
176
     1
 40
0.6
176
     1
 40
30.0
176
     1
 62
     7
420
 16777215
176
     1
 90
        0
176
     1
 90
        0
176
     1
 62
     7
176
     1
 62
   257
176
     1
 90
        1
176
     1
 90
        1
176
     1
 40
1.0
176
     1
 90
        8
176
     1
 62
   257
176
     1
 40
1.0
176
     1
 90
        1
176
     1
 90
        6
176
     1
 90
        2
176
     1
 62
     7
176
     1
 90
        3
176
     1
 90
        0
176
     1
 90
        0
176
     1
290
     0
176
     1
 90
       13
176
     1
 40
0.0
176
     1
 90
        0
176
     1
290
     0
176
     1
290
     1
176
     1
290
     1
176
     1
290
     0
176
     1
290
     0
176
     1
290
     0
176
     1
290
     0
176
     1
290
     0
176
     1
290
     0
176
     1
 90
       50
176
     1
 40
0.0
176
     1
 40
1.0
176
     1
 90
        0
176
     1
 62
    18
176
     1
 90
       50
176
     1
 90
        3
176
     1
 62
     5
420
      255
176
     1
290
     0
176
     1
 90
       50
176
     1
 90
       50
176
     1
 90
       50
176
     1
290
     0
176
     1
 90
       50
176
     1
 62
   256
176
     0
 40
1.0
176
     0
 90
        2
176
     1
  1
strokes_ogs.tif
176
     1
290
     0
176
     1
 40
1.0
176
     1
 40
1.0
176
     1
  0
VISUALSTYLE
  5
AD14
102
{ACAD_REACTORS
330
ACFF
102
}
330
ACFF
100
AcDbVisualStyle
  2
Shaded
 70
    27
177
     3
291
     0
 70
    58
 90
        2
176
     1
 90
        2
176
     1
 90
        1
176
     1
 90
        2
176
     1
 40
0.6
176
     1
 40
30.0
176
     1
 62
     7
420
 16777215
176
     1
 90
        0
176
     1
 90
        4
176
     1
 62
     7
176
     1
 62
   257
176
     1
 90
        1
176
     1
 90
        1
176
     1
 40
1.0
176
     1
 90
        8
176
     1
 62
   257
176
     1
 40
1.0
176
     1
 90
        1
176
     1
 90
        6
176
     1
 90
        2
176
     1
 62
     8
420
  7895160
176
     1
 90
        3
176
     1
 90
        0
176
     1
 90
        0
176
     1
290
     0
176
     1
 90
        5
176
     1
 40
0.0
176
     1
 90
        0
176
     1
290
     0
176
     1
290
     1
176
     1
290
     1
176
     1
290
     0
176
     1
290
     0
176
     1
290
     0
176
     1
290
     0
176
     1
290
     0
176
     1
290
     0
176
     1
 90
       50
176
     1
 40
0.0
176
     1
 40
1.0
176
     1
 90
        0
176
     1
 62
    18
176
     1
 90
       50
176
     1
 90
        3
176
     1
 62
     5
420
      255
176
     1
290
     0
176
     1
 90
       50
176
     1
 90
       50
176
     1
 90
       50
176
     1
290
     0
176
     1
 90
       50
176
     1
 62
   256
176
     0
 40
1.0
176
     0
 90
        2
176
     1
  1
strokes_ogs.tif
176
     1
290
     0
176
     1
 40
1.0
176
     1
 40
1.0
176
     1
  0
VISUALSTYLE
  5
AD13
102
{ACAD_REACTORS
330
ACFF
102
}
330
ACFF
100
AcDbVisualStyle
  2
Shaded with edges
 70
    26
177
     3
291
     0
 70
    58
 90
        2
176
     1
 90
        2
176
     1
 90
        1
176
     1
 90
        2
176
     1
 40
0.6
176
     1
 40
30.0
176
     1
 62
     7
420
 16777215
176
     1
 90
        1
176
     1
 90
        2
176
     1
 62
     7
176
     1
 62
   257
176
     1
 90
        2
176
     1
 90
        1
176
     1
 40
1.0
176
     1
 90
        8
176
     1
 62
   257
176
     1
 40
1.0
176
     1
 90
        1
176
     1
 90
        6
176
     1
 90
        2
176
     1
 62
     7
176
     1
 90
        3
176
     1
 90
        0
176
     1
 90
        0
176
     1
290
     0
176
     1
 90
        5
176
     1
 40
0.0
176
     1
 90
        0
176
     1
290
     0
176
     1
290
     1
176
     1
290
     1
176
     1
290
     0
176
     1
290
     0
176
     1
290
     0
176
     1
290
     0
176
     1
290
     0
176
     1
290
     0
176
     1
 90
       50
176
     1
 40
0.0
176
     1
 40
1.0
176
     1
 90
        0
176
     1
 62
    18
176
     1
 90
       50
176
     1
 90
        3
176
     1
 62
     5
420
      255
176
     1
290
     0
176
     1
 90
       50
176
     1
 90
       50
176
     1
 90
       50
176
     1
290
     0
176
     1
 90
       50
176
     1
 62
   256
176
     0
 40
1.0
176
     0
 90
        2
176
     1
  1
strokes_ogs.tif
176
     1
290
     0
176
     1
 40
1.0
176
     1
 40
1.0
176
     1
  0
VISUALSTYLE
  5
AD10
102
{ACAD_REACTORS
330
ACFF
102
}
330
ACFF
100
AcDbVisualStyle
  2
Shades of Gray
 70
    23
177
     3
291
     0
 70
    58
 90
        2
176
     1
 90
        2
176
     1
 90
        3
176
     1
 90
        0
176
     1
 40
0.6
176
     1
 40
30.0
176
     1
 62
     7
420
 16777215
176
     1
 90
        2
176
     1
 90
        2
176
     1
 62
     7
176
     1
 62
     7
176
     1
 90
        1
176
     1
 90
        1
176
     1
 40
40.0
176
     1
 90
        8
176
     1
 62
     7
176
     1
 40
1.0
176
     1
 90
        1
176
     1
 90
        6
176
     1
 90
        2
176
     1
 62
     7
176
     1
 90
        3
176
     1
 90
        0
176
     1
 90
        0
176
     1
290
     0
176
     1
 90
        1
176
     1
 40
0.0
176
     1
 90
        0
176
     1
290
     0
176
     1
290
     1
176
     1
290
     1
176
     1
290
     0
176
     1
290
     0
176
     1
290
     0
176
     1
290
     0
176
     1
290
     0
176
     1
290
     0
176
     1
 90
       50
176
     1
 40
0.0
176
     1
 40
1.0
176
     1
 90
        0
176
     1
 62
    18
176
     1
 90
       50
176
     1
 90
        3
176
     1
 62
     5
420
      255
176
     1
290
     0
176
     1
 90
       50
176
     1
 90
       50
176
     1
 90
       50
176
     1
290
     0
176
     1
 90
       50
176
     1
 62
   256
176
     0
 40
1.0
176
     0
 90
        2
176
     1
  1
strokes_ogs.tif
176
     1
290
     0
176
     1
 40
1.0
176
     1
 40
1.0
176
     1
  0
VISUALSTYLE
  5
AD11
102
{ACAD_REACTORS
330
ACFF
102
}
330
ACFF
100
AcDbVisualStyle
  2
Sketchy
 70
    24
177
     3
291
     0
 70
    58
 90
        1
176
     1
 90
        2
176
     1
 90
        2
176
     1
 90
        0
176
     1
 40
0.6
176
     1
 40
30.0
176
     1
 62
     7
420
 16777215
176
     1
 90
        2
176
     1
 90
        2
176
     1
 62
     7
176
     1
 62
     7
176
     1
 90
        1
176
     1
 90
        1
176
     1
 40
40.0
176
     1
 90
       11
176
     1
 62
     7
176
     1
 40
1.0
176
     1
 90
        1
176
     1
 90
        6
176
     1
 90
        2
176
     1
 62
     7
176
     1
 90
        6
176
     1
 90
        0
176
     1
 90
        0
176
     1
290
     0
176
     1
 90
        1
176
     1
 40
0.0
176
     1
 90
        0
176
     1
290
     0
176
     1
290
     1
176
     1
290
     1
176
     1
290
     0
176
     1
290
     0
176
     1
290
     0
176
     1
290
     0
176
     1
290
     0
176
     1
290
     0
176
     1
 90
       50
176
     1
 40
0.0
176
     1
 40
1.0
176
     1
 90
        0
176
     1
 62
    18
176
     1
 90
       50
176
     1
 90
        3
176
     1
 62
     5
420
      255
176
     1
290
     0
176
     1
 90
       50
176
     1
 90
       50
176
     1
 90
       50
176
     1
290
     0
176
     1
 90
       50
176
     1
 62
   256
176
     0
 40
1.0
176
     0
 90
        2
176
     1
  1
strokes_ogs.tif
176
     1
290
     0
176
     1
 40
1.0
176
     1
 40
1.0
176
     1
  0
VISUALSTYLE
  5
AD0C
102
{ACAD_REACTORS
330
ACFF
102
}
330
ACFF
100
AcDbVisualStyle
  2
Thicken
 70
    13
177
     3
291
     1
 70
    58
 90
        2
176
     1
 90
        2
176
     1
 90
        0
176
     1
 90
        0
176
     1
 40
0.6
176
     1
 40
30.0
176
     1
 62
     7
420
 16777215
176
     1
 90
        1
176
     1
 90
        4
176
     1
 62
     7
176
     1
 62
   257
176
     1
 90
        1
176
     1
 90
        1
176
     1
 40
1.0
176
     1
 90
       12
176
     1
 62
     7
176
     1
 40
1.0
176
     1
 90
        1
176
     1
 90
        6
176
     1
 90
        2
176
     1
 62
     7
176
     1
 90
        5
176
     1
 90
        0
176
     1
 90
        0
176
     1
290
     0
176
     1
 90
        1
176
     1
 40
0.0
176
     1
 90
        0
176
     1
290
     0
176
     1
290
     1
176
     1
290
     1
176
     1
290
     0
176
     1
290
     0
176
     1
290
     0
176
     1
290
     0
176
     1
290
     0
176
     1
290
     0
176
     1
 90
       50
176
     1
 40
0.0
176
     1
 40
1.0
176
     1
 90
        0
176
     1
 62
    18
176
     1
 90
       50
176
     1
 90
        3
176
     1
 62
     5
420
      255
176
     1
290
     0
176
     1
 90
       50
176
     1
 90
       50
176
     1
 90
       50
176
     1
290
     0
176
     1
 90
       50
176
     1
 62
   256
176
     0
 40
1.0
176
     0
 90
        2
176
     1
  1
strokes_ogs.tif
176
     1
290
     0
176
     1
 40
1.0
176
     1
 40
1.0
176
     1
  0
VISUALSTYLE
  5
AD06
102
{ACAD_REACTORS
330
ACFF
102
}
330
ACFF
100
AcDbVisualStyle
  2
Wireframe
 70
     5
177
     3
291
     0
 70
    58
 90
        0
176
     1
 90
        2
176
     1
 90
        0
176
     1
 90
        0
176
     1
 40
0.6
176
     1
 40
30.0
176
     1
 62
     7
420
 16777215
176
     1
 90
        1
176
     1
 90
        4
176
     1
 62
     7
176
     1
 62
   257
176
     1
 90
        1
176
     1
 90
        1
176
     1
 40
1.0
176
     1
 90
        0
176
     1
 62
   257
176
     1
 40
1.0
176
     1
 90
        1
176
     1
 90
        6
176
     1
 90
        2
176
     1
 62
     7
176
     1
 90
        3
176
     1
 90
        0
176
     1
 90
        0
176
     1
290
     0
176
     1
 90
        1
176
     1
 40
0.0
176
     1
 90
        0
176
     1
290
     0
176
     1
290
     1
176
     1
290
     1
176
     1
290
     0
176
     1
290
     0
176
     1
290
     0
176
     1
290
     0
176
     1
290
     0
176
     1
290
     0
176
     1
 90
       50
176
     1
 40
0.0
176
     1
 40
1.0
176
     1
 90
        0
176
     1
 62
    18
176
     1
 90
       50
176
     1
 90
        3
176
     1
 62
     5
420
      255
176
     1
290
     0
176
     1
 90
       50
176
     1
 90
       50
176
     1
 90
       50
176
     1
290
     0
176
     1
 90
       50
176
     1
 62
   256
176
     0
 40
1.0
176
     0
 90
        2
176
     1
  1
strokes_ogs.tif
176
     1
290
     0
176
     1
 40
1.0
176
     1
 40
1.0
176
     1
  0
VISUALSTYLE
  5
AD12
102
{ACAD_REACTORS
330
ACFF
102
}
330
ACFF
100
AcDbVisualStyle
  2
X-Ray
 70
    25
177
     3
291
     0
 70
    58
 90
        2
176
     1
 90
        2
176
     1
 90
        1
176
     1
 90
        1
176
     1
 40
0.5
176
     1
 40
30.0
176
     1
 62
     7
420
 16777215
176
     1
 90
        1
176
     1
 90
        0
176
     1
 62
     7
176
     1
 62
   257
176
     1
 90
        1
176
     1
 90
        1
176
     1
 40
1.0
176
     1
 90
        8
176
     1
 62
     7
176
     1
 40
1.0
176
     1
 90
        1
176
     1
 90
        6
176
     1
 90
        2
176
     1
 62
     7
176
     1
 90
        3
176
     1
 90
        0
176
     1
 90
        0
176
     1
290
     0
176
     1
 90
       13
176
     1
 40
0.0
176
     1
 90
        0
176
     1
290
     0
176
     1
290
     1
176
     1
290
     1
176
     1
290
     0
176
     1
290
     0
176
     1
290
     0
176
     1
290
     0
176
     1
290
     0
176
     1
290
     0
176
     1
 90
       50
176
     1
 40
0.0
176
     1
 40
1.0
176
     1
 90
        0
176
     1
 62
    18
176
     1
 90
       50
176
     1
 90
        3
176
     1
 62
     5
420
      255
176
     1
290
     0
176
     1
 90
       50
176
     1
 90
       50
176
     1
 90
       50
176
     1
290
     0
176
     1
 90
       50
176
     1
 62
   256
176
     0
 40
1.0
176
     0
 90
        2
176
     1
  1
strokes_ogs.tif
176
     1
290
     0
176
     1
 40
1.0
176
     1
 40
1.0
176
     1
  0
DICTIONARYVAR
  5
ADC5
102
{ACAD_REACTORS
330
ADBF
102
}
330
ADBF
100
DictionaryVariables
280
     0
  1
1:1
  0
DICTIONARYVAR
  5
ADC1
102
{ACAD_REACTORS
330
ADBF
102
}
330
ADBF
100
DictionaryVariables
280
     0
  1
STANDARD
  0
DICTIONARYVAR
  5
ADC0
102
{ACAD_REACTORS
330
ADBF
102
}
330
ADBF
100
DictionaryVariables
280
     0
  1
STANDARD
  0
DICTIONARYVAR
  5
ADC2
102
{ACAD_REACTORS
330
ADBF
102
}
330
ADBF
100
DictionaryVariables
280
     0
  1
Imperial24
  0
DICTIONARYVAR
  5
ADC3
102
{ACAD_REACTORS
330
ADBF
102
}
330
ADBF
100
DictionaryVariables
280
     0
  1
Imperial24
  0
DICTIONARYVAR
  5
ADC7
102
{ACAD_REACTORS
330
ADBF
102
}
330
ADBF
100
DictionaryVariables
280
     0
  1
1
  0
DICTIONARYVAR
  5
ADC8
102
{ACAD_REACTORS
330
ADBF
102
}
330
ADBF
100
DictionaryVariables
280
     0
  1
15
  0
DICTIONARYVAR
  5
ADC6
102
{ACAD_REACTORS
330
ADBF
102
}
330
ADBF
100
DictionaryVariables
280
     0
  1
0
  0
DICTIONARYVAR
  5
ADC4
102
{ACAD_REACTORS
330
ADBF
102
}
330
ADBF
100
DictionaryVariables
280
     0
  1
0
  0
DICTIONARY
  5
ACF0
330
ACEF
100
AcDbDictionary
280
     1
281
     1
  3
BUMPTILE
360
ACF2
  3
DIFFUSETILE
360
ACF1
  3
OPACITYTILE
360
ACF5
  3
REFLECTIONTILE
360
ACF4
  3
REFRACTIONTILE
360
ACF6
  3
SPECULARTILE
360
ACF3
  0
DICTIONARY
  5
ACE8
330
ACE7
100
AcDbDictionary
280
     1
281
     1
  3
BUMPTILE
360
ACEA
  3
DIFFUSETILE
360
ACE9
  3
OPACITYTILE
360
ACED
  3
REFLECTIONTILE
360
ACEC
  3
REFRACTIONTILE
360
ACEE
  3
SPECULARTILE
360
ACEB
  0
DICTIONARY
  5
ACF8
330
ACF7
100
AcDbDictionary
280
     1
281
     1
  3
BUMPTILE
360
ACFA
  3
DIFFUSETILE
360
ACF9
  3
OPACITYTILE
360
ACFD
  3
REFLECTIONTILE
360
ACFC
  3
REFRACTIONTILE
360
ACFE
  3
SPECULARTILE
360
ACFB
  0
DICTIONARY
  5
ADC9
330
AD3A
100
AcDbDictionary
280
     1
281
     1
  3
ACAD_ROUNDTRIP_2008_TABLESTYLE_CELLSTYLEMAP
360
ADDC
  0
XRECORD
  5
ACF2
102
{ACAD_REACTORS
330
ACF0
102
}
330
ACF0
100
AcDbXrecord
280
     1
270
     1
271
     1
  0
XRECORD
  5
ACF1
102
{ACAD_REACTORS
330
ACF0
102
}
330
ACF0
100
AcDbXrecord
280
     1
270
     1
271
     1
  0
XRECORD
  5
ACF5
102
{ACAD_REACTORS
330
ACF0
102
}
330
ACF0
100
AcDbXrecord
280
     1
270
     1
271
     1
  0
XRECORD
  5
ACF4
102
{ACAD_REACTORS
330
ACF0
102
}
330
ACF0
100
AcDbXrecord
280
     1
270
     1
271
     1
  0
XRECORD
  5
ACF6
102
{ACAD_REACTORS
330
ACF0
102
}
330
ACF0
100
AcDbXrecord
280
     1
270
     1
271
     1
  0
XRECORD
  5
ACF3
102
{ACAD_REACTORS
330
ACF0
102
}
330
ACF0
100
AcDbXrecord
280
     1
270
     1
271
     1
  0
XRECORD
  5
ACEA
102
{ACAD_REACTORS
330
ACE8
102
}
330
ACE8
100
AcDbXrecord
280
     1
270
     1
271
     1
  0
XRECORD
  5
ACE9
102
{ACAD_REACTORS
330
ACE8
102
}
330
ACE8
100
AcDbXrecord
280
     1
270
     1
271
     1
  0
XRECORD
  5
ACED
102
{ACAD_REACTORS
330
ACE8
102
}
330
ACE8
100
AcDbXrecord
280
     1
270
     1
271
     1
  0
XRECORD
  5
ACEC
102
{ACAD_REACTORS
330
ACE8
102
}
330
ACE8
100
AcDbXrecord
280
     1
270
     1
271
     1
  0
XRECORD
  5
ACEE
102
{ACAD_REACTORS
330
ACE8
102
}
330
ACE8
100
AcDbXrecord
280
     1
270
     1
271
     1
  0
XRECORD
  5
ACEB
102
{ACAD_REACTORS
330
ACE8
102
}
330
ACE8
100
AcDbXrecord
280
     1
270
     1
271
     1
  0
XRECORD
  5
ACFA
102
{ACAD_REACTORS
330
ACF8
102
}
330
ACF8
100
AcDbXrecord
280
     1
270
     1
271
     1
  0
XRECORD
  5
ACF9
102
{ACAD_REACTORS
330
ACF8
102
}
330
ACF8
100
AcDbXrecord
280
     1
270
     1
271
     1
  0
XRECORD
  5
ACFD
102
{ACAD_REACTORS
330
ACF8
102
}
330
ACF8
100
AcDbXrecord
280
     1
270
     1
271
     1
  0
XRECORD
  5
ACFC
102
{ACAD_REACTORS
330
ACF8
102
}
330
ACF8
100
AcDbXrecord
280
     1
270
     1
271
     1
  0
XRECORD
  5
ACFE
102
{ACAD_REACTORS
330
ACF8
102
}
330
ACF8
100
AcDbXrecord
280
     1
270
     1
271
     1
  0
XRECORD
  5
ACFB
102
{ACAD_REACTORS
330
ACF8
102
}
330
ACF8
100
AcDbXrecord
280
     1
270
     1
271
     1
  0
CELLSTYLEMAP
  5
ADDC
102
{ACAD_REACTORS
330
ADC9
102
}
330
ADC9
100
AcDbCellStyleMap
 90
        3
300
CELLSTYLE
  1
TABLEFORMAT_BEGIN
 90
        5
170
     1
 91
        0
 92
    32768
 62
   257
 93
        1
300
CONTENTFORMAT
  1
CONTENTFORMAT_BEGIN
 90
        0
 91
        0
 92
      512
 93
        0
300

 40
0.0
140
1.0
 94
        5
 62
     0
340
AD2B
144
0.25
309
CONTENTFORMAT_END
171
     1
301
MARGIN
  1
CELLMARGIN_BEGIN
 40
0.06
 40
0.06
 40
0.06
 40
0.06
 40
0.18
 40
0.18
309
CELLMARGIN_END
 94
        6
 95
        1
302
GRIDFORMAT
  1
GRIDFORMAT_BEGIN
 90
        0
 91
        1
 62
     0
 92
       -2
340
0
 93
        0
 40
0.045
309
GRIDFORMAT_END
 95
        2
302
GRIDFORMAT
  1
GRIDFORMAT_BEGIN
 90
        0
 91
        1
 62
     0
 92
       -2
340
0
 93
        0
 40
0.045
309
GRIDFORMAT_END
 95
        4
302
GRIDFORMAT
  1
GRIDFORMAT_BEGIN
 90
        0
 91
        1
 62
     0
 92
       -2
340
0
 93
        0
 40
0.045
309
GRIDFORMAT_END
 95
        8
302
GRIDFORMAT
  1
GRIDFORMAT_BEGIN
 90
        0
 91
        1
 62
     0
 92
       -2
340
0
 93
        0
 40
0.045
309
GRIDFORMAT_END
 95
       16
302
GRIDFORMAT
  1
GRIDFORMAT_BEGIN
 90
        0
 91
        1
 62
     0
 92
       -2
340
0
 93
        0
 40
0.045
309
GRIDFORMAT_END
 95
       32
302
GRIDFORMAT
  1
GRIDFORMAT_BEGIN
 90
        0
 91
        1
 62
     0
 92
       -2
340
0
 93
        0
 40
0.045
309
GRIDFORMAT_END
309
TABLEFORMAT_END
  1
CELLSTYLE_BEGIN
 90
        1
 91
        1
300
_TITLE
309
CELLSTYLE_END
300
CELLSTYLE
  1
TABLEFORMAT_BEGIN
 90
        5
170
     1
 91
        0
 92
        0
 62
   257
 93
        1
300
CONTENTFORMAT
  1
CONTENTFORMAT_BEGIN
 90
        0
 91
        0
 92
      512
 93
        0
300

 40
0.0
140
1.0
 94
        5
 62
     0
340
AD2B
144
0.18
309
CONTENTFORMAT_END
171
     1
301
MARGIN
  1
CELLMARGIN_BEGIN
 40
0.06
 40
0.06
 40
0.06
 40
0.06
 40
0.18
 40
0.18
309
CELLMARGIN_END
 94
        6
 95
        1
302
GRIDFORMAT
  1
GRIDFORMAT_BEGIN
 90
        0
 91
        1
 62
     0
 92
       -2
340
0
 93
        0
 40
0.045
309
GRIDFORMAT_END
 95
        2
302
GRIDFORMAT
  1
GRIDFORMAT_BEGIN
 90
        0
 91
        1
 62
     0
 92
       -2
340
0
 93
        0
 40
0.045
309
GRIDFORMAT_END
 95
        4
302
GRIDFORMAT
  1
GRIDFORMAT_BEGIN
 90
        0
 91
        1
 62
     0
 92
       -2
340
0
 93
        0
 40
0.045
309
GRIDFORMAT_END
 95
        8
302
GRIDFORMAT
  1
GRIDFORMAT_BEGIN
 90
        0
 91
        1
 62
     0
 92
       -2
340
0
 93
        0
 40
0.045
309
GRIDFORMAT_END
 95
       16
302
GRIDFORMAT
  1
GRIDFORMAT_BEGIN
 90
        0
 91
        1
 62
     0
 92
       -2
340
0
 93
        0
 40
0.045
309
GRIDFORMAT_END
 95
       32
302
GRIDFORMAT
  1
GRIDFORMAT_BEGIN
 90
        0
 91
        1
 62
     0
 92
       -2
340
0
 93
        0
 40
0.045
309
GRIDFORMAT_END
309
TABLEFORMAT_END
  1
CELLSTYLE_BEGIN
 90
        2
 91
        1
300
_HEADER
309
CELLSTYLE_END
300
CELLSTYLE
  1
TABLEFORMAT_BEGIN
 90
        5
170
     1
 91
        0
 92
        0
 62
   257
 93
        1
300
CONTENTFORMAT
  1
CONTENTFORMAT_BEGIN
 90
        0
 91
        0
 92
      512
 93
        0
300

 40
0.0
140
1.0
 94
        2
 62
     0
340
AD2B
144
0.18
309
CONTENTFORMAT_END
171
     1
301
MARGIN
  1
CELLMARGIN_BEGIN
 40
0.06
 40
0.06
 40
0.06
 40
0.06
 40
0.18
 40
0.18
309
CELLMARGIN_END
 94
        6
 95
        1
302
GRIDFORMAT
  1
GRIDFORMAT_BEGIN
 90
        0
 91
        1
 62
     0
 92
       -2
340
0
 93
        0
 40
0.045
309
GRIDFORMAT_END
 95
        2
302
GRIDFORMAT
  1
GRIDFORMAT_BEGIN
 90
        0
 91
        1
 62
     0
 92
       -2
340
0
 93
        0
 40
0.045
309
GRIDFORMAT_END
 95
        4
302
GRIDFORMAT
  1
GRIDFORMAT_BEGIN
 90
        0
 91
        1
 62
     0
 92
       -2
340
0
 93
        0
 40
0.045
309
GRIDFORMAT_END
 95
        8
302
GRIDFORMAT
  1
GRIDFORMAT_BEGIN
 90
        0
 91
        1
 62
     0
 92
       -2
340
0
 93
        0
 40
0.045
309
GRIDFORMAT_END
 95
       16
302
GRIDFORMAT
  1
GRIDFORMAT_BEGIN
 90
        0
 91
        1
 62
     0
 92
       -2
340
0
 93
        0
 40
0.045
309
GRIDFORMAT_END
 95
       32
302
GRIDFORMAT
  1
GRIDFORMAT_BEGIN
 90
        0
 91
        1
 62
     0
 92
       -2
340
0
 93
        0
 40
0.045
309
GRIDFORMAT_END
309
TABLEFORMAT_END
  1
CELLSTYLE_BEGIN
 90
        3
 91
        2
300
_DATA
309
CELLSTYLE_END
  0
ENDSEC
  0
EOF
