  0
SECTION
  2
HEADER
  9
$ACADVER
  1
AC1009
  9
$INSBASE
 10
0.0
 20
0.0
 30
0.0
  9
$EXTMIN
 10
1575.6826981712179
 20
-0.3246872123272624
 30
-0.0000000349181948
  9
$EXTMAX
 10
5835.1187292289906
 20
4683.3112719992132
 30
0.0000000814935747
  9
$LIMMIN
 10
0.0
 20
0.0
  9
$LIMMAX
 10
7780.0
 20
5320.0
  9
$ORTHOMODE
 70
     1
  9
$REGENMODE
 70
     1
  9
$FILLMODE
 70
     1
  9
$QTEXTMODE
 70
     0
  9
$MIRRTEXT
 70
     0
  9
$DRAGMODE
 70
     2
  9
$LTSCALE
 40
100.0
  9
$OSMODE
 70
     0
  9
$ATTMODE
 70
     1
  9
$TEXTSIZE
 40
45.0
  9
$TRACEWID
 40
0.05
  9
$TEXTSTYLE
  7
TITLE3
  9
$CLAYER
  8
OUTLINE
  9
$CELTYPE
  6
BYLAYER
  9
$CECOLOR
 62
   256
  9
$DIMSCALE
 40
1.0
  9
$DIMASZ
 40
0.12
  9
$DIMEXO
 40
0.05
  9
$DIMDLI
 40
0.5
  9
$DIMRND
 40
0.0
  9
$DIMDLE
 40
0.0
  9
$DIMEXE
 40
0.1
  9
$DIMTP
 40
0.1
  9
$DIMTM
 40
0.1
  9
$DIMTXT
 40
0.12
  9
$DIMCEN
 40
0.0
  9
$DIMTSZ
 40
0.0
  9
$DIMTOL
 70
     0
  9
$DIMLIM
 70
     0
  9
$DIMTIH
 70
     1
  9
$DIMTOH
 70
     1
  9
$DIMSE1
 70
     0
  9
$DIMSE2
 70
     0
  9
$DIMTAD
 70
     0
  9
$DIMZIN
 70
     7
  9
$DIMBLK
  1

  9
$DIMASO
 70
     0
  9
$DIMSHO
 70
     0
  9
$DIMPOST
  1

  9
$DIMAPOST
  1
mm
  9
$DIMALT
 70
     0
  9
$DIMALTD
 70
     2
  9
$DIMALTF
 40
25.399999999999999
  9
$DIMLFAC
 40
1.0
  9
$DIMTOFL
 70
     0
  9
$DIMTVP
 40
0.0
  9
$DIMTIX
 70
     0
  9
$DIMSOXD
 70
     0
  9
$DIMSAH
 70
     0
  9
$DIMBLK1
  1

  9
$DIMBLK2
  1

  9
$DIMSTYLE
  2
AM_ANSI
  9
$DIMCLRD
 70
   256
  9
$DIMCLRE
 70
   256
  9
$DIMCLRT
 70
     2
  9
$DIMTFAC
 40
0.71
  9
$DIMGAP
 40
0.06
  9
$LUNITS
 70
     2
  9
$LUPREC
 70
     2
  9
$SKETCHINC
 40
0.1
  9
$FILLETRAD
 40
0.0
  9
$AUNITS
 70
     0
  9
$AUPREC
 70
     2
  9
$MENU
  1
\acad12\support\cnc
  9
$ELEVATION
 40
0.0
  9
$PELEVATION
 40
0.0
  9
$THICKNESS
 40
0.0
  9
$LIMCHECK
 70
     0
  9
$BLIPMODE
 70
     0
  9
$CHAMFERA
 40
0.0
  9
$CHAMFERB
 40
0.0
  9
$SKPOLY
 70
     0
  9
$TDCREATE
 40
2451402.5974881938
  9
$TDUPDATE
 40
2454699.584798357
  9
$TDINDWG
 40
0.4170045949
  9
$TDUSRTIMER
 40
0.4170022569
  9
$USRTIMER
 70
     1
  9
$ANGBASE
 50
0.0
  9
$ANGDIR
 70
     0
  9
$PDMODE
 70
     2
  9
$PDSIZE
 40
15.0
  9
$PLINEWID
 40
0.0
  9
$COORDS
 70
     1
  9
$SPLFRAME
 70
     0
  9
$SPLINETYPE
 70
     6
  9
$SPLINESEGS
 70
     8
  9
$ATTDIA
 70
     1
  9
$ATTREQ
 70
     1
  9
$HANDLING
 70
     1
  9
$HANDSEED
  5
1B64
  9
$SURFTAB1
 70
     6
  9
$SURFTAB2
 70
     6
  9
$SURFTYPE
 70
     6
  9
$SURFU
 70
     6
  9
$SURFV
 70
     6
  9
$UCSNAME
  2

  9
$UCSORG
 10
0.0
 20
0.0
 30
0.0
  9
$UCSXDIR
 10
1.0
 20
0.0
 30
0.0
  9
$UCSYDIR
 10
0.0
 20
1.0
 30
0.0
  9
$PUCSNAME
  2

  9
$PUCSORG
 10
0.0
 20
0.0
 30
0.0
  9
$PUCSXDIR
 10
1.0
 20
0.0
 30
0.0
  9
$PUCSYDIR
 10
0.0
 20
1.0
 30
0.0
  9
$USERI1
 70
     0
  9
$USERI2
 70
     0
  9
$USERI3
 70
     0
  9
$USERI4
 70
     0
  9
$USERI5
 70
     0
  9
$USERR1
 40
0.0
  9
$USERR2
 40
0.0
  9
$USERR3
 40
0.0
  9
$USERR4
 40
0.0
  9
$USERR5
 40
0.0
  9
$WORLDVIEW
 70
     1
  9
$SHADEDGE
 70
     3
  9
$SHADEDIF
 70
    70
  9
$TILEMODE
 70
     1
  9
$MAXACTVP
 70
    16
  9
$PLIMCHECK
 70
     0
  9
$PEXTMIN
 10
1.0000000000000000E+020
 20
1.0000000000000000E+020
 30
1.0000000000000000E+020
  9
$PEXTMAX
 10
-1.0000000000000000E+020
 20
-1.0000000000000000E+020
 30
-1.0000000000000000E+020
  9
$PLIMMIN
 10
0.0
 20
0.0
  9
$PLIMMAX
 10
12.0
 20
9.0
  9
$UNITMODE
 70
     0
  9
$VISRETAIN
 70
     0
  9
$PLINEGEN
 70
     0
  9
$PSLTSCALE
 70
     0
  0
ENDSEC
  0
SECTION
  2
TABLES
  0
TABLE
  2
VPORT
 70
     1
  0
VPORT
  2
*ACTIVE
 70
     0
 10
0.0
 20
0.0
 11
1.0
 21
1.0
 12
3705.400713700104
 22
2341.493292393443
 13
0.0
 23
0.0
 14
50.0
 24
50.0
 15
100.0
 25
100.0
 16
0.0
 26
0.0
 36
1.0
 17
0.0
 27
0.0
 37
0.0
 40
4719.0286742685548
 41
1.5308953341740219
 42
50.0
 43
0.0
 44
0.0
 50
0.0
 51
0.0
 71
     0
 72
   100
 73
     1
 74
     0
 75
     0
 76
     0
 77
     0
 78
     0
  0
ENDTAB
  0
TABLE
  2
LTYPE
 70
    17
  0
LTYPE
  2
CONTINUOUS
 70
     0
  3
Solid line
 72
    65
 73
     0
 40
0.0
  0
LTYPE
  2
PHANTOM
 70
     0
  3
______  __  __  ______  __  __  ______  __  __ 
 72
    65
 73
     6
 40
2.5
 49
1.25
 49
-0.25
 49
0.25
 49
-0.25
 49
0.25
 49
-0.25
  0
LTYPE
  2
HIDDEN
 70
     0
  3
Hidden __ __ __ __ __ __ __ __ __ __ __ __ __ _
 72
    65
 73
     2
 40
0.375
 49
0.25
 49
-0.125
  0
LTYPE
  2
PHANTOM2
 70
     0
  3
Phantom (.5x) ___ _ _ ___ _ _ ___ _ _ ___ _ _
 72
    65
 73
     6
 40
1.25
 49
0.625
 49
-0.125
 49
0.125
 49
-0.125
 49
0.125
 49
-0.125
  0
LTYPE
  2
CENTER
 70
     0
  3
Center ____ _ ____ _ ____ _ ____ _ ____ _ ____
 72
    65
 73
     4
 40
2.0
 49
1.25
 49
-0.25
 49
0.25
 49
-0.25
  0
LTYPE
  2
AM_ISO02W050
 70
     0
  3
__ __ __ __ __ __ __ __ __ __ __ __ __ __ __
 72
    65
 73
     2
 40
7.5
 49
6.0
 49
-1.5
  0
LTYPE
  2
AM_ISO08W050
 70
     0
  3
____ . ____ . ____ . ____ . ____ . ____ . ____
 72
    65
 73
     4
 40
18.0
 49
12.0
 49
-1.5
 49
3.0
 49
-1.5
  0
LTYPE
  2
AM_ISO09W050
 70
     0
  3
_____ . . _____ . . _____ . . ____ .. ____
 72
    65
 73
     6
 40
22.5
 49
12.0
 49
-1.5
 49
3.0
 49
-1.5
 49
3.0
 49
-1.5
  0
LTYPE
  2
AMCONSTR
 70
     0
  3
_______________________
 72
    65
 73
     2
 40
9999.0
 49
9999.0
 49
0.0
  0
LTYPE
  2
AM_ISO08W050X2
 70
     0
  3
__ . __ . __ . __ . __ . __
 72
    65
 73
     4
 40
9.0
 49
6.0
 49
-0.75
 49
1.5
 49
-0.75
  0
LTYPE
  2
AM_ISO02W050X2
 70
     0
  3
 _ _ _ _ _ _ _ _ _ _ _ _
 72
    65
 73
     2
 40
3.75
 49
3.0
 49
-0.75
  0
LTYPE
  2
AMZIGZAG
 70
     0
  3
/\/-/\/-/\/-/\/-/\/-/\/
 72
    65
 73
     2
 40
11.0001
 49
0.0001
 49
-11.0
  0
LTYPE
  2
CENTER2
 70
     0
  3
Center (.5x) ___ _ ___ _ ___ _ ___ _ ___ _ ___
 72
    65
 73
     4
 40
1.125
 49
0.75
 49
-0.125
 49
0.125
 49
-0.125
  0
LTYPE
  2
HIDDEN2
 70
     0
  3
Hidden (.5x) _ _ _ _ _ _ _ _ _ _ _ _ _ _ _ _ _
 72
    65
 73
     2
 40
0.1875
 49
0.125
 49
-0.0625
  0
LTYPE
  2
AMZIGZAG2
 70
     0
  3
/\/-/\/-/\/-/\/-/\/-/\/
 72
    65
 73
     2
 40
0.4401
 49
0.0001
 49
-0.4400000000000003
  0
LTYPE
  2
ACANSTGB
 70
     0
  3
__ . . __ . .
 72
    65
 73
     6
 40
0.35433070866
 49
0.15748031496
 49
-0.03937007874
 49
0.03937007874
 49
-0.03937007874
 49
0.03937007874
 49
-0.03937007874
  0
LTYPE
  2
ACANSTGL
 70
     0
  3
_ _ _ _ _
 72
    65
 73
     2
 40
0.11811023622
 49
0.07874015748
 49
-0.03937007874
  0
ENDTAB
  0
TABLE
  2
LAYER
 70
     7
  0
LAYER
  2
0
 70
     0
 62
     7
  6
CONTINUOUS
  0
LAYER
  2
OUTLINE
 70
     0
 62
     7
  6
CONTINUOUS
  0
LAYER
  2
TEXT
 70
     0
 62
   100
  6
CONTINUOUS
  0
LAYER
  2
DIM
 70
     0
 62
     2
  6
CONTINUOUS
  0
LAYER
  2
MTG-FEET
 70
     0
 62
    30
  6
CONTINUOUS
  0
LAYER
  2
OVERLAY-A3
 70
     0
 62
     7
  6
CONTINUOUS
  0
LAYER
  2
CLEAR
 70
     0
 62
     1
  6
PHANTOM
  0
ENDTAB
  0
TABLE
  2
STYLE
 70
     8
  0
STYLE
  2
STANDARD
 70
     0
 40
0.0
 41
1.0
 50
0.0
 71
     0
 42
0.2
  3
txt
  4

  0
STYLE
  2
ANNOTATIVE
 70
     0
 40
0.0
 41
1.0
 50
0.0
 71
     0
 42
0.2
  3
txt
  4

  0
STYLE
  2
TITLE3
 70
     0
 40
45.0
 41
1.0
 50
0.0
 71
     0
 42
45.0
  3
SIMPLEX
  4

  0
STYLE
  2
TITLE5
 70
     0
 40
75.0
 41
1.0
 50
0.0
 71
     0
 42
100.0
  3
SIMPLEX
  4

  0
STYLE
  2
SIMPLEX
 70
     0
 40
60.0
 41
1.0
 50
0.0
 71
     0
 42
60.0
  3
simplex
  4

  0
STYLE
  2

 70
     1
 40
0.0
 41
1.0
 50
0.0
 71
     0
 42
45.0
  3
genltshp.shx
  4

  0
STYLE
  2
ACANSTS
 70
     0
 40
1.0
 41
1.0
 50
0.0
 71
     0
 42
45.0
  3
romans.shx
  4

  0
STYLE
  2
ACANSGDT
 70
     0
 40
0.0
 41
1.0
 50
0.0
 71
     0
 42
45.0
  3
amgdt.shx
  4

  0
ENDTAB
  0
TABLE
  2
VIEW
 70
     0
  0
ENDTAB
  0
TABLE
  2
UCS
 70
     0
  0
ENDTAB
  0
TABLE
  2
APPID
 70
    12
  0
APPID
  2
ACAD
 70
     0
  0
APPID
  2
ACADANNOTATIVE
 70
     0
  0
APPID
  2
ACAD_MLEADERVER
 70
     0
  0
APPID
  2
ACAD_PSEXT
 70
     0
  0
APPID
  2
MCAD_NO_VIS
 70
     0
  0
APPID
  2
ACAD_TEMP_GRAPHIC
 70
     0
  0
APPID
  2
AD_DRAW
 70
     0
  0
APPID
  2
ACATTRIBSERVICES
 70
     0
  0
APPID
  2
DESIGNERASSEMBLIES
 70
     0
  0
APPID
  2
ACADM_DIM_EDIT
 70
     0
  0
APPID
  2
AMDT_DM_ADJ
 70
     0
  0
APPID
  2
ACAD_EXEMPT_FROM_CAD_STANDARDS
 70
     0
  0
ENDTAB
  0
TABLE
  2
DIMSTYLE
 70
     8
  0
DIMSTYLE
  2
STANDARD
 70
     0
  3

  4

  5

  6

  7

 40
1.0
 41
0.18
 42
0.0625
 43
0.38
 44
0.18
 45
0.0
 46
0.0
 47
0.0
 48
0.0
140
0.18
141
0.09
142
0.0
143
25.399999999999999
144
1.0
145
0.0
146
1.0
147
0.09
 71
     0
 72
     0
 73
     1
 74
     1
 75
     0
 76
     0
 77
     0
 78
     0
170
     0
171
     2
172
     0
173
     0
174
     0
175
     0
176
     0
177
     0
178
     0
  0
DIMSTYLE
  2
ANNOTATIVE
 70
     0
  3

  4

  5

  6

  7

 40
1.0
 41
0.18
 42
0.0625
 43
0.38
 44
0.18
 45
0.0
 46
0.0
 47
0.0
 48
0.0
140
0.18
141
0.09
142
0.0
143
25.399999999999999
144
1.0
145
0.0
146
1.0
147
0.09
 71
     0
 72
     0
 73
     1
 74
     1
 75
     0
 76
     0
 77
     0
 78
     0
170
     0
171
     2
172
     0
173
     0
174
     0
175
     0
176
     0
177
     0
178
     0
  0
DIMSTYLE
  2
AM_ANSI
 70
     0
  3

  4
mm
  5

  6

  7

 40
1.0
 41
0.12
 42
0.05
 43
0.5
 44
0.1
 45
0.0
 46
0.0
 47
0.1
 48
0.1
140
0.12
141
0.0
142
0.0
143
25.399999999999999
144
1.0
145
0.0
146
0.71
147
0.06
 71
     0
 72
     0
 73
     1
 74
     1
 75
     0
 76
     0
 77
     0
 78
     7
170
     0
171
     2
172
     0
173
     0
174
     0
175
     0
176
   256
177
   256
178
     2
  0
DIMSTYLE
  2
AM_ANSI$3
 70
     0
  3

  4
mm
  5

  6

  7

 40
1.0
 41
0.12
 42
0.05
 43
0.5
 44
0.1
 45
0.0
 46
0.0
 47
0.1
 48
0.1
140
0.12
141
0.0
142
0.0
143
25.399999999999999
144
1.0
145
0.0
146
0.71
147
0.06
 71
     0
 72
     0
 73
     1
 74
     1
 75
     0
 76
     0
 77
     0
 78
     7
170
     0
171
     2
172
     0
173
     0
174
     0
175
     0
176
   256
177
   256
178
     2
  0
DIMSTYLE
  2
AM_ANSI$4
 70
     0
  3

  4
mm
  5

  6

  7

 40
1.0
 41
0.12
 42
0.05
 43
0.5
 44
0.1
 45
0.0
 46
0.0
 47
0.1
 48
0.1
140
0.12
141
0.0
142
0.0
143
25.399999999999999
144
1.0
145
0.0
146
0.71
147
0.06
 71
     0
 72
     0
 73
     1
 74
     1
 75
     0
 76
     0
 77
     0
 78
     7
170
     0
171
     2
172
     0
173
     0
174
     0
175
     0
176
   256
177
   256
178
     2
  0
DIMSTYLE
  2
AM_ANSI$7
 70
     0
  3

  4
mm
  5

  6

  7

 40
1.0
 41
0.12
 42
0.05
 43
0.5
 44
0.1
 45
0.0
 46
0.0
 47
0.1
 48
0.1
140
0.12
141
0.0
142
0.0
143
25.399999999999999
144
1.0
145
0.0
146
0.71
147
0.06
 71
     0
 72
     0
 73
     1
 74
     1
 75
     0
 76
     0
 77
     0
 78
     7
170
     0
171
     2
172
     0
173
     0
174
     0
175
     0
176
   256
177
   256
178
     2
  0
DIMSTYLE
  2
AM_ANSI$SF
 70
     0
  3

  4
mm
  5

  6

  7

 40
1.0
 41
0.12
 42
0.05
 43
0.5
 44
0.1
 45
0.0
 46
0.0
 47
0.1
 48
0.1
140
0.12
141
0.0
142
0.0
143
25.399999999999999
144
1.0
145
0.0
146
0.71
147
0.06
 71
     0
 72
     0
 73
     1
 74
     1
 75
     1
 76
     1
 77
     0
 78
     7
170
     0
171
     2
172
     0
173
     0
174
     0
175
     0
176
   256
177
   256
178
     2
  0
DIMSTYLE
  2
AM_ANSI$SH
 70
     0
  3

  4
mm
  5

  6
GENAXEH
  7

 40
1.0
 41
0.12
 42
0.05
 43
0.5
 44
0.1
 45
0.0
 46
0.0
 47
0.1
 48
0.1
140
0.12
141
0.0
142
0.0
143
25.399999999999999
144
1.0
145
0.0
146
0.71
147
0.06
 71
     0
 72
     0
 73
     1
 74
     1
 75
     1
 76
     1
 77
     0
 78
     7
170
     0
171
     2
172
     0
173
     1
174
     0
175
     0
176
   256
177
   256
178
     2
  0
ENDTAB
  0
ENDSEC
  0
SECTION
  2
BLOCKS
  0
BLOCK
  8
0
  2
$MODEL_SPACE
 70
     0
 10
0.0
 20
0.0
 30
0.0
  3
$MODEL_SPACE
  1

  0
ENDBLK
  5
1A6D
  8
0
  0
BLOCK
 67
     1
  8
0
  2
$PAPER_SPACE
 70
     0
 10
0.0
 20
0.0
 30
0.0
  3
$PAPER_SPACE
  1

  0
ENDBLK
  5
1A69
 67
     1
  8
0
  0
BLOCK
  8
0
  2
LINES
 70
     0
 10
0.0
 20
0.0
 30
0.0
  3
LINES
  1

  0
ENDBLK
  5
F67
  8
0
  0
BLOCK
  8
0
  2
NEW_BLOCK
 70
     0
 10
0.0
 20
0.0
 30
0.0
  3
NEW_BLOCK
  1

  0
TEXT
  5
F6A
  8
TEXT
 10
27.285946821803002
 20
25.27142175952417
 30
0.0
 40
40.0
  1
available on request
  7
TITLE3
  0
TEXT
  5
F6B
  8
TEXT
 10
27.285946821803002
 20
93.842850330952714
 30
0.0
 40
40.0
  1
Certified dimensions
  7
TITLE3
  0
TEXT
  5
F6C
  8
TEXT
 10
27.285946821803002
 20
162.4142789023812
 30
0.0
 40
40.0
  1
without notice or obligation.
  7
TITLE3
  0
TEXT
  5
F6D
  8
TEXT
 10
27.285946821803002
 20
230.9857074738097
 30
0.0
 40
40.0
  1
specifications at any time
  7
TITLE3
  0
TEXT
  5
F6E
  8
TEXT
 10
27.285946821803002
 20
299.55713604523839
 30
0.0
 40
40.0
  1
the right to change 
  7
TITLE3
  0
TEXT
  5
F6F
  8
TEXT
 10
27.285946821803002
 20
436.69999318809488
 30
0.0
 40
40.0
  1
NOTE
  7
TITLE3
  0
TEXT
  5
F70
  8
TEXT
 10
27.285946821803002
 20
368.12856461666678
 30
0.0
 40
40.0
  1
The manufacturer reserves
  7
TITLE3
  0
ENDBLK
  5
F71
  8
0
  0
BLOCK
  8
0
  2
GENAXEH
 70
     0
 10
0.0
 20
0.0
 30
0.0
  3
GENAXEH
  1

  0
LINE
  5
11EC
  8
0
 10
-1.0
 20
0.0
 30
0.0
 11
1.0
 21
0.0
 31
0.0
  0
ENDBLK
  5
11EE
  8
0
  0
BLOCK
  8
0
  2
*U5
 70
     1
 10
0.0
 20
0.0
 30
0.0
  3
*U5
  1

  0
TEXT
  5
1550
  8
TEXT
 10
2626.728253300982
 20
705.96161876651968
 30
0.0
 40
60.0
  1
OSA 175
  7
TITLE5
  0
TEXT
  5
1551
  8
TEXT
 10
2678.1568247295531
 20
605.96161876651968
 30
0.0
 40
60.0
  1
RKTHG
  7
TITLE5
  0
ENDBLK
  5
1553
  8
0
  0
BLOCK
  8
0
  2
*U6
 70
     1
 10
0.0
 20
0.0
 30
0.0
  3
*U6
  1

  0
TEXT
  5
1555
  8
TEXT
 10
2158.699581695857
 20
4047.9584319483888
 30
0.0
 40
60.0
  1
OSA 175RKTHG
  7
TITLE5
  0
ENDBLK
  5
1557
  8
0
  0
BLOCK
  8
0
  2
*U7
 70
     1
 10
0.0
 20
0.0
 30
0.0
  3
*U7
  1

  0
TEXT
  5
1867
  8
OVERLAY-A3
 10
4236.5413026078313
 20
4150.0630656892281
 30
0.0
 40
45.0
  1
389
 50
90.0
  0
ENDBLK
  5
1869
  8
0
  0
BLOCK
  8
0
  2
*U8
 70
     1
 10
0.0
 20
0.0
 30
0.0
  3
*U8
  1

  0
TEXT
  5
186B
  8
OVERLAY-A3
 10
5609.6572296216964
 20
4060.5630656892272
 30
0.0
 40
45.0
  1
422 O/A
 50
90.0
  0
ENDBLK
  5
186D
  8
0
  0
BLOCK
  8
0
  2
*U9
 70
     1
 10
0.0
 20
0.0
 30
0.0
  3
*U9
  1

  0
TEXT
  5
186F
  8
OVERLAY-A3
 10
5363.7440490226281
 20
4532.892957384247
 30
0.0
 40
45.0
  1
17
 50
90.0
  0
ENDBLK
  5
1871
  8
0
  0
BLOCK
  8
0
  2
*U10
 70
     1
 10
0.0
 20
0.0
 30
0.0
  3
*U10
  1

  0
TEXT
  5
1873
  8
OVERLAY-A3
 10
1820.676681088564
 20
597.64282502649564
 30
0.0
 40
45.0
  1
1119 O/A
 50
90.0
  0
ENDBLK
  5
1875
  8
0
  0
BLOCK
  8
0
  2
*U11
 70
     1
 10
0.0
 20
0.0
 30
0.0
  3
*U11
  1

  0
TEXT
  5
1877
  8
OVERLAY-A3
 10
1967.864371528633
 20
100.7515184167496
 30
0.0
 40
45.0
  1
180
  0
ENDBLK
  5
1879
  8
0
  0
BLOCK
  8
0
  2
*U12
 70
     1
 10
0.0
 20
0.0
 30
0.0
  3
*U12
  1

  0
TEXT
  5
187B
  8
OVERLAY-A3
 10
2316.7143715286329
 20
100.7515184167496
 30
0.0
 40
45.0
  1
765 CTRS
  0
ENDBLK
  5
187D
  8
0
  0
BLOCK
  8
0
  2
*U13
 70
     1
 10
0.0
 20
0.0
 30
0.0
  3
*U13
  1

  0
TEXT
  5
187F
  8
OVERLAY-A3
 10
2332.5143715286331
 20
1354.8076330213951
 30
0.0
 40
45.0
  1
1127 O/A
  0
ENDBLK
  5
1881
  8
0
  0
BLOCK
  8
0
  2
*U14
 70
     1
 10
0.0
 20
0.0
 30
0.0
  3
*U14
  1

  0
TEXT
  5
1883
  8
OVERLAY-A3
 10
3261.578438522592
 20
4035.0630656892281
 30
0.0
 40
45.0
  1
375 CTRS
 50
90.0
  0
ENDBLK
  5
1885
  8
0
  0
BLOCK
  8
0
  2
*U15
 70
     1
 10
0.0
 20
0.0
 30
0.0
  3
*U15
  1

  0
TEXT
  5
1887
  8
OVERLAY-A3
 10
5545.0379560977772
 20
3752.0630656892299
 30
0.0
 40
45.0
  1
20.5
 50
90.0
  0
ENDBLK
  5
1889
  8
0
  0
ENDSEC
  0
SECTION
  2
ENTITIES
  0
LINE
  5
F73
  8
OUTLINE
 10
2066.7143715286329
 20
187.1428250264955
 30
0.0
 11
2146.7143715286329
 21
187.1428250264955
 31
0.0
  0
LINE
  5
F76
  8
OUTLINE
 10
1926.514371528632
 20
1307.1428250264951
 30
0.0
 11
1926.514371528632
 21
219.44282502649551
 31
0.0
  0
TEXT
  5
F78
  8
TEXT
 10
4272.8624271399531
 20
407.27424669302309
 30
0.0
 40
75.0
  1
temperzone OSA 175RKTHG
 41
0.9337182036586622
  7
TITLE5
 72
     5
 11
5740.1338900321371
 21
407.27424669302309
 31
0.0
  0
TEXT
  5
F79
  8
TEXT
 10
5167.207040051012
 20
106.9986799601034
 30
0.0
 40
40.499999999999993
  1
OSA175RKTHG
 41
0.9354838709677419
  7
TITLE3
 72
     5
 11
5558.707040051012
 21
106.9986799601034
 31
0.0
  0
INSERT
  5
FCE
  8
MTG-FEET
  2
LINES
 10
637.42319439946073
 20
2246.7294005091198
 30
0.0
  0
TEXT
  5
FDF
  8
TEXT
 10
4445.5737691718496
 20
165.0
 30
0.0
 40
45.0
  1
29-11-07
 41
0.7088607594936657
  7
TITLE3
 72
     5
 11
4685.5737691718477
 21
165.0
 31
0.0
  0
TEXT
  5
FE0
  8
OVERLAY-A3
 10
4272.345334441874
 20
166.24682079015139
 30
0.0
 40
36.0
  1
Date
  7
SIMPLEX
  0
TEXT
  5
FE1
  8
OVERLAY-A3
 10
5619.166788560402
 20
194.25495303511681
 30
0.0
 40
36.0
  1
Revision
 41
0.7812095035934883
  7
SIMPLEX
 72
     5
 11
5777.1943110015991
 21
194.25495303511681
 31
0.0
  0
LINE
  5
FE2
  8
OVERLAY-A3
 10
5601.7370249852393
 20
31.2637392724757
 30
0.0
 11
5601.7370249852393
 21
252.40298356282
 31
0.0
  0
LINE
  5
FE3
  8
OVERLAY-A3
 10
4229.0272941857229
 20
505.82662824683229
 30
0.0
 11
4229.0272941857229
 21
31.2637392724757
 31
0.0
  0
LINE
  5
FE4
  8
OVERLAY-A3
 10
5125.3705170196408
 20
31.2637392724757
 30
0.0
 11
5125.3705170196408
 21
252.40298356282
 31
0.0
  0
LINE
  5
FE5
  8
OVERLAY-A3
 10
5125.370517019639
 20
139.9688989041955
 30
0.0
 11
4229.0272941857229
 21
139.9688989041955
 31
0.0
  0
LINE
  5
FE6
  8
OVERLAY-A3
 10
5792.3631978567637
 20
252.40298356282
 30
0.0
 11
4229.0272941857229
 21
252.40298356282
 31
0.0
  0
LINE
  5
FE7
  8
OVERLAY-A3
 10
4229.0272941857229
 20
31.2637392724757
 30
0.0
 11
5791.9169370892359
 21
31.2637392724757
 31
0.0
  0
LINE
  5
FE8
  8
OVERLAY-A3
 10
5791.9169370892359
 20
31.2637392724757
 30
0.0
 11
5791.9169370892359
 21
505.82662824683229
 31
0.0
  0
LINE
  5
FE9
  8
OVERLAY-A3
 10
5791.9169370892359
 20
505.82662824683229
 30
0.0
 11
4229.0272941857229
 21
505.82662824683229
 31
0.0
  0
TEXT
  5
FEA
  8
OVERLAY-A3
 10
4266.7248286546628
 20
71.883732098036546
 30
0.0
 40
30.0
  1
Scale
 41
1.3701747965660029
  7
SIMPLEX
 72
     5
 11
4417.4440562769232
 21
71.883732098036546
 31
0.0
  0
TEXT
  5
FEB
  8
OVERLAY-A3
 10
5212.2886854011949
 20
193.3401472600643
 30
0.0
 40
30.0
  1
Drawing No.
  7
SIMPLEX
 72
     2
 11
5473.7172568297656
 21
193.3401472600643
 31
0.0
  0
LINE
  5
FEC
  8
OVERLAY-A3
 10
1576.1105239390611
 20
0.0
 30
0.0
 11
5835.0
 21
0.0
 31
0.0
  0
LINE
  5
FED
  8
OVERLAY-A3
 10
5835.0
 20
0.0
 30
0.0
 11
5834.9999999999973
 21
4682.9776488828411
 31
0.0
  0
LINE
  5
FEE
  8
OVERLAY-A3
 10
5834.9999999999973
 20
4682.9776488828411
 30
0.0
 11
1576.1105239390611
 21
4682.977648882842
 31
0.0
  0
LINE
  5
FEF
  8
OVERLAY-A3
 10
1576.1105239390611
 20
4682.977648882842
 30
0.0
 11
1576.1105239390611
 21
0.0
 31
0.0
  0
TEXT
  5
FF0
  8
TEXT
 10
4499.1433054549598
 20
74.210057023356939
 30
0.0
 40
45.0
  1
1:20
  7
TITLE3
  0
TEXT
  5
10A0
  8
TEXT
 10
5115.8581734788086
 20
556.56898589035484
 30
0.0
 40
28.0
  1
available on request
  7
TITLE3
  0
TEXT
  5
10A1
  8
TEXT
 10
5115.8581734788086
 20
604.56898589035472
 30
0.0
 40
28.0
  1
Certified dimensions
  7
TITLE3
  0
TEXT
  5
10A2
  8
TEXT
 10
5115.8581734788086
 20
652.56898589035472
 30
0.0
 40
28.0
  1
without notice or obligation.
  7
TITLE3
  0
TEXT
  5
10A3
  8
TEXT
 10
5115.8581734788086
 20
700.56898589035472
 30
0.0
 40
28.0
  1
specifications at any time
  7
TITLE3
  0
TEXT
  5
10A4
  8
TEXT
 10
5115.8581734788086
 20
748.56898589035472
 30
0.0
 40
28.0
  1
the right to change 
  7
TITLE3
  0
TEXT
  5
10A5
  8
TEXT
 10
5115.8581734788086
 20
844.56898589035472
 30
0.0
 40
28.0
  1
NOTE
  7
TITLE3
  0
TEXT
  5
10A6
  8
TEXT
 10
5115.8581734788086
 20
796.56898589035472
 30
0.0
 40
28.0
  1
The manufacturer reserves
  7
TITLE3
  0
LINE
  5
1384
  8
OUTLINE
 10
3053.5143715286331
 20
1307.1428250264951
 30
0.0
 11
3053.5143715286331
 21
219.44282502649551
 31
0.0
  0
LINE
  5
1387
  8
OUTLINE
 10
1926.514371528632
 20
1307.1428250264951
 30
0.0
 11
3053.5143715286331
 21
1307.1428250264951
 31
0.0
  0
LINE
  5
1388
  8
OUTLINE
 10
1926.514371528632
 20
219.44282502649551
 30
0.0
 11
3053.5143715286331
 21
219.44282502649551
 31
0.0
  0
LINE
  5
1389
  8
OUTLINE
 10
2106.7143715286329
 20
197.1428250264953
 30
0.0
 11
2106.7143715286329
 21
177.14282502649539
 31
0.0
  0
LINE
  5
1393
  8
OUTLINE
 10
2146.7143715286329
 20
187.1428250264955
 30
0.0
 11
2179.0143715286322
 21
219.44282502649551
 31
0.0
  0
LINE
  5
1394
  8
OUTLINE
 10
2066.7143715286329
 20
187.1428250264955
 30
0.0
 11
2034.4143715286341
 21
219.44282502649551
 31
0.0
  0
LINE
  5
1396
  8
OUTLINE
 10
2831.7143715286329
 20
187.1428250264955
 30
0.0
 11
2911.7143715286329
 21
187.1428250264955
 31
0.0
  0
LINE
  5
1397
  8
OUTLINE
 10
2911.7143715286329
 20
187.1428250264955
 30
0.0
 11
2944.0143715286322
 21
219.44282502649551
 31
0.0
  0
LINE
  5
1398
  8
OUTLINE
 10
2831.7143715286329
 20
187.1428250264955
 30
0.0
 11
2799.4143715286332
 21
219.44282502649551
 31
0.0
  0
LINE
  5
139B
  8
OUTLINE
 10
2871.7143715286338
 20
197.1428250264953
 30
0.0
 11
2871.7143715286338
 21
177.14282502649539
 31
0.0
  0
CIRCLE
  5
139F
  8
OUTLINE
 10
2370.3143715286351
 20
1029.242825026495
 30
0.0
 40
257.5
  0
CIRCLE
  5
13A0
  8
OUTLINE
 10
2370.3143715286351
 20
494.2428250264955
 30
0.0
 40
257.5
  0
TEXT
  5
13A8
  8
DIM
 10
2479.054371645454
 20
3852.4216500804359
 30
0.0
 40
45.0
  1
FLOW
  7
SIMPLEX
  0
TEXT
  5
13A9
  8
DIM
 10
2513.8162731559191
 20
3923.2416114706211
 30
0.0
 40
45.0
  1
AIR
  7
SIMPLEX
  0
LINE
  5
13AA
  8
DIM
 10
2407.484922833265
 20
3889.4432166506558
 30
0.0
 11
2407.484922833265
 21
3951.1625079892401
 31
0.0
  0
LINE
  5
13AB
  8
DIM
 10
2434.7057012422351
 20
3889.4432166506558
 30
0.0
 11
2407.484922833265
 21
3889.4432166506558
 31
0.0
  0
LINE
  5
13AC
  8
DIM
 10
2394.824095666298
 20
3856.6845158632518
 30
0.0
 11
2434.7057012422351
 21
3889.4432166506558
 31
0.0
  0
LINE
  5
13AD
  8
DIM
 10
2382.1632684993351
 20
3951.1625079892401
 30
0.0
 11
2407.484922833265
 21
3951.1625079892401
 31
0.0
  0
LINE
  5
13AE
  8
DIM
 10
2382.1632684993351
 20
3889.4432166506558
 30
0.0
 11
2382.1632684993351
 21
3951.1625079892401
 31
0.0
  0
LINE
  5
13AF
  8
DIM
 10
2354.9424900903632
 20
3889.4432166506558
 30
0.0
 11
2382.1632684993351
 21
3889.4432166506558
 31
0.0
  0
LINE
  5
13B0
  8
DIM
 10
2394.824095666298
 20
3856.6845158632518
 30
0.0
 11
2354.9424900903632
 21
3889.4432166506558
 31
0.0
  0
TEXT
  5
13DD
  8
TEXT
 10
2599.3235341941249
 20
4575.5907155681343
 30
0.0
 40
45.0
  1
150 min CLEARANCE
  7
TITLE3
  0
TEXT
  5
13DE
  8
TEXT
 10
2125.7166651394091
 20
1540.957298557179
 30
0.0
 40
45.0
  1
2000 min CLEARANCE
  7
TITLE3
  0
TEXT
  5
13DF
  8
TEXT
 10
1673.0258966143001
 20
4192.4316367303391
 30
0.0
 40
45.0
  1
150 min
 50
90.0
  7
TITLE3
  0
TEXT
  5
13E0
  8
TEXT
 10
1750.168753757157
 20
4123.9626171839718
 30
0.0
 40
45.0
  1
CLEARANCE
 50
90.0
  7
TITLE3
  0
TEXT
  5
13E1
  8
TEXT
 10
3937.8869505180628
 20
4144.7813439173024
 30
0.0
 40
45.0
  1
1000 min
 50
90.0
  7
TITLE3
  0
TEXT
  5
13E2
  8
TEXT
 10
4015.0298076609188
 20
4094.1261082447231
 30
0.0
 40
45.0
  1
CLEARANCE
 50
90.0
  7
TITLE3
  0
LINE
  5
1413
  8
OUTLINE
 10
1926.514371528632
 20
4404.5630656892263
 30
0.0
 11
3053.5143715286331
 21
4404.5630656892263
 31
0.0
  0
LINE
  5
1414
  8
OUTLINE
 10
1926.514371528632
 20
4404.5630656892263
 30
0.0
 11
1926.514371528632
 21
4015.5630656892272
 31
0.0
  0
LINE
  5
1415
  8
OUTLINE
 10
3053.5143715286331
 20
4404.5630656892263
 30
0.0
 11
3053.5143715286331
 21
4015.5630656892272
 31
0.0
  0
LINE
  5
1416
  8
OUTLINE
 10
1926.514371528632
 20
4015.5630656892272
 30
0.0
 11
3053.5143715286331
 21
4015.5630656892272
 31
0.0
  0
LINE
  5
1417
  8
OUTLINE
 10
2066.7143715286329
 20
4421.5630656892254
 30
0.0
 11
2146.7143715286329
 21
4421.5630656892272
 31
0.0
  0
LINE
  5
141A
  8
OUTLINE
 10
2066.7143715286329
 20
3999.5630656892281
 30
0.0
 11
2146.7143715286329
 21
3999.5630656892281
 31
0.0
  0
POINT
  5
142C
  8
OUTLINE
 10
2106.7143715286329
 20
4020.0630656892249
 30
0.0
  0
POINT
  5
142E
  8
OUTLINE
 10
2106.7143715286329
 20
4395.0630656892272
 30
0.0
  0
POINT
  5
1437
  8
OUTLINE
 10
2871.7143715286338
 20
4020.0630656892249
 30
0.0
  0
POINT
  5
1438
  8
OUTLINE
 10
2871.7143715286338
 20
4395.0630656892272
 30
0.0
  0
LINE
  5
146E
  8
CLEAR
 10
1776.5143715286331
 20
4554.5630656892263
 30
0.0
 11
1776.514371528634
 21
4015.5630656892272
 31
0.0
  0
LINE
  5
146F
  8
CLEAR
 10
1776.5143715286331
 20
4554.5630656892263
 30
0.0
 11
4053.5143715286322
 21
4554.5630656892272
 31
0.0
  0
LINE
  5
1470
  8
CLEAR
 10
4053.5143715286322
 20
4554.5630656892272
 30
0.0
 11
4053.5143715286322
 21
4015.5630656892272
 31
0.0
  0
LINE
  5
1471
  8
CLEAR
 10
1926.514371528632
 20
1515.563065689227
 30
0.0
 11
3053.5143715286331
 21
1515.563065689227
 31
0.0
  0
LINE
  5
1472
  8
CLEAR
 10
1926.514371528632
 20
3990.5630656892272
 30
0.0
 11
1926.514371528632
 21
1515.563065689227
 31
0.0
  0
LINE
  5
1473
  8
CLEAR
 10
3053.5143715286331
 20
3990.5630656892272
 30
0.0
 11
3053.5143715286331
 21
1515.563065689227
 31
0.0
  0
LINE
  5
1474
  8
CLEAR
 10
3078.5143715286331
 20
4015.5630656892272
 30
0.0
 11
4053.5143715286322
 21
4015.5630656892272
 31
0.0
  0
LINE
  5
1475
  8
CLEAR
 10
1901.5143715286331
 20
4015.5630656892272
 30
0.0
 11
1776.514371528634
 21
4015.5630656892272
 31
0.0
  0
LINE
  5
151A
  8
OUTLINE
 10
2066.7143715286329
 20
3999.5630656892281
 30
0.0
 11
2050.7143715286329
 21
4015.5630656892272
 31
0.0
  0
LINE
  5
151B
  8
OUTLINE
 10
2146.7143715286329
 20
3999.5630656892281
 30
0.0
 11
2162.7143715286329
 21
4015.5630656892272
 31
0.0
  0
LINE
  5
151C
  8
OUTLINE
 10
2066.7143715286329
 20
4421.5630656892254
 30
0.0
 11
2049.714371528632
 21
4404.5630656892263
 31
0.0
  0
LINE
  5
151D
  8
OUTLINE
 10
2146.7143715286329
 20
4421.5630656892272
 30
0.0
 11
2163.7143715286338
 21
4404.563065689229
 31
0.0
  0
LINE
  5
151E
  8
OUTLINE
 10
2831.7143715286329
 20
4421.5630656892254
 30
0.0
 11
2911.7143715286329
 21
4421.5630656892272
 31
0.0
  0
LINE
  5
151F
  8
OUTLINE
 10
2831.7143715286329
 20
3999.5630656892281
 30
0.0
 11
2911.7143715286329
 21
3999.5630656892281
 31
0.0
  0
LINE
  5
1520
  8
OUTLINE
 10
2831.7143715286329
 20
3999.5630656892281
 30
0.0
 11
2815.7143715286329
 21
4015.5630656892272
 31
0.0
  0
LINE
  5
1521
  8
OUTLINE
 10
2911.7143715286329
 20
3999.5630656892281
 30
0.0
 11
2927.7143715286329
 21
4015.5630656892272
 31
0.0
  0
LINE
  5
1522
  8
OUTLINE
 10
2831.7143715286329
 20
4421.5630656892254
 30
0.0
 11
2814.714371528632
 21
4404.5630656892263
 31
0.0
  0
LINE
  5
1523
  8
OUTLINE
 10
2911.7143715286329
 20
4421.5630656892272
 30
0.0
 11
2928.7143715286352
 21
4404.563065689229
 31
0.0
  0
LINE
  5
168C
  8
OUTLINE
 10
4330.5972933150979
 20
4404.5630656892263
 30
0.0
 11
5418.2972933150986
 21
4404.5630656892263
 31
0.0
  0
LINE
  5
168D
  8
OUTLINE
 10
4330.5972933150979
 20
4015.563065689224
 30
0.0
 11
5418.2972933150986
 21
4015.5630656892272
 31
0.0
  0
LINE
  5
169F
  8
OUTLINE
 10
4330.5972933150979
 20
4015.563065689224
 30
0.0
 11
4330.5972933150979
 21
4404.5630656892263
 31
0.0
  0
LINE
  5
16A0
  8
OUTLINE
 10
5418.2972933150986
 20
4015.5630656892272
 30
0.0
 11
5418.2972933150986
 21
4404.5630656892263
 31
0.0
  0
LINE
  5
16B2
  8
OUTLINE
 10
5450.5972933150979
 20
3999.5630656892281
 30
0.0
 11
5450.5972933150997
 21
4421.5630656892254
 31
0.0
  0
LINE
  5
16B3
  8
OUTLINE
 10
5450.5972933150979
 20
3999.5630656892281
 30
0.0
 11
5418.2972933150986
 21
4031.863065689226
 31
0.0
  0
LINE
  5
16B4
  8
OUTLINE
 10
5450.5972933150997
 20
4421.5630656892254
 30
0.0
 11
5418.2972933150986
 21
4389.2630656892243
 31
0.0
  0
LINE
  5
16B5
  8
OUTLINE
 10
5460.5972933150979
 20
4395.0630656892272
 30
0.0
 11
5440.5972933150997
 21
4395.0630656892272
 31
0.0
  0
LINE
  5
16B6
  8
OUTLINE
 10
5460.5972933150979
 20
4020.0630656892249
 30
0.0
 11
5440.597293315097
 21
4020.0630656892249
 31
0.0
  0
LINE
  5
16BC
  8
OVERLAY-A3
 10
4300.5972933150979
 20
4404.5630656892263
 30
0.0
 11
4184.0413026078304
 21
4404.5630656892263
 31
0.0
  0
LINE
  5
16BD
  8
OVERLAY-A3
 10
4300.5972933150979
 20
4015.563065689224
 30
0.0
 11
4184.0413026078304
 21
4015.563065689224
 31
0.0
  0
LINE
  5
16BE
  8
OVERLAY-A3
 10
4214.0413026078313
 20
4359.5630656892281
 30
0.0
 11
4214.0413026078313
 21
4300.0630656892272
 31
0.0
  0
LINE
  5
16BF
  8
OVERLAY-A3
 10
4214.0413026078313
 20
4060.5630656892249
 30
0.0
 11
4214.0413026078313
 21
4120.0630656892272
 31
0.0
  0
SOLID
  5
16C0
  8
OVERLAY-A3
 10
4206.5413026078304
 20
4359.5630656892281
 30
0.0
 11
4221.5413026078304
 21
4359.5630656892281
 31
0.0
 12
4214.0413026078313
 22
4404.5630656892263
 32
0.0
 13
4214.0413026078313
 23
4404.5630656892263
 33
0.0
  0
SOLID
  5
16C1
  8
OVERLAY-A3
 10
4206.5413026078304
 20
4060.5630656892249
 30
0.0
 11
4221.5413026078304
 21
4060.5630656892249
 31
0.0
 12
4214.0413026078313
 22
4015.563065689224
 32
0.0
 13
4214.0413026078313
 23
4015.563065689224
 33
0.0
  0
INSERT
  5
16C2
  8
OUTLINE
  2
*U7
 10
0.0
 20
0.0
 30
0.0
  0
LINE
  5
16C3
  8
OVERLAY-A3
 10
5480.5972933150979
 20
4421.5630656892254
 30
0.0
 11
5618.1572296216946
 21
4421.5630656892254
 31
0.0
  0
LINE
  5
16C4
  8
OVERLAY-A3
 10
5480.5972933150979
 20
3999.5630656892281
 30
0.0
 11
5618.1572296216946
 21
3999.5630656892281
 31
0.0
  0
LINE
  5
16C5
  8
OVERLAY-A3
 10
5588.1572296216964
 20
4466.5630656892254
 30
0.0
 11
5588.1572296216964
 21
4511.5630656892263
 31
0.0
  0
LINE
  5
16C6
  8
OVERLAY-A3
 10
5588.1572296216964
 20
3954.5630656892281
 30
0.0
 11
5588.1572296216964
 21
3909.5630656892281
 31
0.0
  0
SOLID
  5
16C7
  8
OVERLAY-A3
 10
5580.6572296216964
 20
4466.5630656892254
 30
0.0
 11
5595.6572296216946
 21
4466.5630656892254
 31
0.0
 12
5588.1572296216964
 22
4421.5630656892254
 32
0.0
 13
5588.1572296216964
 23
4421.5630656892254
 33
0.0
  0
SOLID
  5
16C8
  8
OVERLAY-A3
 10
5580.6572296216964
 20
3954.5630656892281
 30
0.0
 11
5595.6572296216946
 21
3954.5630656892281
 31
0.0
 12
5588.1572296216964
 22
3999.5630656892281
 32
0.0
 13
5588.1572296216964
 23
3999.5630656892281
 33
0.0
  0
INSERT
  5
16C9
  8
OUTLINE
  2
*U8
 10
0.0
 20
0.0
 30
0.0
  0
LINE
  5
16CA
  8
OVERLAY-A3
 10
5419.5972933150979
 20
4421.5630656892254
 30
0.0
 11
5311.244049022629
 21
4421.5630656892254
 31
0.0
  0
LINE
  5
16CB
  8
OVERLAY-A3
 10
5388.2972933150977
 20
4404.5630656892263
 30
0.0
 11
5311.244049022629
 21
4404.5630656892263
 31
0.0
  0
LINE
  5
16CC
  8
OVERLAY-A3
 10
5341.244049022629
 20
4466.5630656892254
 30
0.0
 11
5341.244049022629
 21
4511.5630656892263
 31
0.0
  0
LINE
  5
16CD
  8
OVERLAY-A3
 10
5341.244049022629
 20
4359.5630656892272
 30
0.0
 11
5341.244049022629
 21
4314.5630656892272
 31
0.0
  0
SOLID
  5
16CE
  8
OVERLAY-A3
 10
5333.744049022629
 20
4466.5630656892254
 30
0.0
 11
5348.744049022629
 21
4466.5630656892254
 31
0.0
 12
5341.244049022629
 22
4421.5630656892254
 32
0.0
 13
5341.244049022629
 23
4421.5630656892254
 33
0.0
  0
SOLID
  5
16CF
  8
OVERLAY-A3
 10
5333.744049022629
 20
4359.5630656892272
 30
0.0
 11
5348.744049022629
 21
4359.5630656892272
 31
0.0
 12
5341.244049022629
 22
4404.5630656892263
 32
0.0
 13
5341.244049022629
 23
4404.5630656892263
 33
0.0
  0
INSERT
  5
16D0
  8
OUTLINE
  2
*U9
 10
0.0
 20
0.0
 30
0.0
  0
LINE
  5
16D1
  8
OVERLAY-A3
 10
1896.5143715286331
 20
1307.1428250264951
 30
0.0
 11
1768.176681088564
 21
1307.1428250264951
 31
0.0
  0
LINE
  5
16D3
  8
OVERLAY-A3
 10
1798.176681088564
 20
1262.1428250264951
 30
0.0
 11
1798.176681088564
 21
927.64282502649542
 31
0.0
  0
LINE
  5
16D4
  8
OVERLAY-A3
 10
1798.176681088564
 20
232.1428250264955
 30
0.0
 11
1798.176681088564
 21
566.64282502649553
 31
0.0
  0
SOLID
  5
16D5
  8
OVERLAY-A3
 10
1790.676681088564
 20
1262.1428250264951
 30
0.0
 11
1805.676681088564
 21
1262.1428250264951
 31
0.0
 12
1798.176681088564
 22
1307.1428250264951
 32
0.0
 13
1798.176681088564
 23
1307.1428250264951
 33
0.0
  0
SOLID
  5
16D6
  8
OVERLAY-A3
 10
1790.676681088564
 20
232.1428250264955
 30
0.0
 11
1805.676681088564
 21
232.1428250264955
 31
0.0
 12
1798.176681088564
 22
187.1428250264955
 32
0.0
 13
1798.176681088564
 23
187.1428250264955
 33
0.0
  0
LINE
  5
16D8
  8
OVERLAY-A3
 10
1926.514371528632
 20
189.44282502649551
 30
0.0
 11
1926.514371528632
 21
93.25151841674959
 31
0.0
  0
LINE
  5
16D9
  8
OVERLAY-A3
 10
2106.7143715286329
 20
133.1428250264955
 30
0.0
 11
2106.7143715286329
 21
93.25151841674959
 31
0.0
  0
LINE
  5
16DA
  8
OVERLAY-A3
 10
1881.5143715286331
 20
123.2515184167496
 30
0.0
 11
1836.5143715286331
 21
123.2515184167496
 31
0.0
  0
LINE
  5
16DB
  8
OVERLAY-A3
 10
2151.7143715286329
 20
123.2515184167496
 30
0.0
 11
2196.7143715286329
 21
123.2515184167496
 31
0.0
  0
SOLID
  5
16DC
  8
OVERLAY-A3
 10
1881.5143715286331
 20
130.7515184167496
 30
0.0
 11
1881.5143715286331
 21
115.7515184167496
 31
0.0
 12
1926.514371528632
 22
123.2515184167496
 32
0.0
 13
1926.514371528632
 23
123.2515184167496
 33
0.0
  0
SOLID
  5
16DD
  8
OVERLAY-A3
 10
2151.7143715286329
 20
130.7515184167496
 30
0.0
 11
2151.7143715286329
 21
115.7515184167496
 31
0.0
 12
2106.7143715286329
 22
123.2515184167496
 32
0.0
 13
2106.7143715286329
 23
123.2515184167496
 33
0.0
  0
INSERT
  5
16DE
  8
OUTLINE
  2
*U11
 10
0.0
 20
0.0
 30
0.0
  0
LINE
  5
16DF
  8
OVERLAY-A3
 10
2106.7143715286329
 20
160.6533967375326
 30
0.0
 11
2106.7143715286329
 21
93.25151841674959
 31
0.0
  0
LINE
  5
16E0
  8
OVERLAY-A3
 10
2871.7143715286338
 20
160.6533967375326
 30
0.0
 11
2871.7143715286338
 21
93.25151841674959
 31
0.0
  0
LINE
  5
16E1
  8
OVERLAY-A3
 10
2151.7143715286329
 20
123.2515184167496
 30
0.0
 11
2286.7143715286329
 21
123.2515184167496
 31
0.0
  0
LINE
  5
16E2
  8
OVERLAY-A3
 10
2826.7143715286338
 20
123.2515184167496
 30
0.0
 11
2691.7143715286329
 21
123.2515184167496
 31
0.0
  0
SOLID
  5
16E3
  8
OVERLAY-A3
 10
2151.7143715286329
 20
130.7515184167496
 30
0.0
 11
2151.7143715286329
 21
115.7515184167496
 31
0.0
 12
2106.7143715286329
 22
123.2515184167496
 32
0.0
 13
2106.7143715286329
 23
123.2515184167496
 33
0.0
  0
SOLID
  5
16E4
  8
OVERLAY-A3
 10
2826.7143715286338
 20
130.7515184167496
 30
0.0
 11
2826.7143715286338
 21
115.7515184167496
 31
0.0
 12
2871.7143715286338
 22
123.2515184167496
 32
0.0
 13
2871.7143715286338
 23
123.2515184167496
 33
0.0
  0
INSERT
  5
16E5
  8
OUTLINE
  2
*U12
 10
0.0
 20
0.0
 30
0.0
  0
LINE
  5
16E6
  8
OVERLAY-A3
 10
1926.514371528632
 20
1337.1428250264951
 30
0.0
 11
1926.514371528632
 21
1407.3076330213951
 31
0.0
  0
LINE
  5
16E7
  8
OVERLAY-A3
 10
3053.5143715286331
 20
1337.1428250264951
 30
0.0
 11
3053.5143715286331
 21
1407.3076330213951
 31
0.0
  0
LINE
  5
16E8
  8
OVERLAY-A3
 10
1971.514371528632
 20
1377.3076330213951
 30
0.0
 11
2302.5143715286331
 21
1377.3076330213951
 31
0.0
  0
LINE
  5
16E9
  8
OVERLAY-A3
 10
3008.5143715286331
 20
1377.3076330213951
 30
0.0
 11
2677.514371528634
 21
1377.3076330213951
 31
0.0
  0
SOLID
  5
16EA
  8
OVERLAY-A3
 10
1971.514371528632
 20
1384.8076330213951
 30
0.0
 11
1971.514371528632
 21
1369.8076330213951
 31
0.0
 12
1926.514371528632
 22
1377.3076330213951
 32
0.0
 13
1926.514371528632
 23
1377.3076330213951
 33
0.0
  0
SOLID
  5
16EB
  8
OVERLAY-A3
 10
3008.5143715286331
 20
1384.8076330213951
 30
0.0
 11
3008.5143715286331
 21
1369.8076330213951
 31
0.0
 12
3053.5143715286331
 22
1377.3076330213951
 32
0.0
 13
3053.5143715286331
 23
1377.3076330213951
 33
0.0
  0
INSERT
  5
16EC
  8
OUTLINE
  2
*U13
 10
0.0
 20
0.0
 30
0.0
  0
LINE
  5
1701
  8
OVERLAY-A3
 10
2901.7143715286338
 20
4395.0630656892272
 30
0.0
 11
3269.0784385225929
 21
4395.0630656892272
 31
0.0
  0
LINE
  5
1702
  8
OVERLAY-A3
 10
2901.7143715286338
 20
4020.0630656892249
 30
0.0
 11
3269.0784385225929
 21
4020.0630656892249
 31
0.0
  0
LINE
  5
1703
  8
OVERLAY-A3
 10
3239.0784385225929
 20
4440.0630656892272
 30
0.0
 11
3239.0784385225929
 21
4485.0630656892272
 31
0.0
  0
LINE
  5
1704
  8
OVERLAY-A3
 10
3239.0784385225929
 20
3975.0630656892258
 30
0.0
 11
3239.0784385225929
 21
3930.0630656892272
 31
0.0
  0
SOLID
  5
1705
  8
OVERLAY-A3
 10
3231.5784385225929
 20
4440.0630656892272
 30
0.0
 11
3246.578438522592
 21
4440.0630656892272
 31
0.0
 12
3239.0784385225929
 22
4395.0630656892272
 32
0.0
 13
3239.0784385225929
 23
4395.0630656892272
 33
0.0
  0
SOLID
  5
1706
  8
OVERLAY-A3
 10
3231.5784385225929
 20
3975.0630656892258
 30
0.0
 11
3246.578438522592
 21
3975.0630656892258
 31
0.0
 12
3239.0784385225929
 22
4020.0630656892249
 32
0.0
 13
3239.0784385225929
 23
4020.0630656892249
 33
0.0
  0
INSERT
  5
1707
  8
OUTLINE
  2
*U14
 10
0.0
 20
0.0
 30
0.0
  0
LINE
  5
1708
  8
OVERLAY-A3
 10
5488.8875457058293
 20
4020.0630656892249
 30
0.0
 11
5551.8282084885059
 21
4020.0630656892249
 31
0.0
  0
LINE
  5
1709
  8
OVERLAY-A3
 10
5480.5972933150979
 20
3999.5630656892281
 30
0.0
 11
5563.5379560977781
 21
3999.5630656892281
 31
0.0
  0
LINE
  5
170A
  8
OVERLAY-A3
 10
5523.5379560977781
 20
4065.0630656892249
 30
0.0
 11
5523.5379560977781
 21
4110.0630656892272
 31
0.0
  0
LINE
  5
170B
  8
OVERLAY-A3
 10
5523.5379560977781
 20
3954.5630656892281
 30
0.0
 11
5523.5379560977781
 21
3909.5630656892281
 31
0.0
  0
SOLID
  5
170C
  8
OVERLAY-A3
 10
5516.0379560977781
 20
4065.0630656892249
 30
0.0
 11
5531.0379560977781
 21
4065.0630656892249
 31
0.0
 12
5523.5379560977781
 22
4020.0630656892249
 32
0.0
 13
5523.5379560977781
 23
4020.0630656892249
 33
0.0
  0
SOLID
  5
170D
  8
OVERLAY-A3
 10
5516.0379560977781
 20
3954.5630656892281
 30
0.0
 11
5531.0379560977781
 21
3954.5630656892281
 31
0.0
 12
5523.5379560977781
 22
3999.5630656892281
 32
0.0
 13
5523.5379560977781
 23
3999.5630656892281
 33
0.0
  0
INSERT
  5
170E
  8
OUTLINE
  2
*U15
 10
0.0
 20
0.0
 30
0.0
  0
TEXT
  5
17F0
  8
OUTLINE
 10
2158.699581695857
 20
4190.5389168772872
 30
0.0
 40
60.0
  1
OSA 175RKTHG
  7
TITLE5
  0
TEXT
  5
17F1
  8
OUTLINE
 10
4558.4570899370174
 20
4190.5389168772872
 30
0.0
 40
60.0
  1
OSA 175RKTHG
  7
TITLE5
  0
TEXT
  5
17F2
  8
OUTLINE
 10
2626.728253300982
 20
801.31039166585083
 30
0.0
 40
60.0
  1
OSA 175
  7
TITLE5
  0
TEXT
  5
17F3
  8
OUTLINE
 10
2678.1568247295531
 20
701.31039166585072
 30
0.0
 40
60.0
  1
RKTHG
  7
TITLE5
  0
LINE
  5
19D0
  8
OVERLAY-A3
 10
2036.7143715286329
 20
187.1428250264955
 30
0.0
 11
1768.1766810885631
 21
187.1428250264955
 31
0.0
  0
TEXT
  5
19D3
  8
OVERLAY-A3
 10
1820.676681088564
 20
597.64282502649564
 30
0.0
 40
45.0
  1
1120 O/A
 50
90.0
  0
ENDSEC
  0
EOF
