  0
SECTION
  2
HEADER
  9
$ACADVER
  1
AC1009
  9
$INSBASE
 10
0.0
 20
0.0
 30
0.0
  9
$EXTMIN
 10
1671.246968301999
 20
-0.3246872123272624
 30
-0.0000000349181948
  9
$EXTMAX
 10
5835.1187292289906
 20
4098.4148835644583
 30
0.0000000814935747
  9
$LIMMIN
 10
0.0
 20
0.0
  9
$LIMMAX
 10
7780.0
 20
5320.0
  9
$ORTHOMODE
 70
     1
  9
$REGENMODE
 70
     1
  9
$FILLMODE
 70
     1
  9
$QTEXTMODE
 70
     0
  9
$MIRRTEXT
 70
     0
  9
$DRAGMODE
 70
     2
  9
$LTSCALE
 40
100.0
  9
$OSMODE
 70
    37
  9
$ATTMODE
 70
     1
  9
$TEXTSIZE
 40
40.0
  9
$TRACEWID
 40
0.05
  9
$TEXTSTYLE
  7
TITLE3
  9
$CLAYER
  8
DIM
  9
$CELTYPE
  6
BYLAYER
  9
$CECOLOR
 62
   256
  9
$DIMSCALE
 40
1.0
  9
$DIMASZ
 40
0.12
  9
$DIMEXO
 40
0.05
  9
$DIMDLI
 40
0.5
  9
$DIMRND
 40
0.0
  9
$DIMDLE
 40
0.0
  9
$DIMEXE
 40
0.1
  9
$DIMTP
 40
0.1
  9
$DIMTM
 40
0.1
  9
$DIMTXT
 40
0.12
  9
$DIMCEN
 40
0.0
  9
$DIMTSZ
 40
0.0
  9
$DIMTOL
 70
     0
  9
$DIMLIM
 70
     0
  9
$DIMTIH
 70
     1
  9
$DIMTOH
 70
     1
  9
$DIMSE1
 70
     0
  9
$DIMSE2
 70
     0
  9
$DIMTAD
 70
     0
  9
$DIMZIN
 70
     7
  9
$DIMBLK
  1

  9
$DIMASO
 70
     0
  9
$DIMSHO
 70
     0
  9
$DIMPOST
  1

  9
$DIMAPOST
  1
mm
  9
$DIMALT
 70
     0
  9
$DIMALTD
 70
     2
  9
$DIMALTF
 40
25.399999999999999
  9
$DIMLFAC
 40
1.0
  9
$DIMTOFL
 70
     0
  9
$DIMTVP
 40
0.0
  9
$DIMTIX
 70
     0
  9
$DIMSOXD
 70
     0
  9
$DIMSAH
 70
     0
  9
$DIMBLK1
  1

  9
$DIMBLK2
  1

  9
$DIMSTYLE
  2
AM_ANSI
  9
$DIMCLRD
 70
   256
  9
$DIMCLRE
 70
   256
  9
$DIMCLRT
 70
     2
  9
$DIMTFAC
 40
0.71
  9
$DIMGAP
 40
0.06
  9
$LUNITS
 70
     2
  9
$LUPREC
 70
     2
  9
$SKETCHINC
 40
0.1
  9
$FILLETRAD
 40
0.0
  9
$AUNITS
 70
     0
  9
$AUPREC
 70
     2
  9
$MENU
  1
\acad12\support\cnc
  9
$ELEVATION
 40
0.0
  9
$PELEVATION
 40
0.0
  9
$THICKNESS
 40
0.0
  9
$LIMCHECK
 70
     0
  9
$BLIPMODE
 70
     0
  9
$CHAMFERA
 40
0.0
  9
$CHAMFERB
 40
0.0
  9
$SKPOLY
 70
     0
  9
$TDCREATE
 40
2451402.5558215282
  9
$TDUPDATE
 40
2455145.3280417821
  9
$TDINDWG
 40
0.4317807639
  9
$TDUSRTIMER
 40
0.4317775116
  9
$USRTIMER
 70
     1
  9
$ANGBASE
 50
0.0
  9
$ANGDIR
 70
     0
  9
$PDMODE
 70
     2
  9
$PDSIZE
 40
15.0
  9
$PLINEWID
 40
0.0
  9
$COORDS
 70
     0
  9
$SPLFRAME
 70
     0
  9
$SPLINETYPE
 70
     6
  9
$SPLINESEGS
 70
     8
  9
$ATTDIA
 70
     1
  9
$ATTREQ
 70
     1
  9
$HANDLING
 70
     1
  9
$HANDSEED
  5
17E3
  9
$SURFTAB1
 70
     6
  9
$SURFTAB2
 70
     6
  9
$SURFTYPE
 70
     6
  9
$SURFU
 70
     6
  9
$SURFV
 70
     6
  9
$UCSNAME
  2

  9
$UCSORG
 10
0.0
 20
0.0
 30
0.0
  9
$UCSXDIR
 10
1.0
 20
0.0
 30
0.0
  9
$UCSYDIR
 10
0.0
 20
1.0
 30
0.0
  9
$PUCSNAME
  2

  9
$PUCSORG
 10
0.0
 20
0.0
 30
0.0
  9
$PUCSXDIR
 10
1.0
 20
0.0
 30
0.0
  9
$PUCSYDIR
 10
0.0
 20
1.0
 30
0.0
  9
$USERI1
 70
     0
  9
$USERI2
 70
     0
  9
$USERI3
 70
     0
  9
$USERI4
 70
     0
  9
$USERI5
 70
     0
  9
$USERR1
 40
0.0
  9
$USERR2
 40
0.0
  9
$USERR3
 40
0.0
  9
$USERR4
 40
0.0
  9
$USERR5
 40
0.0
  9
$WORLDVIEW
 70
     1
  9
$SHADEDGE
 70
     3
  9
$SHADEDIF
 70
    70
  9
$TILEMODE
 70
     1
  9
$MAXACTVP
 70
    16
  9
$PLIMCHECK
 70
     0
  9
$PEXTMIN
 10
1.0000000000000000E+020
 20
1.0000000000000000E+020
 30
1.0000000000000000E+020
  9
$PEXTMAX
 10
-1.0000000000000000E+020
 20
-1.0000000000000000E+020
 30
-1.0000000000000000E+020
  9
$PLIMMIN
 10
0.0
 20
0.0
  9
$PLIMMAX
 10
12.0
 20
9.0
  9
$UNITMODE
 70
     0
  9
$VISRETAIN
 70
     0
  9
$PLINEGEN
 70
     0
  9
$PSLTSCALE
 70
     0
  0
ENDSEC
  0
SECTION
  2
TABLES
  0
TABLE
  2
VPORT
 70
     1
  0
VPORT
  2
*ACTIVE
 70
     0
 10
0.0
 20
0.0
 11
1.0
 21
1.0
 12
3753.1828487654961
 22
2049.045098176065
 13
0.0
 23
0.0
 14
50.0
 24
50.0
 15
100.0
 25
100.0
 16
0.0
 26
0.0
 36
1.0
 17
0.0
 27
0.0
 37
0.0
 40
4123.7827860768466
 41
1.656472986748216
 42
50.0
 43
0.0
 44
0.0
 50
0.0
 51
0.0
 71
     0
 72
   100
 73
     1
 74
     0
 75
     0
 76
     0
 77
     0
 78
     0
  0
ENDTAB
  0
TABLE
  2
LTYPE
 70
    19
  0
LTYPE
  2
CONTINUOUS
 70
     0
  3
Solid line
 72
    65
 73
     0
 40
0.0
  0
LTYPE
  2
PHANTOM
 70
     0
  3
______  __  __  ______  __  __  ______  __  __ 
 72
    65
 73
     6
 40
2.5
 49
1.25
 49
-0.25
 49
0.25
 49
-0.25
 49
0.25
 49
-0.25
  0
LTYPE
  2
HIDDEN
 70
     0
  3
Hidden __ __ __ __ __ __ __ __ __ __ __ __ __ __
 72
    65
 73
     2
 40
0.375
 49
0.25
 49
-0.125
  0
LTYPE
  2
PHANTOM2
 70
     0
  3
Phantom (.5x) ___ _ _ ___ _ _ ___ _ _ ___ _ _
 72
    65
 73
     6
 40
1.25
 49
0.625
 49
-0.125
 49
0.125
 49
-0.125
 49
0.125
 49
-0.125
  0
LTYPE
  2
CENTER
 70
     0
  3
Center ____ _ ____ _ ____ _ ____ _ ____ _ ____
 72
    65
 73
     4
 40
2.0
 49
1.25
 49
-0.25
 49
0.25
 49
-0.25
  0
LTYPE
  2
AM_ISO02W050
 70
     0
  3
__ __ __ __ __ __ __ __ __ __ __ __ __ __ __
 72
    65
 73
     2
 40
7.5
 49
6.0
 49
-1.5
  0
LTYPE
  2
AM_ISO08W050
 70
     0
  3
____ . ____ . ____ . ____ . ____ . ____ . ____
 72
    65
 73
     4
 40
18.0
 49
12.0
 49
-1.5
 49
3.0
 49
-1.5
  0
LTYPE
  2
AM_ISO09W050
 70
     0
  3
_____ . . _____ . . _____ . . ____ .. ____
 72
    65
 73
     6
 40
22.5
 49
12.0
 49
-1.5
 49
3.0
 49
-1.5
 49
3.0
 49
-1.5
  0
LTYPE
  2
AMCONSTR
 70
     0
  3
_______________________
 72
    65
 73
     2
 40
9999.0
 49
9999.0
 49
0.0
  0
LTYPE
  2
AM_ISO08W050X2
 70
     0
  3
__ . __ . __ . __ . __ . __
 72
    65
 73
     4
 40
9.0
 49
6.0
 49
-0.75
 49
1.5
 49
-0.75
  0
LTYPE
  2
AM_ISO02W050X2
 70
     0
  3
 _ _ _ _ _ _ _ _ _ _ _ _
 72
    65
 73
     2
 40
3.75
 49
3.0
 49
-0.75
  0
LTYPE
  2
AMZIGZAG
 70
     0
  3
/\/-/\/-/\/-/\/-/\/-/\/
 72
    65
 73
     2
 40
11.0001
 49
0.0001
 49
-11.0
  0
LTYPE
  2
CENTER2
 70
     0
  3
Center (.5x) ___ _ ___ _ ___ _ ___ _ ___ _ ___
 72
    65
 73
     4
 40
1.125
 49
0.75
 49
-0.125
 49
0.125
 49
-0.125
  0
LTYPE
  2
HIDDEN2
 70
     0
  3
Hidden (.5x) _ _ _ _ _ _ _ _ _ _ _ _ _ _ _ _ _
 72
    65
 73
     2
 40
0.1875
 49
0.125
 49
-0.0625
  0
LTYPE
  2
AMZIGZAG2
 70
     0
  3
/\/-/\/-/\/-/\/-/\/-/\/
 72
    65
 73
     2
 40
0.4401
 49
0.0001
 49
-0.4400000000000002
  0
LTYPE
  2
ACANSTGB
 70
     0
  3
__ . . __ . .
 72
    65
 73
     6
 40
0.35433070866
 49
0.15748031496
 49
-0.03937007874
 49
0.03937007874
 49
-0.03937007874
 49
0.03937007874
 49
-0.03937007874
  0
LTYPE
  2
ACANSTGL
 70
     0
  3
_ _ _ _ _
 72
    65
 73
     2
 40
0.11811023622
 49
0.07874015748
 49
-0.03937007874
  0
ENDTAB
  0
TABLE
  2
LAYER
 70
     6
  0
LAYER
  2
0
 70
     0
 62
     7
  6
CONTINUOUS
  0
LAYER
  2
DIM
 70
     0
 62
     7
  6
CONTINUOUS
  0
LAYER
  2
OUTLINE
 70
     0
 62
     7
  6
CONTINUOUS
  0
LAYER
  2
TEXT
 70
     0
 62
   100
  6
CONTINUOUS
  0
LAYER
  2
MTG-FEET
 70
     0
 62
    30
  6
CONTINUOUS
  0
LAYER
  2
OVERLAY-A3
 70
     0
 62
     7
  6
CONTINUOUS
  0
ENDTAB
  0
TABLE
  2
STYLE
 70
     8
  0
STYLE
  2
STANDARD
 70
     0
 40
0.0
 41
1.0
 50
0.0
 71
     0
 42
0.2
  3
txt
  4

  0
STYLE
  2
ANNOTATIVE
 70
     0
 40
0.0
 41
1.0
 50
0.0
 71
     0
 42
0.2
  3
txt
  4

  0
STYLE
  2
TITLE3
 70
     0
 40
40.0
 41
1.0
 50
0.0
 71
     0
 42
40.0
  3
SIMPLEX.shx
  4

  0
STYLE
  2
TITLE5
 70
     0
 40
75.0
 41
1.0
 50
0.0
 71
     0
 42
100.0
  3
SIMPLEX
  4

  0
STYLE
  2
SIMPLEX
 70
     0
 40
60.0
 41
1.0
 50
0.0
 71
     0
 42
60.0
  3
simplex
  4

  0
STYLE
  2

 70
     1
 40
0.0
 41
1.0
 50
0.0
 71
     0
 42
40.0
  3
genltshp.shx
  4

  0
STYLE
  2
ACANSTS
 70
     0
 40
1.0
 41
1.0
 50
0.0
 71
     0
 42
40.0
  3
romans.shx
  4

  0
STYLE
  2
ACANSGDT
 70
     0
 40
0.0
 41
1.0
 50
0.0
 71
     0
 42
40.0
  3
amgdt.shx
  4

  0
ENDTAB
  0
TABLE
  2
VIEW
 70
     0
  0
ENDTAB
  0
TABLE
  2
UCS
 70
     0
  0
ENDTAB
  0
TABLE
  2
APPID
 70
    13
  0
APPID
  2
ACAD
 70
     0
  0
APPID
  2
ACADANNOTATIVE
 70
     0
  0
APPID
  2
ACAD_MLEADERVER
 70
     0
  0
APPID
  2
ACAD_PSEXT
 70
     0
  0
APPID
  2
ACAECLAYERSTANDARD
 70
     0
  0
APPID
  2
MCAD_NO_VIS
 70
     0
  0
APPID
  2
ACAD_TEMP_GRAPHIC
 70
     0
  0
APPID
  2
AD_DRAW
 70
     0
  0
APPID
  2
ACATTRIBSERVICES
 70
     0
  0
APPID
  2
DESIGNERASSEMBLIES
 70
     0
  0
APPID
  2
ACADM_DIM_EDIT
 70
     0
  0
APPID
  2
AMDT_DM_ADJ
 70
     0
  0
APPID
  2
ACAD_EXEMPT_FROM_CAD_STANDARDS
 70
     0
  0
ENDTAB
  0
TABLE
  2
DIMSTYLE
 70
     9
  0
DIMSTYLE
  2
STANDARD
 70
     0
  3

  4

  5

  6

  7

 40
1.0
 41
0.18
 42
0.0625
 43
0.38
 44
0.18
 45
0.0
 46
0.0
 47
0.0
 48
0.0
140
0.18
141
0.09
142
0.0
143
25.399999999999999
144
1.0
145
0.0
146
1.0
147
0.09
 71
     0
 72
     0
 73
     1
 74
     1
 75
     0
 76
     0
 77
     0
 78
     0
170
     0
171
     2
172
     0
173
     0
174
     0
175
     0
176
     0
177
     0
178
     0
  0
DIMSTYLE
  2
ANNOTATIVE
 70
     0
  3

  4

  5

  6

  7

 40
1.0
 41
0.18
 42
0.0625
 43
0.38
 44
0.18
 45
0.0
 46
0.0
 47
0.0
 48
0.0
140
0.18
141
0.09
142
0.0
143
25.399999999999999
144
1.0
145
0.0
146
1.0
147
0.09
 71
     0
 72
     0
 73
     1
 74
     1
 75
     0
 76
     0
 77
     0
 78
     0
170
     0
171
     2
172
     0
173
     0
174
     0
175
     0
176
     0
177
     0
178
     0
  0
DIMSTYLE
  2
AM_ANSI
 70
     0
  3

  4
mm
  5

  6

  7

 40
1.0
 41
0.12
 42
0.05
 43
0.5
 44
0.1
 45
0.0
 46
0.0
 47
0.1
 48
0.1
140
0.12
141
0.0
142
0.0
143
25.399999999999999
144
1.0
145
0.0
146
0.71
147
0.06
 71
     0
 72
     0
 73
     1
 74
     1
 75
     0
 76
     0
 77
     0
 78
     7
170
     0
171
     2
172
     0
173
     0
174
     0
175
     0
176
   256
177
   256
178
     2
  0
DIMSTYLE
  2
AM_ANSI$3
 70
     0
  3

  4
mm
  5

  6

  7

 40
1.0
 41
0.12
 42
0.05
 43
0.5
 44
0.1
 45
0.0
 46
0.0
 47
0.1
 48
0.1
140
0.12
141
0.0
142
0.0
143
25.399999999999999
144
1.0
145
0.0
146
0.71
147
0.06
 71
     0
 72
     0
 73
     1
 74
     1
 75
     0
 76
     0
 77
     0
 78
     7
170
     0
171
     2
172
     0
173
     0
174
     0
175
     0
176
   256
177
   256
178
     2
  0
DIMSTYLE
  2
AM_ANSI$4
 70
     0
  3

  4
mm
  5

  6

  7

 40
1.0
 41
0.12
 42
0.05
 43
0.5
 44
0.1
 45
0.0
 46
0.0
 47
0.1
 48
0.1
140
0.12
141
0.0
142
0.0
143
25.399999999999999
144
1.0
145
0.0
146
0.71
147
0.06
 71
     0
 72
     0
 73
     1
 74
     1
 75
     0
 76
     0
 77
     0
 78
     7
170
     0
171
     2
172
     0
173
     0
174
     0
175
     0
176
   256
177
   256
178
     2
  0
DIMSTYLE
  2
AM_ANSI$7
 70
     0
  3

  4
mm
  5

  6

  7

 40
1.0
 41
0.12
 42
0.05
 43
0.5
 44
0.1
 45
0.0
 46
0.0
 47
0.1
 48
0.1
140
0.12
141
0.0
142
0.0
143
25.399999999999999
144
1.0
145
0.0
146
0.71
147
0.06
 71
     0
 72
     0
 73
     1
 74
     1
 75
     0
 76
     0
 77
     0
 78
     7
170
     0
171
     2
172
     0
173
     0
174
     0
175
     0
176
   256
177
   256
178
     2
  0
DIMSTYLE
  2
AM_ANSI$SF
 70
     0
  3

  4
mm
  5

  6

  7

 40
1.0
 41
0.12
 42
0.05
 43
0.5
 44
0.1
 45
0.0
 46
0.0
 47
0.1
 48
0.1
140
0.12
141
0.0
142
0.0
143
25.399999999999999
144
1.0
145
0.0
146
0.71
147
0.06
 71
     0
 72
     0
 73
     1
 74
     1
 75
     1
 76
     1
 77
     0
 78
     7
170
     0
171
     2
172
     0
173
     0
174
     0
175
     0
176
   256
177
   256
178
     2
  0
DIMSTYLE
  2
AM_ANSI$SH
 70
     0
  3

  4
mm
  5

  6
GENAXEH
  7

 40
1.0
 41
0.12
 42
0.05
 43
0.5
 44
0.1
 45
0.0
 46
0.0
 47
0.1
 48
0.1
140
0.12
141
0.0
142
0.0
143
25.399999999999999
144
1.0
145
0.0
146
0.71
147
0.06
 71
     0
 72
     0
 73
     1
 74
     1
 75
     1
 76
     1
 77
     0
 78
     7
170
     0
171
     2
172
     0
173
     1
174
     0
175
     0
176
   256
177
   256
178
     2
  0
ENDTAB
  0
ENDSEC
  0
SECTION
  2
BLOCKS
  0
BLOCK
  8
0
  2
$MODEL_SPACE
 70
     0
 10
0.0
 20
0.0
 30
0.0
  3
$MODEL_SPACE
  1

  0
ENDBLK
  5
16A6
  8
0
  0
BLOCK
 67
     1
  8
0
  2
$PAPER_SPACE
 70
     0
 10
0.0
 20
0.0
 30
0.0
  3
$PAPER_SPACE
  1

  0
ENDBLK
  5
16A2
 67
     1
  8
0
  0
BLOCK
  8
0
  2
LINES
 70
     0
 10
0.0
 20
0.0
 30
0.0
  3
LINES
  1

  0
ENDBLK
  5
F67
  8
0
  0
BLOCK
  8
0
  2
*U3
 70
     1
 10
0.0
 20
0.0
 30
0.0
  3
*U3
  1

  0
TEXT
  5
13D0
  8
DIM
 62
     7
 10
1841.415941404435
 20
872.93277066926544
 30
0.0
 40
40.0
  1
1380 O/A
 50
90.0
  7
TITLE3
  0
ENDBLK
  5
13D2
  8
0
  0
BLOCK
  8
0
  2
*U4
 70
     1
 10
0.0
 20
0.0
 30
0.0
  3
*U4
  1

  0
TEXT
  5
13D4
  8
DIM
 62
     7
 10
2493.969639439727
 20
158.12300932565631
 30
0.0
 40
40.0
  1
764 CTR
  0
ENDBLK
  5
13D6
  8
0
  0
BLOCK
  8
0
  2
*U5
 70
     1
 10
0.0
 20
0.0
 30
0.0
  3
*U5
  1

  0
TEXT
  5
13D8
  8
DIM
 62
     7
 10
2072.119639439728
 20
160.52722838537011
 30
0.0
 40
40.0
  1
243
  0
ENDBLK
  5
13DA
  8
0
  0
BLOCK
  8
0
  2
*U6
 70
     1
 10
0.0
 20
0.0
 30
0.0
  3
*U6
  1

  0
TEXT
  5
13DC
  8
DIM
 62
     7
 10
3079.119639439728
 20
160.52722838537011
 30
0.0
 40
40.0
  1
243
  0
ENDBLK
  5
13DE
  8
0
  0
BLOCK
  8
0
  2
*U7
 70
     1
 10
0.0
 20
0.0
 30
0.0
  3
*U7
  1

  0
TEXT
  5
13E0
  8
DIM
 62
     7
 10
2565.619639439728
 20
1818.138503269083
 30
0.0
 40
40.0
  1
1250
  0
ENDBLK
  5
13E2
  8
0
  0
BLOCK
  8
0
  2
*U8
 70
     1
 10
0.0
 20
0.0
 30
0.0
  3
*U8
  1

  0
TEXT
  5
13E9
  8
DIM
 62
     7
 10
4220.4383495771654
 20
3406.2263791221699
 30
0.0
 40
40.0
  1
405
 50
90.0
  0
ENDBLK
  5
13EB
  8
0
  0
BLOCK
  8
0
  2
*U9
 70
     1
 10
0.0
 20
0.0
 30
0.0
  3
*U9
  1

  0
TEXT
  5
13F2
  8
DIM
 62
     7
 10
5610.1941261131578
 20
3312.437333957982
 30
0.0
 40
40.0
  1
405 CTRS
 50
90.0
  0
ENDBLK
  5
13F4
  8
0
  0
BLOCK
  8
0
  2
*U10
 70
     1
 10
0.0
 20
0.0
 30
0.0
  3
*U10
  1

  0
TEXT
  5
13F6
  8
DIM
 62
     7
 10
5770.208514398043
 20
3402.8930457888391
 30
0.0
 40
40.0
  1
447
 50
90.0
  0
ENDBLK
  5
13F8
  8
0
  0
BLOCK
  8
0
  2
GENAXEH
 70
     0
 10
0.0
 20
0.0
 30
0.0
  3
GENAXEH
  1

  0
LINE
  5
15F7
  8
0
 10
-1.0
 20
0.0
 30
0.0
 11
1.0
 21
0.0
 31
0.0
  0
ENDBLK
  5
15F9
  8
0
  0
ENDSEC
  0
SECTION
  2
ENTITIES
  0
TEXT
  5
F78
  8
TEXT
 10
4401.0714285714284
 20
407.06288897435661
 30
0.0
 40
75.0
  1
temperzone OSA 230
  7
TITLE5
 72
     1
 11
5010.0
 21
407.06288897435661
 31
0.0
  0
TEXT
  5
F79
  8
TEXT
 10
5167.207040051012
 20
106.9986799601034
 30
0.0
 40
40.499999999999993
  1
OSA 230
 41
1.4817518248175181
  7
TITLE3
 72
     5
 11
5558.707040051012
 21
106.9986799601034
 31
0.0
  0
INSERT
  5
FCE
  8
MTG-FEET
  2
LINES
 10
637.42319439946073
 20
2246.7294005091198
 30
0.0
  0
TEXT
  5
FDF
  8
TEXT
 10
4445.5737691718496
 20
165.0
 30
0.0
 40
45.0
  1
09.11.09
 41
0.8959999999999935
  7
TITLE3
 72
     5
 11
4685.5737691718477
 21
165.0
 31
0.0
  0
TEXT
  5
FE0
  8
OVERLAY-A3
 10
4272.345334441874
 20
166.24682079015139
 30
0.0
 40
36.0
  1
Date
  7
SIMPLEX
  0
TEXT
  5
FE1
  8
OVERLAY-A3
 10
5619.166788560402
 20
194.25495303511681
 30
0.0
 40
36.0
  1
Revision
 41
0.7812095035934883
  7
SIMPLEX
 72
     5
 11
5777.1943110015991
 21
194.25495303511681
 31
0.0
  0
LINE
  5
FE2
  8
OVERLAY-A3
 10
5601.7370249852393
 20
31.2637392724757
 30
0.0
 11
5601.7370249852393
 21
252.40298356282
 31
0.0
  0
LINE
  5
FE3
  8
OVERLAY-A3
 10
4229.0272941857229
 20
505.82662824683229
 30
0.0
 11
4229.0272941857229
 21
31.2637392724757
 31
0.0
  0
LINE
  5
FE4
  8
OVERLAY-A3
 10
5125.3705170196408
 20
31.2637392724757
 30
0.0
 11
5125.3705170196408
 21
252.40298356282
 31
0.0
  0
LINE
  5
FE5
  8
OVERLAY-A3
 10
5125.370517019639
 20
139.9688989041955
 30
0.0
 11
4229.0272941857229
 21
139.9688989041955
 31
0.0
  0
LINE
  5
FE6
  8
OVERLAY-A3
 10
5792.3631978567637
 20
252.40298356282
 30
0.0
 11
4229.0272941857229
 21
252.40298356282
 31
0.0
  0
LINE
  5
FE7
  8
OVERLAY-A3
 10
4229.0272941857229
 20
31.2637392724757
 30
0.0
 11
5791.9169370892359
 21
31.2637392724757
 31
0.0
  0
LINE
  5
FE8
  8
OVERLAY-A3
 10
5791.9169370892359
 20
31.2637392724757
 30
0.0
 11
5791.9169370892359
 21
505.82662824683229
 31
0.0
  0
LINE
  5
FE9
  8
OVERLAY-A3
 10
5791.9169370892359
 20
505.82662824683229
 30
0.0
 11
4229.0272941857229
 21
505.82662824683229
 31
0.0
  0
TEXT
  5
FEA
  8
OVERLAY-A3
 10
4266.7248286546628
 20
71.883732098036546
 30
0.0
 40
30.0
  1
Scale
 41
1.3701747965660029
  7
SIMPLEX
 72
     5
 11
4417.4440562769232
 21
71.883732098036546
 31
0.0
  0
TEXT
  5
FEB
  8
OVERLAY-A3
 10
5212.2886854011949
 20
193.3401472600643
 30
0.0
 40
30.0
  1
Drawing No.
  7
SIMPLEX
 72
     2
 11
5473.7172568297656
 21
193.3401472600643
 31
0.0
  0
LINE
  5
FEC
  8
OVERLAY-A3
 10
1671.499909257496
 20
0.0
 30
0.0
 11
5835.0
 21
0.0
 31
0.0
  0
LINE
  5
FED
  8
OVERLAY-A3
 10
5835.0
 20
0.0
 30
0.0
 11
5835.0
 21
4098.3245276957487
 31
0.0
  0
LINE
  5
FEE
  8
OVERLAY-A3
 10
5835.0
 20
4098.3245276957487
 30
0.0
 11
1671.499909257496
 21
4098.3245276957496
 31
0.0
  0
LINE
  5
FEF
  8
OVERLAY-A3
 10
1671.499909257496
 20
4098.3245276957496
 30
0.0
 11
1671.499909257496
 21
0.0
 31
0.0
  0
TEXT
  5
FF0
  8
TEXT
 10
4499.1433054549598
 20
74.210057023356939
 30
0.0
 40
45.0
  1
1:20
  7
TITLE3
  0
TEXT
  5
10A0
  8
TEXT
 10
4984.0808406555043
 20
561.89670235196081
 30
0.0
 40
33.600000000000001
  1
available on request
  7
TITLE3
  0
TEXT
  5
10A1
  8
TEXT
 10
4984.0808406555043
 20
619.49670235196072
 30
0.0
 40
33.600000000000001
  1
Certified dimensions
  7
TITLE3
  0
TEXT
  5
10A2
  8
TEXT
 10
4984.0808406555043
 20
677.09670235196086
 30
0.0
 40
33.600000000000001
  1
without notice or obligation.
  7
TITLE3
  0
TEXT
  5
10A3
  8
TEXT
 10
4984.0808406555043
 20
734.69670235196065
 30
0.0
 40
33.600000000000001
  1
specifications at any time
  7
TITLE3
  0
TEXT
  5
10A4
  8
TEXT
 10
4984.0808406555043
 20
792.29670235196079
 30
0.0
 40
33.600000000000001
  1
the right to change 
  7
TITLE3
  0
TEXT
  5
10A5
  8
TEXT
 10
4984.0808406555043
 20
907.49670235196061
 30
0.0
 40
33.600000000000001
  1
NOTE
  7
TITLE3
  0
TEXT
  5
10A6
  8
TEXT
 10
4984.0808406555043
 20
849.8967023519607
 30
0.0
 40
33.600000000000001
  1
The manufacturer reserves
  7
TITLE3
  0
LINE
  5
11FE
  8
OUTLINE
 10
2220.8029727730609
 20
332.00181828831091
 30
0.0
 11
2293.1029727730611
 21
332.00181828831091
 31
0.0
  0
LINE
  5
11FF
  8
OUTLINE
 10
2220.1402310732642
 20
330.4018182883114
 30
0.0
 11
2293.7657144728591
 21
330.4018182883114
 31
0.0
  0
LINE
  5
1204
  8
OUTLINE
 10
2256.952972773061
 20
325.40181828831152
 30
0.0
 11
2256.952972773061
 21
337.00181828831091
 31
0.0
  0
LINE
  5
1205
  8
OUTLINE
 10
2190.8029727730609
 20
362.00181828831091
 30
0.0
 11
2220.8029727730609
 21
332.00181828831091
 31
0.0
  0
LINE
  5
1206
  8
OUTLINE
 10
2189.6716019231608
 20
360.87044743841261
 30
0.0
 11
2220.1402310732642
 21
330.4018182883114
 31
0.0
  0
LINE
  5
1207
  8
OUTLINE
 10
2323.102972773062
 20
362.00181828831091
 30
0.0
 11
2293.1029727730611
 21
332.00181828831091
 31
0.0
  0
LINE
  5
1208
  8
OUTLINE
 10
2324.2343436229612
 20
360.87044743841341
 30
0.0
 11
2293.7657144728591
 21
330.4018182883114
 31
0.0
  0
LINE
  5
1216
  8
OUTLINE
 10
2971.8029727730618
 20
332.00181828831091
 30
0.0
 11
3044.1029727730611
 21
332.00181828831091
 31
0.0
  0
LINE
  5
1217
  8
OUTLINE
 10
2971.1402310732642
 20
330.4018182883114
 30
0.0
 11
3044.7657144728591
 21
330.4018182883114
 31
0.0
  0
LINE
  5
121C
  8
OUTLINE
 10
3007.952972773061
 20
325.40181828831152
 30
0.0
 11
3007.952972773061
 21
337.00181828831091
 31
0.0
  0
LINE
  5
121D
  8
OUTLINE
 10
2941.8029727730609
 20
362.00181828831091
 30
0.0
 11
2971.8029727730618
 21
332.00181828831091
 31
0.0
  0
LINE
  5
121E
  8
OUTLINE
 10
2940.6716019231621
 20
360.87044743841261
 30
0.0
 11
2971.1402310732642
 21
330.4018182883114
 31
0.0
  0
LINE
  5
121F
  8
OUTLINE
 10
3074.102972773062
 20
362.00181828831091
 30
0.0
 11
3044.1029727730611
 21
332.00181828831091
 31
0.0
  0
LINE
  5
1220
  8
OUTLINE
 10
3075.2343436229612
 20
360.87044743841341
 30
0.0
 11
3044.7657144728591
 21
330.4018182883114
 31
0.0
  0
LINE
  5
1235
  8
OUTLINE
  6
HIDDEN
 10
2975.4768525504378
 20
3686.7263791221721
 30
0.0
 11
3000.6268525504361
 21
3686.7263791221699
 31
0.0
  0
LINE
  5
1236
  8
OUTLINE
  6
HIDDEN
 10
3022.6268525504402
 20
3686.7263791221699
 30
0.0
 11
3047.7768525504371
 21
3686.7263791221699
 31
0.0
  0
LINE
  5
1243
  8
OUTLINE
  6
HIDDEN
 10
2286.1290929956831
 20
3686.7263791221699
 30
0.0
 11
2286.1290929956831
 21
3665.3263791221721
 31
0.0
  0
LINE
  5
1244
  8
OUTLINE
  6
HIDDEN
 10
2213.8290929956838
 20
3686.7263791221699
 30
0.0
 11
2286.1290929956831
 21
3686.7263791221699
 31
0.0
  0
LINE
  5
1245
  8
OUTLINE
  6
HIDDEN
 10
2213.8290929956838
 20
3686.7263791221699
 30
0.0
 11
2213.8290929956838
 21
3665.3263791221721
 31
0.0
  0
LINE
  5
1246
  8
OUTLINE
  6
HIDDEN
 10
2213.8290929956838
 20
3686.7263791221699
 30
0.0
 11
2192.4290929956851
 21
3665.3263791221721
 31
0.0
  0
LINE
  5
1247
  8
OUTLINE
  6
HIDDEN
 10
2286.1290929956831
 20
3686.7263791221699
 30
0.0
 11
2307.5290929956809
 21
3665.3263791221721
 31
0.0
  0
LINE
  5
1249
  8
OUTLINE
  6
HIDDEN
 10
2255.979092995683
 20
3686.7263791221699
 30
0.0
 11
2255.979092995683
 21
3665.7263791221699
 31
0.0
  0
LINE
  5
124A
  8
OUTLINE
  6
HIDDEN
 10
2243.979092995683
 20
3686.7263791221699
 30
0.0
 11
2243.979092995683
 21
3665.7263791221699
 31
0.0
  0
LINE
  5
124B
  8
OUTLINE
  6
HIDDEN
 10
3047.7768525504371
 20
3686.7263791221699
 30
0.0
 11
3047.7768525504362
 21
3665.3263791221698
 31
0.0
  0
LINE
  5
124C
  8
OUTLINE
  6
HIDDEN
 10
2975.4768525504369
 20
3686.7263791221699
 30
0.0
 11
3047.7768525504371
 21
3686.7263791221699
 31
0.0
  0
LINE
  5
124D
  8
OUTLINE
  6
HIDDEN
 10
2975.4768525504369
 20
3686.7263791221699
 30
0.0
 11
2975.4768525504369
 21
3665.3263791221711
 31
0.0
  0
LINE
  5
124E
  8
OUTLINE
  6
HIDDEN
 10
2975.4768525504369
 20
3686.7263791221699
 30
0.0
 11
2954.0768525504368
 21
3665.3263791221711
 31
0.0
  0
LINE
  5
124F
  8
OUTLINE
  6
HIDDEN
 10
3047.7768525504371
 20
3686.7263791221699
 30
0.0
 11
3069.1768525504358
 21
3665.3263791221711
 31
0.0
  0
LINE
  5
1252
  8
OUTLINE
  6
HIDDEN
 10
3017.626852550437
 20
3686.7263791221699
 30
0.0
 11
3017.626852550437
 21
3665.7263791221699
 31
0.0
  0
LINE
  5
1253
  8
OUTLINE
  6
HIDDEN
 10
3005.626852550437
 20
3686.7263791221699
 30
0.0
 11
3005.626852550437
 21
3665.7263791221699
 31
0.0
  0
LINE
  5
125E
  8
DIM
  6
CONTINUOUS
 62
     7
 10
1960.626306748318
 20
1714.701818288313
 30
0.0
 11
1802.0604661378759
 21
1714.701818288313
 31
0.0
  0
LINE
  5
125F
  8
DIM
  6
CONTINUOUS
 62
     7
 10
2180.7396852711472
 20
330.4018182883114
 30
0.0
 11
1788.0826080711031
 21
330.40181828831192
 31
0.0
  0
LINE
  5
1260
  8
DIM
  6
CONTINUOUS
 62
     7
 10
1960.626306748318
 20
1714.701818288313
 30
0.0
 11
1788.0826080711031
 21
1714.701818288313
 31
0.0
  0
LINE
  5
1261
  8
DIM
  6
CONTINUOUS
 62
     7
 10
1828.0826080711031
 20
390.40181828831192
 30
0.0
 11
1828.0826080711031
 21
832.93277066926464
 31
0.0
  0
LINE
  5
1262
  8
DIM
  6
CONTINUOUS
 62
     7
 10
1828.0826080711031
 20
1654.7018182883139
 30
0.0
 11
1828.0826080711031
 21
1208.1708659073599
 31
0.0
  0
SOLID
  5
1263
  8
DIM
  6
CONTINUOUS
 62
     7
 10
1818.0826080711031
 20
390.40181828831192
 30
0.0
 11
1838.0826080711031
 21
390.40181828831192
 31
0.0
 12
1828.0826080711031
 22
330.40181828831192
 32
0.0
 13
1828.0826080711031
 23
330.40181828831192
 33
0.0
  0
SOLID
  5
1264
  8
DIM
  6
CONTINUOUS
 62
     7
 10
1818.0826080711031
 20
1654.7018182883139
 30
0.0
 11
1838.0826080711031
 21
1654.7018182883139
 31
0.0
 12
1828.0826080711031
 22
1714.701818288313
 32
0.0
 13
1828.0826080711031
 23
1714.701818288313
 33
0.0
  0
LINE
  5
1267
  8
DIM
  6
CONTINUOUS
 62
     7
 10
2256.952972773061
 20
290.40181828831152
 30
0.0
 11
2256.952972773061
 21
138.12300932565631
 31
0.0
  0
LINE
  5
1268
  8
DIM
  6
CONTINUOUS
 62
     7
 10
3007.952972773061
 20
292.00181828831091
 30
0.0
 11
3007.952972773061
 21
138.12300932565631
 31
0.0
  0
LINE
  5
1269
  8
DIM
  6
CONTINUOUS
 62
     7
 10
2316.952972773061
 20
178.12300932565631
 30
0.0
 11
2398.952972773061
 21
178.12300932565631
 31
0.0
  0
LINE
  5
126A
  8
DIM
  6
CONTINUOUS
 62
     7
 10
2947.952972773061
 20
178.12300932565631
 30
0.0
 11
2865.9529727730601
 21
178.12300932565631
 31
0.0
  0
SOLID
  5
126B
  8
DIM
  6
CONTINUOUS
 62
     7
 10
2316.952972773061
 20
188.12300932565631
 30
0.0
 11
2316.952972773061
 21
168.12300932565631
 31
0.0
 12
2256.952972773061
 22
178.12300932565631
 32
0.0
 13
2256.952972773061
 23
178.12300932565631
 33
0.0
  0
SOLID
  5
126C
  8
DIM
  6
CONTINUOUS
 62
     7
 10
2947.952972773061
 20
188.12300932565631
 30
0.0
 11
2947.952972773061
 21
168.12300932565631
 31
0.0
 12
3007.952972773061
 22
178.12300932565631
 32
0.0
 13
3007.952972773061
 23
178.12300932565631
 33
0.0
  0
CIRCLE
  5
1270
  8
OUTLINE
  6
CONTINUOUS
 10
2468.7721793006722
 20
1365.494341564963
 30
0.0
 40
279.0
  0
CIRCLE
  5
1271
  8
OUTLINE
  6
CONTINUOUS
 10
2466.9531189258269
 20
707.30181828831076
 30
0.0
 40
279.0
  0
LINE
  5
1272
  8
OUTLINE
  6
CONTINUOUS
 10
3260.952972773061
 20
3665.7263791221699
 30
0.0
 11
3260.952972773061
 21
3253.7263791221699
 31
0.0
  0
LINE
  5
1273
  8
OUTLINE
  6
PHANTOM
 10
4003.2717819076229
 20
3808.7263791221699
 30
0.0
 11
4003.271781907622
 21
3253.7263791221699
 31
0.0
  0
LINE
  5
1274
  8
OUTLINE
  6
CONTINUOUS
 10
2003.952972773061
 20
3253.7263791221699
 30
0.0
 11
2003.9529727730619
 21
3665.7263791221731
 31
0.0
  0
LINE
  5
1275
  8
OUTLINE
  6
PHANTOM
 10
1853.952972773061
 20
3253.7263791221699
 30
0.0
 11
1853.952972773061
 21
3808.7263791221721
 31
0.0
  0
LINE
  5
1276
  8
OUTLINE
  6
CONTINUOUS
 10
2003.952972773061
 20
3253.7263791221699
 30
0.0
 11
3260.952972773061
 21
3253.7263791221699
 31
0.0
  0
LINE
  5
1277
  8
OUTLINE
  6
CONTINUOUS
 10
2003.9529727730619
 20
3665.7263791221731
 30
0.0
 11
3260.952972773061
 21
3665.7263791221699
 31
0.0
  0
LINE
  5
1278
  8
OUTLINE
  6
PHANTOM
 10
1853.952972773061
 20
3808.7263791221721
 30
0.0
 11
3564.906121252985
 21
3808.7263791221699
 31
0.0
  0
LINE
  5
1279
  8
DIM
  6
CONTINUOUS
 62
     7
 10
2003.952972773061
 20
322.42181828831059
 30
0.0
 11
2003.952972773061
 21
140.52722838537011
 31
0.0
  0
LINE
  5
127A
  8
DIM
  6
CONTINUOUS
 62
     7
 10
2256.952972773061
 20
322.42181828831059
 30
0.0
 11
2256.952972773061
 21
140.52722838537011
 31
0.0
  0
LINE
  5
127B
  8
DIM
  6
CONTINUOUS
 62
     7
 10
2316.952972773061
 20
180.52722838537011
 30
0.0
 11
2376.952972773061
 21
180.52722838537011
 31
0.0
  0
LINE
  5
127C
  8
DIM
  6
CONTINUOUS
 62
     7
 10
2003.952972773061
 20
322.42181828831059
 30
0.0
 11
2003.952972773061
 21
140.52722838537011
 31
0.0
  0
LINE
  5
127D
  8
DIM
  6
CONTINUOUS
 62
     7
 10
2256.952972773061
 20
322.42181828831059
 30
0.0
 11
2256.952972773061
 21
140.52722838537011
 31
0.0
  0
LINE
  5
127E
  8
DIM
  6
CONTINUOUS
 62
     7
 10
1963.952972773061
 20
180.52722838537011
 30
0.0
 11
1923.952972773061
 21
180.52722838537011
 31
0.0
  0
LINE
  5
127F
  8
DIM
  6
CONTINUOUS
 62
     7
 10
2296.952972773061
 20
180.52722838537011
 30
0.0
 11
2336.952972773061
 21
180.52722838537011
 31
0.0
  0
SOLID
  5
1280
  8
DIM
  6
CONTINUOUS
 62
     7
 10
1963.952972773061
 20
187.19389505203679
 30
0.0
 11
1963.952972773061
 21
173.86056171870331
 31
0.0
 12
2003.952972773061
 22
180.52722838537011
 32
0.0
 13
2003.952972773061
 23
180.52722838537011
 33
0.0
  0
SOLID
  5
1281
  8
DIM
  6
CONTINUOUS
 62
     7
 10
2296.952972773061
 20
187.19389505203679
 30
0.0
 11
2296.952972773061
 21
173.86056171870331
 31
0.0
 12
2256.952972773061
 22
180.52722838537011
 32
0.0
 13
2256.952972773061
 23
180.52722838537011
 33
0.0
  0
LINE
  5
1283
  8
DIM
  6
CONTINUOUS
 62
     7
 10
3260.952972773061
 20
322.42181828831059
 30
0.0
 11
3260.952972773061
 21
140.52722838537011
 31
0.0
  0
LINE
  5
1284
  8
DIM
  6
CONTINUOUS
 62
     7
 10
3260.952972773061
 20
322.42181828831059
 30
0.0
 11
3260.952972773061
 21
140.52722838537011
 31
0.0
  0
LINE
  5
1285
  8
DIM
  6
CONTINUOUS
 62
     7
 10
3300.952972773061
 20
180.52722838537011
 30
0.0
 11
3340.952972773061
 21
180.52722838537011
 31
0.0
  0
SOLID
  5
1286
  8
DIM
  6
CONTINUOUS
 62
     7
 10
3300.952972773061
 20
187.19389505203679
 30
0.0
 11
3300.952972773061
 21
173.86056171870331
 31
0.0
 12
3260.952972773061
 22
180.52722838537011
 32
0.0
 13
3260.952972773061
 23
180.52722838537011
 33
0.0
  0
LINE
  5
128F
  8
DIM
  6
CONTINUOUS
 62
     7
 10
2003.952972773061
 20
1753.4218182883101
 30
0.0
 11
2003.952972773061
 21
1882.138503269083
 31
0.0
  0
LINE
  5
1290
  8
DIM
  6
CONTINUOUS
 62
     7
 10
3260.952972773061
 20
1753.4218182883101
 30
0.0
 11
3260.952972773061
 21
1882.138503269083
 31
0.0
  0
LINE
  5
1291
  8
DIM
  6
CONTINUOUS
 62
     7
 10
2043.952972773061
 20
1842.138503269083
 30
0.0
 11
2525.619639439728
 21
1842.138503269083
 31
0.0
  0
LINE
  5
1292
  8
DIM
  6
CONTINUOUS
 62
     7
 10
3220.952972773061
 20
1842.138503269083
 30
0.0
 11
2732.2863061063949
 21
1842.138503269083
 31
0.0
  0
SOLID
  5
1293
  8
DIM
  6
CONTINUOUS
 62
     7
 10
2043.952972773061
 20
1848.80516993575
 30
0.0
 11
2043.952972773061
 21
1835.4718366024169
 31
0.0
 12
2003.952972773061
 22
1842.138503269083
 32
0.0
 13
2003.952972773061
 23
1842.138503269083
 33
0.0
  0
SOLID
  5
1294
  8
DIM
  6
CONTINUOUS
 62
     7
 10
3220.952972773061
 20
1848.80516993575
 30
0.0
 11
3220.952972773061
 21
1835.4718366024169
 31
0.0
 12
3260.952972773061
 22
1842.138503269083
 32
0.0
 13
3260.952972773061
 23
1842.138503269083
 33
0.0
  0
LINE
  5
1297
  8
OUTLINE
  6
PHANTOM
 10
4003.271781907622
 20
3253.7263791221699
 30
0.0
 11
3594.582190955995
 21
3253.7263791221708
 31
0.0
  0
LINE
  5
1298
  8
OUTLINE
  6
PHANTOM
 10
1853.952972773061
 20
3253.7263791221699
 30
0.0
 11
1961.283561080058
 21
3253.7263791221699
 31
0.0
  0
LINE
  5
1299
  8
OUTLINE
  6
PHANTOM
 10
2003.952972773061
 20
2033.241799511708
 30
0.0
 11
3260.952972773061
 21
2033.241799511708
 31
0.0
  0
LINE
  5
129A
  8
OUTLINE
  6
PHANTOM
 10
3260.952972773061
 20
2033.241799511708
 30
0.0
 11
3260.952972773061
 21
2307.7091049387109
 31
0.0
  0
LINE
  5
129B
  8
OUTLINE
  6
PHANTOM
 10
2003.952972773061
 20
2033.241799511708
 30
0.0
 11
2003.952972773061
 21
2307.7091049387109
 31
0.0
  0
LINE
  5
129F
  8
OUTLINE
 10
3589.2724074807738
 20
3857.4277126776519
 30
0.0
 11
3544.2773866834718
 21
3767.4953571393648
 31
0.0
  0
LINE
  5
12A0
  8
OUTLINE
 10
3618.9484771837851
 20
3857.4277126776519
 30
0.0
 11
3573.953456386484
 21
3767.4953571393648
 31
0.0
  0
LINE
  5
12A1
  8
OUTLINE
 10
3589.2724074807729
 20
3302.4277126776542
 30
0.0
 11
3544.2773866834718
 21
3212.4953571393671
 31
0.0
  0
LINE
  5
12A2
  8
OUTLINE
 10
3618.9484771837838
 20
3302.4277126776542
 30
0.0
 11
3573.9534563864831
 21
3212.4953571393671
 31
0.0
  0
LINE
  5
12A3
  8
OUTLINE
 10
1958.986795003917
 20
2330.2066153373621
 30
0.0
 11
2048.919150542205
 21
2285.211594540061
 31
0.0
  0
LINE
  5
12A4
  8
OUTLINE
 10
1958.986795003917
 20
2359.8826850403739
 30
0.0
 11
2048.919150542205
 21
2314.8876642430719
 31
0.0
  0
LINE
  5
12A5
  8
OUTLINE
 10
3215.9867950039179
 20
2330.2066153373621
 30
0.0
 11
3305.919150542205
 21
2285.211594540061
 31
0.0
  0
LINE
  5
12A6
  8
OUTLINE
 10
3215.9867950039179
 20
2359.8826850403739
 30
0.0
 11
3305.919150542205
 21
2314.8876642430719
 31
0.0
  0
LINE
  5
12A7
  8
OUTLINE
  6
PHANTOM
 10
3594.5821909559968
 20
3808.7263791221699
 30
0.0
 11
4003.2717819076229
 21
3808.7263791221699
 31
0.0
  0
LINE
  5
12A8
  8
OUTLINE
  6
PHANTOM
 10
3564.906121252985
 20
3253.7263791221708
 30
0.0
 11
3303.622384466064
 21
3253.7263791221699
 31
0.0
  0
LINE
  5
12A9
  8
OUTLINE
  6
PHANTOM
 10
2003.952972773061
 20
2337.3851746417222
 30
0.0
 11
2003.952972773061
 21
3211.0569674291678
 31
0.0
  0
LINE
  5
12AA
  8
OUTLINE
  6
PHANTOM
 10
3260.952972773061
 20
2337.3851746417222
 30
0.0
 11
3260.952972773061
 21
3211.0569674291678
 31
0.0
  0
LINE
  5
12AB
  8
OUTLINE
 10
4624.1578657249238
 20
3302.4277126776542
 30
0.0
 11
4579.1628449276241
 21
3212.4953571393671
 31
0.0
  0
LINE
  5
12AC
  8
OUTLINE
 10
4653.8339354279369
 20
3302.4277126776542
 30
0.0
 11
4608.8389146306336
 21
3212.4953571393671
 31
0.0
  0
LINE
  5
12AD
  8
OUTLINE
 10
4624.1578657249238
 20
3714.4277126776551
 30
0.0
 11
4579.1628449276241
 21
3617.4953571393671
 31
0.0
  0
LINE
  5
12AE
  8
OUTLINE
 10
4653.8339354279369
 20
3714.4277126776551
 30
0.0
 11
4608.8389146306336
 21
3617.4953571393671
 31
0.0
  0
LINE
  5
12AF
  8
OUTLINE
 10
5472.6365278538806
 20
3643.8830056281959
 30
0.0
 11
5506.6365278538797
 21
3679.7263791221708
 31
0.0
  0
LINE
  5
12B2
  8
OUTLINE
 10
5504.6365278538824
 20
3677.617945387231
 30
0.0
 11
5504.3651294632718
 21
3235.254744891582
 31
0.0
  0
LINE
  5
12B3
  8
OUTLINE
 10
5506.6365278538797
 20
3679.7263791221708
 30
0.0
 11
5506.6365278538797
 21
3232.7263791221708
 31
0.0
  0
LINE
  5
12B4
  8
OUTLINE
 10
5472.6365278538806
 20
3268.5697526161471
 30
0.0
 11
5506.6365278538797
 21
3232.7263791221699
 31
0.0
  0
POINT
  5
12B5
  8
OUTLINE
 10
5505.5651294632708
 20
3254.14631115664
 30
0.0
 50
270.0
  0
POINT
  5
12B6
  8
OUTLINE
 10
5505.8365278538813
 20
3658.7263791221699
 30
0.0
 50
270.0
  0
POLYLINE
  5
12BE
  8
OUTLINE
  6
CONTINUOUS
 66
     1
 10
0.0
 20
0.0
 30
0.0
  0
VERTEX
  5
13E3
  8
OUTLINE
  6
CONTINUOUS
 10
4629.4676492001463
 20
3665.7263791221699
 30
0.0
  0
VERTEX
  5
13E4
  8
OUTLINE
  6
CONTINUOUS
 10
5473.8165278538791
 20
3665.7263791221699
 30
0.0
  0
VERTEX
  5
13E5
  8
OUTLINE
  6
CONTINUOUS
 10
5473.8165278538791
 20
3253.7263791221699
 30
0.0
  0
VERTEX
  5
13E6
  8
OUTLINE
  6
CONTINUOUS
 10
4629.4676492001463
 20
3253.7263791221699
 30
0.0
  0
SEQEND
  5
13E7
  8
OUTLINE
  6
CONTINUOUS
  0
LINE
  5
12BF
  8
DIM
  6
CONTINUOUS
 62
     7
 10
4247.5116758015629
 20
3665.7263791221699
 30
0.0
 11
4160.4383495771608
 21
3665.7263791221699
 31
0.0
  0
LINE
  5
12C0
  8
DIM
  6
CONTINUOUS
 62
     7
 10
4247.5116758015629
 20
3253.7263791221699
 30
0.0
 11
4160.4383495771608
 21
3253.7263791221699
 31
0.0
  0
LINE
  5
12C1
  8
DIM
  6
CONTINUOUS
 62
     7
 10
4200.4383495771608
 20
3618.7263791221708
 30
0.0
 11
4200.4383495771608
 21
3546.2263791221699
 31
0.0
  0
LINE
  5
12C2
  8
DIM
  6
CONTINUOUS
 62
     7
 10
4200.4383495771608
 20
3293.7263791221699
 30
0.0
 11
4200.4383495771608
 21
3366.2263791221708
 31
0.0
  0
SOLID
  5
12C3
  8
DIM
  6
CONTINUOUS
 62
     7
 10
4193.7716829104957
 20
3618.7263791221708
 30
0.0
 11
4207.105016243826
 21
3618.7263791221708
 31
0.0
 12
4200.4383495771608
 22
3665.7263791221699
 32
0.0
 13
4200.4383495771608
 23
3665.7263791221699
 33
0.0
  0
SOLID
  5
12C4
  8
DIM
  6
CONTINUOUS
 62
     7
 10
4193.7716829104957
 20
3293.7263791221699
 30
0.0
 11
4207.105016243826
 21
3293.7263791221699
 31
0.0
 12
4200.4383495771608
 22
3253.7263791221699
 32
0.0
 13
4200.4383495771608
 23
3253.7263791221699
 33
0.0
  0
POLYLINE
  5
12C6
  8
OUTLINE
  6
CONTINUOUS
 66
     1
 10
0.0
 20
0.0
 30
0.0
  0
VERTEX
  5
13EC
  8
OUTLINE
  6
CONTINUOUS
 10
4599.7915794971359
 20
3253.7263791221699
 30
0.0
  0
VERTEX
  5
13ED
  8
OUTLINE
  6
CONTINUOUS
 10
4287.5116758015629
 20
3253.7263791221699
 30
0.0
  0
VERTEX
  5
13EE
  8
OUTLINE
  6
CONTINUOUS
 10
4287.5116758015629
 20
3665.7263791221699
 30
0.0
  0
VERTEX
  5
13EF
  8
OUTLINE
  6
CONTINUOUS
 10
4599.7915794971359
 20
3665.7263791221699
 30
0.0
  0
SEQEND
  5
13F0
  8
OUTLINE
  6
CONTINUOUS
  0
LINE
  5
12DA
  8
DIM
 62
     7
 10
5535.5651294632708
 20
3254.14631115664
 30
0.0
 11
5653.8406528028454
 21
3254.14631115664
 31
0.0
  0
LINE
  5
12DB
  8
DIM
 62
     7
 10
5535.8365278538813
 20
3658.7263791221699
 30
0.0
 11
5654.1120511934541
 21
3658.7263791221699
 31
0.0
  0
LINE
  5
12DC
  8
DIM
 62
     7
 10
5637.8711632014238
 20
3294.14631115664
 30
0.0
 11
5638.1425615920334
 21
3658.7263791221699
 31
0.0
  0
SOLID
  5
12DE
  8
DIM
 62
     7
 10
5631.2044965347577
 20
3294.14631115664
 30
0.0
 11
5644.5378298680916
 21
3294.14631115664
 31
0.0
 12
5637.8711632014238
 22
3254.14631115664
 32
0.0
 13
5637.8711632014238
 23
3254.14631115664
 33
0.0
  0
SOLID
  5
12E2
  8
DIM
 62
     7
 10
5631.4758949253674
 20
3618.7263791221708
 30
0.0
 11
5644.8092282587013
 21
3618.7263791221708
 31
0.0
 12
5638.1425615920334
 22
3658.7263791221699
 32
0.0
 13
5638.1425615920334
 23
3658.7263791221699
 33
0.0
  0
LINE
  5
12E3
  8
DIM
 62
     7
 10
5536.6365278538824
 20
3679.7263791221708
 30
0.0
 11
5780.2085143980448
 21
3679.7263791221708
 31
0.0
  0
LINE
  5
12E4
  8
DIM
 62
     7
 10
5536.6365278538824
 20
3232.7263791221708
 30
0.0
 11
5780.2085143980448
 21
3232.7263791221708
 31
0.0
  0
LINE
  5
12E5
  8
DIM
 62
     7
 10
5750.208514398043
 20
3639.7263791221708
 30
0.0
 11
5750.208514398043
 21
3559.5597124555052
 31
0.0
  0
LINE
  5
12E6
  8
DIM
 62
     7
 10
5750.208514398043
 20
3272.7263791221721
 30
0.0
 11
5750.208514398043
 21
3352.8930457888368
 31
0.0
  0
SOLID
  5
12E7
  8
DIM
 62
     7
 10
5743.5418477313769
 20
3639.7263791221708
 30
0.0
 11
5756.87518106471
 21
3639.7263791221708
 31
0.0
 12
5750.208514398043
 22
3679.7263791221708
 32
0.0
 13
5750.208514398043
 23
3679.7263791221708
 33
0.0
  0
SOLID
  5
12E8
  8
DIM
 62
     7
 10
5743.5418477313769
 20
3272.7263791221721
 30
0.0
 11
5756.87518106471
 21
3272.7263791221721
 31
0.0
 12
5750.208514398043
 22
3232.7263791221708
 32
0.0
 13
5750.208514398043
 23
3232.7263791221708
 33
0.0
  0
TEXT
  5
12EB
  8
DIM
 10
2200.8877404193549
 20
2078.0511271516989
 30
0.0
 40
40.0
  1
2000 min. CLEARENCE
  7
TITLE3
  0
TEXT
  5
12EC
  8
DIM
 10
3891.378893390392
 20
3362.7717352393079
 30
0.0
 40
40.0
  1
1000 min
 50
90.0
  7
TITLE3
  0
TEXT
  5
12ED
  8
DIM
 10
3959.9503219618218
 20
3362.7717352393079
 30
0.0
 40
40.0
  1
CLEARENCE
 50
90.0
  7
TITLE3
  0
TEXT
  5
12F0
  8
DIM
 10
1750.947137308284
 20
3362.7717352393079
 30
0.0
 40
40.0
  1
150 min
 50
90.0
  7
TITLE3
  0
TEXT
  5
12F1
  8
DIM
 10
1819.5185658797129
 20
3362.7717352393079
 30
0.0
 40
40.0
  1
CLEARENCE
 50
90.0
  7
TITLE3
  0
TEXT
  5
12F2
  8
DIM
 10
2284.448130676552
 20
3850.961445676498
 30
0.0
 40
40.0
  1
150 min CLEARENCE
  7
TITLE3
  0
LINE
  5
12F3
  8
DIM
 10
2528.7015791206609
 20
3041.5915832174051
 30
0.0
 11
2567.2679532732332
 21
3041.5915832174051
 31
0.0
  0
LINE
  5
12F4
  8
DIM
 10
2567.2679532732332
 20
3041.5915832174051
 30
0.0
 11
2567.2679532732332
 21
2952.51894735319
 31
0.0
  0
LINE
  5
12F5
  8
DIM
 10
2567.2679532732332
 20
2952.51894735319
 30
0.0
 11
2605.8342872380931
 21
2952.51894735319
 31
0.0
  0
LINE
  5
12F6
  8
DIM
 10
2605.8342872380931
 20
2952.51894735319
 30
0.0
 11
2547.984766196947
 21
2868.1543024746429
 31
0.0
  0
LINE
  5
12F7
  8
DIM
 10
2528.7015791206609
 20
3041.5915832174051
 30
0.0
 11
2528.7015791206609
 21
2952.51894735319
 31
0.0
  0
LINE
  5
12F8
  8
DIM
 10
2528.7015791206609
 20
2952.51894735319
 30
0.0
 11
2490.1352451558018
 21
2952.51894735319
 31
0.0
  0
LINE
  5
12F9
  8
DIM
 10
2490.1352451558018
 20
2952.51894735319
 30
0.0
 11
2547.984766196947
 21
2868.1543024746429
 31
0.0
  0
TEXT
  5
12FA
  8
DIM
 10
2501.907771763978
 20
3014.2663293380879
 30
0.0
 40
40.0
  1
AIR
 50
90.0
  7
TITLE3
  0
TEXT
  5
12FB
  8
DIM
 10
2635.6746926213609
 20
3014.2663293380879
 30
0.0
 40
40.0
  1
FLOW
 50
90.0
  7
TITLE3
  0
LINE
  5
12FE
  8
OUTLINE
  6
CONTINUOUS
 10
2003.952972773061
 20
1713.4218182883101
 30
0.0
 11
3260.952972773061
 21
1713.4218182883101
 31
0.0
  0
LINE
  5
12FF
  8
OUTLINE
  6
CONTINUOUS
 10
3260.952972773061
 20
1713.4218182883101
 30
0.0
 11
3260.952972773061
 21
362.42181828831048
 31
0.0
  0
LINE
  5
1300
  8
OUTLINE
  6
CONTINUOUS
 10
3260.952972773061
 20
362.42181828831048
 30
0.0
 11
2003.952972773061
 21
362.42181828831048
 31
0.0
  0
LINE
  5
1301
  8
OUTLINE
  6
CONTINUOUS
 10
2003.952972773061
 20
362.42181828831048
 30
0.0
 11
2003.952972773061
 21
1713.4218182883101
 31
0.0
  0
LINE
  5
137C
  8
OUTLINE
  6
HIDDEN
 10
2975.4768525504378
 20
3232.7263791221699
 30
0.0
 11
3000.6268525504361
 21
3232.7263791221699
 31
0.0
  0
LINE
  5
137D
  8
OUTLINE
  6
HIDDEN
 10
3022.6268525504402
 20
3232.7263791221699
 30
0.0
 11
3047.7768525504371
 21
3232.7263791221699
 31
0.0
  0
LINE
  5
137E
  8
OUTLINE
  6
HIDDEN
 10
2286.1290929956831
 20
3232.7263791221699
 30
0.0
 11
2286.1290929956831
 21
3254.1263791221691
 31
0.0
  0
LINE
  5
137F
  8
OUTLINE
  6
HIDDEN
 10
2213.8290929956838
 20
3232.7263791221699
 30
0.0
 11
2286.1290929956831
 21
3232.7263791221699
 31
0.0
  0
LINE
  5
1380
  8
OUTLINE
  6
HIDDEN
 10
2213.8290929956838
 20
3232.7263791221699
 30
0.0
 11
2213.8290929956838
 21
3254.1263791221691
 31
0.0
  0
LINE
  5
1381
  8
OUTLINE
  6
HIDDEN
 10
2213.8290929956838
 20
3232.7263791221699
 30
0.0
 11
2192.4290929956851
 21
3254.1263791221691
 31
0.0
  0
LINE
  5
1382
  8
OUTLINE
  6
HIDDEN
 10
2286.1290929956831
 20
3232.7263791221699
 30
0.0
 11
2307.5290929956809
 21
3254.1263791221681
 31
0.0
  0
LINE
  5
1383
  8
OUTLINE
  6
HIDDEN
 10
2255.979092995683
 20
3232.7263791221699
 30
0.0
 11
2255.979092995683
 21
3253.7263791221699
 31
0.0
  0
LINE
  5
1384
  8
OUTLINE
  6
HIDDEN
 10
2243.979092995683
 20
3232.7263791221699
 30
0.0
 11
2243.979092995683
 21
3253.7263791221699
 31
0.0
  0
LINE
  5
1385
  8
OUTLINE
  6
HIDDEN
 10
3047.7768525504371
 20
3232.7263791221699
 30
0.0
 11
3047.7768525504362
 21
3254.1263791221709
 31
0.0
  0
LINE
  5
1386
  8
OUTLINE
  6
HIDDEN
 10
2975.4768525504369
 20
3232.7263791221699
 30
0.0
 11
3047.7768525504371
 21
3232.7263791221699
 31
0.0
  0
LINE
  5
1387
  8
OUTLINE
  6
HIDDEN
 10
2975.4768525504369
 20
3232.7263791221699
 30
0.0
 11
2975.4768525504369
 21
3254.12637912217
 31
0.0
  0
LINE
  5
1388
  8
OUTLINE
  6
HIDDEN
 10
2975.4768525504369
 20
3232.7263791221699
 30
0.0
 11
2954.0768525504368
 21
3254.12637912217
 31
0.0
  0
LINE
  5
1389
  8
OUTLINE
  6
HIDDEN
 10
3047.7768525504371
 20
3232.7263791221699
 30
0.0
 11
3069.1768525504358
 21
3254.12637912217
 31
0.0
  0
LINE
  5
138A
  8
OUTLINE
  6
HIDDEN
 10
3017.626852550437
 20
3232.7263791221699
 30
0.0
 11
3017.626852550437
 21
3253.7263791221708
 31
0.0
  0
LINE
  5
138B
  8
OUTLINE
  6
HIDDEN
 10
3005.626852550437
 20
3232.7263791221699
 30
0.0
 11
3005.626852550437
 21
3253.7263791221708
 31
0.0
  0
TEXT
  5
1792
  8
DIM
 62
     7
 10
2565.619639439728
 20
1818.138503269083
 30
0.0
 40
40.0
  1
1257
  0
TEXT
  5
1796
  8
DIM
 62
     7
 10
1841.415941404435
 20
872.93277066926544
 30
0.0
 40
40.0
  1
1383 O/A
 50
90.0
  7
TITLE3
  0
TEXT
  5
1798
  8
DIM
 62
     7
 10
3079.119639439728
 20
160.52722838537011
 30
0.0
 40
40.0
  1
253
  0
TEXT
  5
179A
  8
DIM
 62
     7
 10
2072.119639439728
 20
160.52722838537011
 30
0.0
 40
40.0
  1
253
  0
TEXT
  5
179C
  8
DIM
 62
     7
 10
2493.969639439727
 20
158.12300932565631
 30
0.0
 40
40.0
  1
751 CTR
  0
TEXT
  5
17C0
  8
DIM
 62
     7
 10
4220.4383495771654
 20
3406.2263791221699
 30
0.0
 40
40.0
  1
412
 50
90.0
  0
TEXT
  5
17C2
  8
DIM
 62
     7
 10
5610.1941261131578
 20
3312.437333957982
 30
0.0
 40
40.0
  1
406 CTRS
 50
90.0
  0
TEXT
  5
17C3
  8
DIM
 62
     7
 10
5770.208514398043
 20
3382.8930457888391
 30
0.0
 40
40.0
  1
447 O/A
 50
90.0
 41
0.6
  0
ENDSEC
  0
EOF
