  0
SECTION
  2
HEADER
  9
$ACADVER
  1
AC1009
  9
$INSBASE
 10
0.0
 20
0.0
 30
0.0
  9
$EXTMIN
 10
-449.87497535422511
 20
-0.1478211086705414
 30
-0.0000000000000053
  9
$EXTMAX
 10
4263.6177760323662
 20
5358.6758457707156
 30
0.0000000000000099
  9
$LIMMIN
 10
0.0
 20
0.0
  9
$LIMMAX
 10
3890.0
 20
2660.0
  9
$ORTHOMODE
 70
     1
  9
$REGENMODE
 70
     1
  9
$FILLMODE
 70
     1
  9
$QTEXTMODE
 70
     0
  9
$MIRRTEXT
 70
     0
  9
$DRAGMODE
 70
     2
  9
$LTSCALE
 40
300.0
  9
$OSMODE
 70
  3071
  9
$ATTMODE
 70
     1
  9
$TEXTSIZE
 40
30.0
  9
$TRACEWID
 40
0.05
  9
$TEXTSTYLE
  7
TITLE3
  9
$CLAYER
  8
0
  9
$CELTYPE
  6
BYLAYER
  9
$CECOLOR
 62
   256
  9
$DIMSCALE
 40
1.0
  9
$DIMASZ
 40
0.12
  9
$DIMEXO
 40
0.05
  9
$DIMDLI
 40
0.5
  9
$DIMRND
 40
0.0
  9
$DIMDLE
 40
0.0
  9
$DIMEXE
 40
0.1
  9
$DIMTP
 40
0.1
  9
$DIMTM
 40
0.1
  9
$DIMTXT
 40
0.12
  9
$DIMCEN
 40
0.0
  9
$DIMTSZ
 40
0.0
  9
$DIMTOL
 70
     0
  9
$DIMLIM
 70
     0
  9
$DIMTIH
 70
     1
  9
$DIMTOH
 70
     1
  9
$DIMSE1
 70
     0
  9
$DIMSE2
 70
     0
  9
$DIMTAD
 70
     0
  9
$DIMZIN
 70
     7
  9
$DIMBLK
  1

  9
$DIMASO
 70
     0
  9
$DIMSHO
 70
     0
  9
$DIMPOST
  1

  9
$DIMAPOST
  1
mm
  9
$DIMALT
 70
     0
  9
$DIMALTD
 70
     2
  9
$DIMALTF
 40
25.399999999999999
  9
$DIMLFAC
 40
1.0
  9
$DIMTOFL
 70
     0
  9
$DIMTVP
 40
0.0
  9
$DIMTIX
 70
     0
  9
$DIMSOXD
 70
     0
  9
$DIMSAH
 70
     0
  9
$DIMBLK1
  1

  9
$DIMBLK2
  1

  9
$DIMSTYLE
  2
AM_ANSI
  9
$DIMCLRD
 70
   256
  9
$DIMCLRE
 70
   256
  9
$DIMCLRT
 70
     2
  9
$DIMTFAC
 40
0.71
  9
$DIMGAP
 40
0.06
  9
$LUNITS
 70
     2
  9
$LUPREC
 70
     2
  9
$SKETCHINC
 40
0.1
  9
$FILLETRAD
 40
0.0
  9
$AUNITS
 70
     0
  9
$AUPREC
 70
     2
  9
$MENU
  1
\acad12\support\cnc
  9
$ELEVATION
 40
0.0
  9
$PELEVATION
 40
0.0
  9
$THICKNESS
 40
0.0
  9
$LIMCHECK
 70
     0
  9
$BLIPMODE
 70
     0
  9
$CHAMFERA
 40
20.0
  9
$CHAMFERB
 40
20.0
  9
$SKPOLY
 70
     0
  9
$TDCREATE
 40
2450610.4026309028
  9
$TDUPDATE
 40
2454924.3363115159
  9
$TDINDWG
 40
0.6613786574
  9
$TDUSRTIMER
 40
0.6613725579000001
  9
$USRTIMER
 70
     1
  9
$ANGBASE
 50
0.0
  9
$ANGDIR
 70
     0
  9
$PDMODE
 70
     2
  9
$PDSIZE
 40
10.0
  9
$PLINEWID
 40
2.0
  9
$COORDS
 70
     1
  9
$SPLFRAME
 70
     0
  9
$SPLINETYPE
 70
     6
  9
$SPLINESEGS
 70
     8
  9
$ATTDIA
 70
     1
  9
$ATTREQ
 70
     1
  9
$HANDLING
 70
     1
  9
$HANDSEED
  5
9359
  9
$SURFTAB1
 70
     6
  9
$SURFTAB2
 70
     6
  9
$SURFTYPE
 70
     6
  9
$SURFU
 70
     6
  9
$SURFV
 70
     6
  9
$UCSNAME
  2

  9
$UCSORG
 10
0.0
 20
0.0
 30
0.0
  9
$UCSXDIR
 10
1.0
 20
0.0
 30
0.0
  9
$UCSYDIR
 10
0.0
 20
1.0
 30
0.0
  9
$PUCSNAME
  2

  9
$PUCSORG
 10
0.0
 20
0.0
 30
0.0
  9
$PUCSXDIR
 10
1.0
 20
0.0
 30
0.0
  9
$PUCSYDIR
 10
0.0
 20
1.0
 30
0.0
  9
$USERI1
 70
     0
  9
$USERI2
 70
     0
  9
$USERI3
 70
     0
  9
$USERI4
 70
     0
  9
$USERI5
 70
     0
  9
$USERR1
 40
0.0
  9
$USERR2
 40
0.0
  9
$USERR3
 40
0.0
  9
$USERR4
 40
0.0
  9
$USERR5
 40
0.0
  9
$WORLDVIEW
 70
     1
  9
$SHADEDGE
 70
     3
  9
$SHADEDIF
 70
    70
  9
$TILEMODE
 70
     1
  9
$MAXACTVP
 70
    16
  9
$PLIMCHECK
 70
     0
  9
$PEXTMIN
 10
1.0000000000000000E+020
 20
1.0000000000000000E+020
 30
1.0000000000000000E+020
  9
$PEXTMAX
 10
-1.0000000000000000E+020
 20
-1.0000000000000000E+020
 30
-1.0000000000000000E+020
  9
$PLIMMIN
 10
0.0
 20
0.0
  9
$PLIMMAX
 10
12.0
 20
9.0
  9
$UNITMODE
 70
     0
  9
$VISRETAIN
 70
     0
  9
$PLINEGEN
 70
     0
  9
$PSLTSCALE
 70
     0
  0
ENDSEC
  0
SECTION
  2
TABLES
  0
TABLE
  2
VPORT
 70
     1
  0
VPORT
  2
*ACTIVE
 70
     0
 10
0.0
 20
0.0
 11
1.0
 21
1.0
 12
-150.60953536265831
 22
346.74166222673512
 13
0.0
 23
0.0
 14
25.0
 24
25.0
 15
100.0
 25
100.0
 16
0.0
 26
0.0
 36
1.0
 17
2057.4809357017289
 27
2332.5223501042879
 37
0.0
 40
5393.8868533584237
 41
2.0382096069868991
 42
50.0
 43
0.0
 44
0.0
 50
0.0
 51
0.0
 71
     0
 72
   100
 73
     1
 74
     0
 75
     0
 76
     0
 77
     0
 78
     0
  0
ENDTAB
  0
TABLE
  2
LTYPE
 70
    18
  0
LTYPE
  2
CONTINUOUS
 70
     0
  3
Solid line
 72
    65
 73
     0
 40
0.0
  0
LTYPE
  2
HIDDEN
 70
     0
  3
_ _ _ _ _ _ _ _ _ _ _ _ _ _ _ _ _ _ _ _ _ _ _
 72
    65
 73
     2
 40
0.375
 49
0.25
 49
-0.125
  0
LTYPE
  2
PHANTOM2
 70
     0
  3
Phantom (.5x) ___ _ _ ___ _ _ ___ _ _ ___ _ _
 72
    65
 73
     6
 40
1.25
 49
0.625
 49
-0.125
 49
0.125
 49
-0.125
 49
0.125
 49
-0.125
  0
LTYPE
  2
HIDDEN2
 70
     0
  3
Hidden (.5x) _ _ _ _ _ _ _ _ _ _ _ _ _ _ _ _ _
 72
    65
 73
     2
 40
0.1875
 49
0.125
 49
-0.0625
  0
LTYPE
  2
CENTER
 70
     0
  3
Center ____ _ ____ _ ____ _ ____ _ ____ _ ____
 72
    65
 73
     4
 40
2.0
 49
1.25
 49
-0.25
 49
0.25
 49
-0.25
  0
LTYPE
  2
AM_ISO02W050
 70
     0
  3
__ __ __ __ __ __ __ __ __ __ __ __ __ __ __
 72
    65
 73
     2
 40
7.5
 49
6.0
 49
-1.5
  0
LTYPE
  2
AM_ISO08W050
 70
     0
  3
____ . ____ . ____ . ____ . ____ . ____ . ____
 72
    65
 73
     4
 40
18.0
 49
12.0
 49
-1.5
 49
3.0
 49
-1.5
  0
LTYPE
  2
AM_ISO09W050
 70
     0
  3
_____ . . _____ . . _____ . . ____ .. ____
 72
    65
 73
     6
 40
22.5
 49
12.0
 49
-1.5
 49
3.0
 49
-1.5
 49
3.0
 49
-1.5
  0
LTYPE
  2
AMCONSTR
 70
     0
  3
_______________________
 72
    65
 73
     2
 40
9999.0
 49
9999.0
 49
0.0
  0
LTYPE
  2
AM_ISO08W050X2
 70
     0
  3
__ . __ . __ . __ . __ . __
 72
    65
 73
     4
 40
9.0
 49
6.0
 49
-0.75
 49
1.5
 49
-0.75
  0
LTYPE
  2
AM_ISO02W050X2
 70
     0
  3
 _ _ _ _ _ _ _ _ _ _ _ _
 72
    65
 73
     2
 40
3.75
 49
3.0
 49
-0.75
  0
LTYPE
  2
AMZIGZAG
 70
     0
  3
/\/-/\/-/\/-/\/-/\/-/\/
 72
    65
 73
     2
 40
11.0001
 49
0.0001
 49
-11.0
  0
LTYPE
  2
CENTER2
 70
     0
  3
Center (.5x) ___ _ ___ _ ___ _ ___ _ ___ _ ___
 72
    65
 73
     4
 40
1.125
 49
0.75
 49
-0.125
 49
0.125
 49
-0.125
  0
LTYPE
  2
AMZIGZAG2
 70
     0
  3
/\/-/\/-/\/-/\/-/\/-/\/
 72
    65
 73
     2
 40
0.4401
 49
0.0001
 49
-0.4400000000000003
  0
LTYPE
  2
ACANSTGB
 70
     0
  3
__ . . __ . .
 72
    65
 73
     6
 40
0.35433070866
 49
0.15748031496
 49
-0.03937007874
 49
0.03937007874
 49
-0.03937007874
 49
0.03937007874
 49
-0.03937007874
  0
LTYPE
  2
ACANSTGL
 70
     0
  3
_ _ _ _ _
 72
    65
 73
     2
 40
0.11811023622
 49
0.07874015748
 49
-0.03937007874
  0
ENDTAB
  0
TABLE
  2
LAYER
 70
     1
  0
LAYER
  2
0
 70
     0
 62
     7
  6
CONTINUOUS
  0
ENDTAB
  0
TABLE
  2
STYLE
 70
     9
  0
STYLE
  2
STANDARD
 70
     0
 40
0.0
 41
1.0
 50
0.0
 71
     0
 42
0.2
  3
txt
  4

  0
STYLE
  2
ANNOTATIVE
 70
     0
 40
0.0
 41
1.0
 50
0.0
 71
     0
 42
0.2
  3
txt
  4

  0
STYLE
  2
TITLE3
 70
     0
 40
30.0
 41
1.0
 50
0.0
 71
     0
 42
30.0
  3
SIMPLEX
  4

  0
STYLE
  2
TITLE5
 70
     0
 40
50.0
 41
1.0
 50
0.0
 71
     0
 42
50.0
  3
SIMPLEX
  4

  0
STYLE
  2
SIMPLEX
 70
     0
 40
30.0
 41
1.0
 50
0.0
 71
     0
 42
25.0
  3
SIMPLEX.shx
  4

  0
STYLE
  2
TITLE
 70
     0
 40
60.0
 41
1.0
 50
0.0
 71
     0
 42
60.0
  3
simplex.shx
  4

  0
STYLE
  2

 70
     1
 40
0.0
 41
1.0
 50
0.0
 71
     0
 42
30.0
  3
genltshp.shx
  4

  0
STYLE
  2
ACANSTS
 70
     0
 40
1.0
 41
1.0
 50
0.0
 71
     0
 42
30.0
  3
romans.shx
  4

  0
STYLE
  2
ACANSGDT
 70
     0
 40
0.0
 41
1.0
 50
0.0
 71
     0
 42
30.0
  3
amgdt.shx
  4

  0
ENDTAB
  0
TABLE
  2
VIEW
 70
     0
  0
ENDTAB
  0
TABLE
  2
UCS
 70
     0
  0
ENDTAB
  0
TABLE
  2
APPID
 70
    20
  0
APPID
  2
ACAD
 70
     0
  0
APPID
  2
ACADANNOTATIVE
 70
     0
  0
APPID
  2
ACAD_MLEADERVER
 70
     0
  0
APPID
  2
GENIUS_GENDIM_13
 70
     0
  0
APPID
  2
GENIUS_GENDTOL_13
 70
     0
  0
APPID
  2
GENIUS_GE3DTOL_13
 70
     0
  0
APPID
  2
MCAD_NO_VIS
 70
     0
  0
APPID
  2
ACAD_TEMP_GRAPHIC
 70
     0
  0
APPID
  2
AD_DRAW
 70
     0
  0
APPID
  2
ACATTRIBSERVICES
 70
     0
  0
APPID
  2
ASURF_PCURVE_APPNAME
 70
     0
  0
APPID
  2
AMG_3D2D_5_0
 70
     0
  0
APPID
  2
DESIGNERASSEMBLIES
 70
     0
  0
APPID
  2
ACADM_DIM_EDIT
 70
     0
  0
APPID
  2
AMDT_DM_ADJ
 70
     0
  0
APPID
  2
ACAD_PSEXT
 70
     0
  0
APPID
  2
AMG_3D2D_5_00
 70
     0
  0
APPID
  2
ACAD_EXEMPT_FROM_CAD_STANDARDS
 70
     0
  0
APPID
  2
AMG_3D2D_5_01
 70
     0
  0
APPID
  2
ACAD_DSTYLE_DIMRADIAL_EXTENSION
 70
     0
  0
ENDTAB
  0
TABLE
  2
DIMSTYLE
 70
     9
  0
DIMSTYLE
  2
STANDARD
 70
     0
  3

  4

  5

  6

  7

 40
1.0
 41
0.18
 42
0.0625
 43
0.38
 44
0.18
 45
0.0
 46
0.0
 47
0.0
 48
0.0
140
0.18
141
0.09
142
0.0
143
25.399999999999999
144
1.0
145
0.0
146
1.0
147
0.09
 71
     0
 72
     0
 73
     1
 74
     1
 75
     0
 76
     0
 77
     0
 78
     0
170
     0
171
     2
172
     0
173
     0
174
     0
175
     0
176
     0
177
     0
178
     0
  0
DIMSTYLE
  2
ANNOTATIVE
 70
     0
  3

  4

  5

  6

  7

 40
1.0
 41
0.18
 42
0.0625
 43
0.38
 44
0.18
 45
0.0
 46
0.0
 47
0.0
 48
0.0
140
0.18
141
0.09
142
0.0
143
25.399999999999999
144
1.0
145
0.0
146
1.0
147
0.09
 71
     0
 72
     0
 73
     1
 74
     1
 75
     0
 76
     0
 77
     0
 78
     0
170
     0
171
     2
172
     0
173
     0
174
     0
175
     0
176
     0
177
     0
178
     0
  0
DIMSTYLE
  2
AM_ANSI
 70
     0
  3

  4
mm
  5

  6

  7

 40
1.0
 41
0.12
 42
0.05
 43
0.5
 44
0.1
 45
0.0
 46
0.0
 47
0.1
 48
0.1
140
0.12
141
0.0
142
0.0
143
25.399999999999999
144
1.0
145
0.0
146
0.71
147
0.06
 71
     0
 72
     0
 73
     1
 74
     1
 75
     0
 76
     0
 77
     0
 78
     7
170
     0
171
     2
172
     0
173
     0
174
     0
175
     0
176
   256
177
   256
178
     2
  0
DIMSTYLE
  2
AM_ANSI$3
 70
     0
  3

  4
mm
  5

  6

  7

 40
1.0
 41
0.12
 42
0.05
 43
0.5
 44
0.1
 45
0.0
 46
0.0
 47
0.1
 48
0.1
140
0.12
141
0.0
142
0.0
143
25.399999999999999
144
1.0
145
0.0
146
0.71
147
0.06
 71
     0
 72
     0
 73
     1
 74
     1
 75
     0
 76
     0
 77
     0
 78
     7
170
     0
171
     2
172
     0
173
     0
174
     0
175
     0
176
   256
177
   256
178
     2
  0
DIMSTYLE
  2
AM_ANSI$4
 70
     0
  3

  4
mm
  5

  6

  7

 40
1.0
 41
0.12
 42
0.05
 43
0.5
 44
0.1
 45
0.0
 46
0.0
 47
0.1
 48
0.1
140
0.12
141
0.0
142
0.0
143
25.399999999999999
144
1.0
145
0.0
146
0.71
147
0.06
 71
     0
 72
     0
 73
     1
 74
     1
 75
     0
 76
     0
 77
     0
 78
     7
170
     0
171
     2
172
     0
173
     0
174
     0
175
     0
176
   256
177
   256
178
     2
  0
DIMSTYLE
  2
AM_ANSI$7
 70
     0
  3

  4
mm
  5

  6

  7

 40
1.0
 41
0.12
 42
0.05
 43
0.5
 44
0.1
 45
0.0
 46
0.0
 47
0.1
 48
0.1
140
0.12
141
0.0
142
0.0
143
25.399999999999999
144
1.0
145
0.0
146
0.71
147
0.06
 71
     0
 72
     0
 73
     1
 74
     1
 75
     0
 76
     0
 77
     0
 78
     7
170
     0
171
     2
172
     0
173
     0
174
     0
175
     0
176
   256
177
   256
178
     2
  0
DIMSTYLE
  2
AM_ANSI$SF
 70
     0
  3

  4
mm
  5

  6

  7

 40
1.0
 41
0.12
 42
0.05
 43
0.5
 44
0.1
 45
0.0
 46
0.0
 47
0.1
 48
0.1
140
0.12
141
0.0
142
0.0
143
25.399999999999999
144
1.0
145
0.0
146
0.71
147
0.06
 71
     0
 72
     0
 73
     1
 74
     1
 75
     1
 76
     1
 77
     0
 78
     7
170
     0
171
     2
172
     0
173
     0
174
     0
175
     0
176
   256
177
   256
178
     2
  0
DIMSTYLE
  2
AM_ANSI$SH
 70
     0
  3

  4
mm
  5

  6
GENAXEH
  7

 40
1.0
 41
0.12
 42
0.05
 43
0.5
 44
0.1
 45
0.0
 46
0.0
 47
0.1
 48
0.1
140
0.12
141
0.0
142
0.0
143
25.399999999999999
144
1.0
145
0.0
146
0.71
147
0.06
 71
     0
 72
     0
 73
     1
 74
     1
 75
     1
 76
     1
 77
     0
 78
     7
170
     0
171
     2
172
     0
173
     1
174
     0
175
     0
176
   256
177
   256
178
     2
  0
ENDTAB
  0
ENDSEC
  0
SECTION
  2
BLOCKS
  0
BLOCK
  8
0
  2
$MODEL_SPACE
 70
     0
 10
0.0
 20
0.0
 30
0.0
  3
$MODEL_SPACE
  1

  0
ENDBLK
  5
9224
  8
0
  0
BLOCK
 67
     1
  8
0
  2
$PAPER_SPACE
 70
     0
 10
0.0
 20
0.0
 30
0.0
  3
$PAPER_SPACE
  1

  0
ENDBLK
  5
9220
 67
     1
  8
0
  0
BLOCK
  8
0
  2
*U2
 70
     1
 10
0.0
 20
0.0
 30
0.0
  3
*U2
  1

  0
TEXT
  5
8C2A
  8
0
 62
     7
 10
1966.251134363293
 20
3816.3416874558488
 30
0.0
 40
30.0
  1
780
 50
90.0
  0
ENDBLK
  5
8C2C
  8
0
  0
BLOCK
  8
0
  2
*U3
 70
     1
 10
0.0
 20
0.0
 30
0.0
  3
*U3
  1

  0
TEXT
  5
8C31
  8
0
 62
     7
 10
-40.405342074508809
 20
3813.5416874558482
 30
0.0
 40
30.0
  1
825
 50
90.0
  0
ENDBLK
  5
8C33
  8
0
  0
BLOCK
  8
0
  2
GENAXEH
 70
     0
 10
0.0
 20
0.0
 30
0.0
  3
GENAXEH
  1

  0
LINE
  5
8D59
  8
0
 10
-1.0
 20
0.0
 30
0.0
 11
1.0
 21
0.0
 31
0.0
  0
ENDBLK
  5
8D5B
  8
0
  0
BLOCK
  8
0
  2
*U5
 70
     1
 10
0.0
 20
0.0
 30
0.0
  3
*U5
  1

  0
TEXT
  5
8DF9
  8
0
 62
     7
 10
2523.480777594049
 20
290.56696219673228
 30
0.0
 40
30.0
  1
750
  0
ENDBLK
  5
8DFB
  8
0
  0
BLOCK
  8
0
  2
*U6
 70
     1
 10
0.0
 20
0.0
 30
0.0
  3
*U6
  1

  0
TEXT
  5
8DFD
  8
0
 62
     7
 10
3273.4807775940471
 20
290.56696219673228
 30
0.0
 40
30.0
  1
750
  0
ENDBLK
  5
8DFF
  8
0
  0
BLOCK
  8
0
  2
*U7
 70
     1
 10
0.0
 20
0.0
 30
0.0
  3
*U7
  1

  0
TEXT
  5
8E01
  8
0
 62
     7
 10
1952.0129593400659
 20
4216.341687455847
 30
0.0
 40
30.0
  1
720
 50
90.0
  0
ENDBLK
  5
8E03
  8
0
  0
BLOCK
  8
0
  2
*U8
 70
     1
 10
0.0
 20
0.0
 30
0.0
  3
*U8
  1

  0
TEXT
  5
8E08
  8
0
 62
     7
 10
580.38229287936986
 20
3803.8842996582098
 30
0.0
 40
30.0
  1
1230
  0
ENDBLK
  5
8E0A
  8
0
  0
ENDSEC
  0
SECTION
  2
ENTITIES
  0
LINE
  5
8200
  8
0
 62
     7
 10
-449.57555622834229
 20
0.0
 30
0.0
 11
4263.4999999999991
 21
0.0
 31
0.0
  0
LINE
  5
8201
  8
0
 62
     7
 10
4263.4999999999991
 20
0.0
 30
0.0
 11
4263.4999999999991
 21
5358.5923387120474
 31
0.0
  0
LINE
  5
8203
  8
0
 62
     7
 10
-449.57555622834229
 20
5358.5923387120474
 30
0.0
 11
-449.57555622834229
 21
0.0
 31
0.0
  0
TEXT
  5
8205
  8
0
 62
     7
 10
2690.5140200749452
 20
3537.739118430412
 30
0.0
 40
30.0
  1
2000 min CLEARANCE
  7
TITLE3
  0
LINE
  5
8212
  8
0
 62
     7
 10
1964.980777594049
 20
374.98709778756159
 30
0.0
 11
2048.980777594048
 21
374.98709778756159
 31
0.0
  0
SOLID
  5
8232
  8
0
 62
     7
 10
3180.004256921919
 20
4950.5562194929407
 30
0.0
 11
3155.004256921919
 21
4800.556219492938
 31
0.0
 12
3130.0042569219181
 22
4950.5562194929407
 32
0.0
 13
3130.0042569219181
 23
4950.5562194929407
 33
0.0
1001
ACAD
1000
DSTYLE
1002
{
1070
    41
1040
60.0
1070
    42
1040
40.0
1070
    44
1040
40.0
1070
    73
1070
     0
1070
    74
1070
     0
1070
   140
1040
60.0
1070
   147
1040
40.0
1070
   176
1070
    52
1070
   177
1070
    52
1070
   178
1070
    50
1070
   179
1070
     2
1070
   271
1070
     2
1070
   272
1070
     2
1070
   279
1070
     2
1070
   340
1005
FC6
1002
}
  0
LINE
  5
8233
  8
0
 62
     7
 10
2050.9307775940488
 20
3909.8416874558479
 30
0.0
 11
2050.9307775940488
 21
3923.8416874558511
 31
0.0
  0
LINE
  5
8234
  8
0
 62
     7
 10
1971.0307775940501
 20
3909.8416874558479
 30
0.0
 11
1971.0307775940501
 21
3923.8416874558479
 31
0.0
  0
LINE
  5
8235
  8
0
 62
     7
 10
1971.0307775940501
 20
3909.8416874558479
 30
0.0
 11
2050.9307775940488
 21
3909.8416874558479
 31
0.0
  0
LINE
  5
8237
  8
0
 62
     7
 10
-126.1177071206279
 20
3901.0416874558482
 30
0.0
 11
-126.1177071206279
 21
4726.0416874558459
 31
0.0
  0
LINE
  5
823D
  8
0
 62
     7
 10
-126.1177071206279
 20
4726.0416874558459
 30
0.0
 11
-106.1677071206268
 21
4726.0416874558459
 31
0.0
  0
LINE
  5
824E
  8
0
 62
     7
 10
1819.980777594048
 20
1593.987097787561
 30
0.0
 11
1819.980777594048
 21
407.98709778756159
 31
0.0
  0
LINE
  5
824F
  8
0
 62
     7
 10
4052.980777594044
 20
407.98709778756159
 30
0.0
 11
1819.980777594048
 21
407.98709778756159
 31
0.0
  0
LINE
  5
8250
  8
0
 62
     7
 10
4052.9807775940499
 20
1593.987097787561
 30
0.0
 11
4052.980777594044
 21
407.98709778756159
 31
0.0
  0
LINE
  5
8255
  8
0
 62
     7
 10
1092.882292879372
 20
4703.8416874558461
 30
0.0
 11
-93.117707120625596
 21
4703.8416874558479
 31
0.0
  0
LINE
  5
8256
  8
0
 62
     7
 10
1092.882292879372
 20
3923.8416874558479
 30
0.0
 11
-93.117707120625596
 21
3923.8416874558479
 31
0.0
  0
LINE
  5
8257
  8
0
 62
     7
 10
-93.117707120625596
 20
4703.8416874558479
 30
0.0
 11
-93.117707120625596
 21
3923.8416874558479
 31
0.0
  0
LINE
  5
8258
  8
0
 62
     7
 10
4052.980777594044
 20
4703.8416874558479
 30
0.0
 11
4052.980777594044
 21
3923.8416874558479
 31
0.0
  0
LINE
  5
8259
  8
0
 62
     7
 10
1819.9807775940469
 20
4703.8416874558479
 30
0.0
 11
1819.9807775940469
 21
3923.8416874558479
 31
0.0
  0
LINE
  5
825A
  8
0
 62
     7
 10
1819.9807775940469
 20
3923.8416874558479
 30
0.0
 11
4052.980777594044
 21
3923.8416874558479
 31
0.0
  0
LINE
  5
825B
  8
0
 62
     7
 10
4052.980777594044
 20
4703.8416874558479
 30
0.0
 11
1819.9807775940469
 21
4703.8416874558479
 31
0.0
  0
LINE
  5
825E
  8
0
 62
     7
 10
1819.980777594048
 20
1593.987097787561
 30
0.0
 11
4052.9807775940499
 21
1593.987097787561
 31
0.0
  0
LINE
  5
8260
  8
0
 62
     7
 10
1092.882292879372
 20
4703.8416874558461
 30
0.0
 11
1092.882292879372
 21
3923.8416874558479
 31
0.0
  0
LINE
  5
8267
  8
0
  6
PHANTOM2
 62
     7
 10
4052.980777594044
 20
4713.8416874558498
 30
0.0
 11
4052.980777594044
 21
5203.841687455847
 31
0.0
  0
LINE
  5
8268
  8
0
  6
PHANTOM2
 62
     7
 10
1819.9807775940469
 20
4713.8416874558498
 30
0.0
 11
1819.9807775940469
 21
5203.841687455847
 31
0.0
  0
LINE
  5
8269
  8
0
  6
PHANTOM2
 62
     7
 10
1819.9807775940469
 20
5203.841687455847
 30
0.0
 11
4052.980777594044
 21
5203.841687455847
 31
0.0
  0
LINE
  5
826D
  8
0
  6
PHANTOM2
 62
     7
 10
4202.9807775940453
 20
4703.8416874558479
 30
0.0
 11
4202.9807775940453
 21
3923.8416874558479
 31
0.0
  0
LINE
  5
826E
  8
0
  6
PHANTOM2
 62
     7
 10
4052.980777594044
 20
3898.8416874558511
 30
0.0
 11
1819.9807775940469
 21
3898.8416874558511
 31
0.0
  0
LINE
  5
826F
  8
0
  6
PHANTOM2
 62
     7
 10
1819.9807775940469
 20
3913.8416874558502
 30
0.0
 11
1819.9807775940469
 21
3898.8416874558511
 31
0.0
  0
LINE
  5
8270
  8
0
  6
PHANTOM2
 62
     7
 10
4052.980777594044
 20
3913.8416874558502
 30
0.0
 11
4052.980777594044
 21
3898.8416874558511
 31
0.0
  0
LINE
  5
8271
  8
0
  6
PHANTOM2
 62
     7
 10
4202.9807775940453
 20
3923.8416874558479
 30
0.0
 11
4062.980777594044
 21
3923.8416874558479
 31
0.0
  0
LINE
  5
8272
  8
0
  6
PHANTOM2
 62
     7
 10
4062.980777594044
 20
4703.841687455847
 30
0.0
 11
4202.9807775940453
 21
4703.8416874558479
 31
0.0
  0
LINE
  5
8273
  8
0
  6
PHANTOM2
 62
     7
 10
1819.9807775940469
 20
3604.9870977875598
 30
0.0
 11
4052.9807775940499
 21
3604.9870977875598
 31
0.0
  0
LINE
  5
8274
  8
0
  6
PHANTOM2
 62
     7
 10
1819.980777594048
 20
1809.3107998609159
 30
0.0
 11
1819.9807775940469
 21
3604.9870977875598
 31
0.0
  0
LINE
  5
8275
  8
0
  6
PHANTOM2
 62
     7
 10
4052.9807775940499
 20
1803.987097787561
 30
0.0
 11
4052.9807775940499
 21
3604.9870977875598
 31
0.0
  0
TEXT
  5
8276
  8
0
 62
     7
 10
2568.2187887440309
 20
992.10850223547516
 30
0.0
 40
56.25
  1
OSA430RKTBV
  7
TITLE5
 72
     1
 11
2864.2009316011731
 21
992.10850223547516
 31
0.0
  0
SOLID
  5
827E
  8
0
 62
     7
 10
3184.9786384056902
 20
1969.157341614562
 30
0.0
 11
3159.9786384056902
 21
2119.1573416145611
 31
0.0
 12
3134.9786384056902
 22
1969.157341614562
 32
0.0
 13
3134.9786384056902
 23
1969.157341614562
 33
0.0
1001
ACAD
1000
DSTYLE
1002
{
1070
    41
1040
60.0
1070
    42
1040
40.0
1070
    44
1040
40.0
1070
    73
1070
     0
1070
    74
1070
     0
1070
   140
1040
60.0
1070
   147
1040
40.0
1070
   176
1070
    52
1070
   177
1070
    52
1070
   178
1070
    50
1070
   179
1070
     2
1070
   271
1070
     2
1070
   272
1070
     2
1070
   279
1070
     2
1070
   340
1005
FC6
1002
}
  0
TEXT
  5
8285
  8
0
 62
     7
 10
2677.8593094364628
 20
5158.293890765548
 30
0.0
 40
30.0
  1
500 min CLEARANCE
  7
TITLE3
  0
TEXT
  5
8286
  8
0
 62
     7
 10
4144.2880616479924
 20
4092.7871742718239
 30
0.0
 40
30.0
  1
CLEARANCE
 50
90.0
  7
TITLE3
  0
TEXT
  5
8287
  8
0
 62
     7
 10
116.1635216061709
 20
4147.9269746523696
 30
0.0
 40
56.25
  1
OSA430RKTBV
  7
TITLE5
 72
     1
 11
412.14566446331378
 21
4147.9269746523696
 31
0.0
  0
TEXT
  5
8288
  8
0
 62
     7
 10
2847.4222077619611
 20
4322.0407417691558
 30
0.0
 40
56.25
  1
OSA
  7
TITLE5
 72
     1
 11
2925.1007791905331
 21
4322.0407417691558
 31
0.0
  0
TEXT
  5
828A
  8
0
 62
     7
 10
3063.0739473592589
 20
3853.4115076270118
 30
0.0
 40
30.0
  1
25 min CLEARANCE
  7
TITLE3
  0
LINE
  5
828B
  8
0
  6
HIDDEN2
 62
     7
 10
3996.3501050592649
 20
4666.277043970199
 30
0.0
 11
1868.600329738963
 21
4666.277043970199
 31
0.0
  0
LINE
  5
828C
  8
0
  6
HIDDEN2
 62
     7
 10
3996.3501050592649
 20
4611.2770439702053
 30
0.0
 11
1868.600329738958
 21
4611.2770439702053
 31
0.0
  0
LINE
  5
8293
  8
0
  6
HIDDEN
 62
     7
 10
1868.600329738958
 20
4638.7770439702053
 30
0.0
 11
1868.600329738958
 21
4611.2770439702053
 31
0.0
  0
LINE
  5
8294
  8
0
  6
HIDDEN2
 62
     7
 10
1868.6003297389591
 20
4666.277043970199
 30
0.0
 11
1868.600329738958
 21
4635.2770439702053
 31
0.0
  0
TEXT
  5
8295
  8
0
 62
     7
 10
4195.7166330765631
 20
4133.8609832954553
 30
0.0
 40
30.0
  1
150 min
 50
90.0
  7
TITLE3
  0
TEXT
  5
8430
  8
0
 62
     7
 10
-147.59838009965139
 20
351.21224552226568
 30
0.0
 40
62.5
  1
temperzone OSA 430RKTBV
 41
0.9455399268682903
  7
TITLE5
 72
     5
 11
1101.86509469059
 21
351.21224552226568
 31
0.0
  0
TEXT
  5
8431
  8
0
 62
     7
 10
11.5081676260757
 20
87.5
 30
0.0
 40
37.5
  1
OSA430RKTBV
 41
0.9185520361990958
  7
TITLE3
 72
     5
 11
374.00816762607599
 21
87.5
 31
0.0
  0
TEXT
  5
8432
  8
0
 62
     7
 10
740.05016027364786
 20
137.5
 30
0.0
 40
37.5
  1
01-04-09
 41
0.6956521739130439
  7
TITLE3
 72
     5
 11
940.05016027364809
 21
137.5
 31
0.0
  0
TEXT
  5
8433
  8
0
 62
     7
 10
1010.78122437917
 20
138.53901732512611
 30
0.0
 40
30.0
  1
Date
  7
SIMPLEX
  0
TEXT
  5
8434
  8
0
 62
     7
 10
-152.8204248752549
 20
161.879127529264
 30
0.0
 40
30.0
  1
Revision
 41
0.7812095035934832
  7
SIMPLEX
 72
     5
 11
-21.13082284092491
 21
161.879127529264
 31
0.0
  0
LINE
  5
8435
  8
0
 62
     7
 10
-6.6060198616211201
 20
26.053116060396409
 30
0.0
 11
-6.6060198616211201
 21
210.3358196356829
 31
0.0
  0
LINE
  5
8436
  8
0
 62
     7
 10
1137.3187558046409
 20
433.29949611692632
 30
0.0
 11
1137.3187558046409
 21
26.053116060396409
 31
0.0
  0
LINE
  5
8437
  8
0
 62
     7
 10
390.36607010970909
 20
26.053116060396409
 30
0.0
 11
390.36607010970909
 21
210.3358196356829
 31
0.0
  0
LINE
  5
8438
  8
0
 62
     7
 10
390.36607010970909
 20
116.6407490868297
 30
0.0
 11
1137.3187558046409
 21
116.6407490868297
 31
0.0
  0
LINE
  5
8439
  8
0
 62
     7
 10
-165.4611639212248
 20
210.3358196356829
 30
0.0
 11
1137.3187558046409
 21
210.3358196356829
 31
0.0
  0
LINE
  5
843A
  8
0
 62
     7
 10
1137.3187558046409
 20
26.053116060396409
 30
0.0
 11
-165.08927994828809
 21
26.053116060396409
 31
0.0
  0
LINE
  5
843B
  8
0
 62
     7
 10
-165.08927994828809
 20
26.053116060396409
 30
0.0
 11
-165.08927994828809
 21
433.29949611692632
 31
0.0
  0
LINE
  5
843C
  8
0
 62
     7
 10
-165.08927994828809
 20
433.29949611692632
 30
0.0
 11
1137.3187558046409
 21
433.29949611692632
 31
0.0
  0
TEXT
  5
843D
  8
0
 62
     7
 10
980.30478739530872
 20
59.903110081697093
 30
0.0
 40
25.0
  1
Scale
 41
1.3701747965659541
  7
SIMPLEX
 72
     5
 11
1105.9041437471881
 21
59.903110081697093
 31
0.0
  0
TEXT
  5
843E
  8
0
 62
     7
 10
100.07712026793681
 20
161.1167893833869
 30
0.0
 40
25.0
  1
Drawing No.
  7
SIMPLEX
 72
     2
 11
317.93426312507961
 21
161.1167893833869
 31
0.0
  0
TEXT
  5
843F
  8
0
 62
     7
 10
813.11961595567379
 20
58.608558680249381
 30
0.0
 40
37.5
  1
1:10
  7
TITLE3
  0
LINE
  5
85ED
  8
0
 62
     7
 10
3159.9786384056902
 20
1968.3734723377611
 30
0.0
 11
3159.9786384056902
 21
1846.924178083314
 31
0.0
1001
ACAD
1000
DSTYLE
1002
{
1070
    41
1040
60.0
1070
    42
1040
40.0
1070
    44
1040
40.0
1070
    73
1070
     0
1070
    74
1070
     0
1070
   140
1040
60.0
1070
   147
1040
40.0
1070
   176
1070
    52
1070
   177
1070
    52
1070
   178
1070
    50
1070
   179
1070
     2
1070
   271
1070
     2
1070
   272
1070
     2
1070
   279
1070
     2
1070
   340
1005
FC6
1002
}
  0
TEXT
  5
85EF
  8
0
 62
     7
 10
2796.215369050763
 20
1984.250571290482
 30
0.0
 40
60.0
  1
AIR
  7
TITLE
  0
TEXT
  5
85F0
  8
0
 62
     7
 10
2747.072511907907
 20
1884.2505712904831
 30
0.0
 40
60.0
  1
FLOW
  7
TITLE
  0
LINE
  5
85F1
  8
0
 62
     7
 10
3155.004256921919
 20
4951.3400887697471
 30
0.0
 11
3155.004256921919
 21
5072.789383024191
 31
0.0
1001
ACAD
1000
DSTYLE
1002
{
1070
    41
1040
60.0
1070
    42
1040
40.0
1070
    44
1040
40.0
1070
    73
1070
     0
1070
    74
1070
     0
1070
   140
1040
60.0
1070
   147
1040
40.0
1070
   176
1070
    52
1070
   177
1070
    52
1070
   178
1070
    50
1070
   179
1070
     2
1070
   271
1070
     2
1070
   272
1070
     2
1070
   279
1070
     2
1070
   340
1005
FC6
1002
}
  0
TEXT
  5
85F2
  8
0
 62
     7
 10
2903.8409875669931
 20
4829.0864391149253
 30
0.0
 40
60.0
  1
AIR
  7
TITLE
  0
TEXT
  5
85F3
  8
0
 62
     7
 10
2854.6981304241358
 20
4929.0864391149216
 30
0.0
 40
60.0
  1
FLOW
  7
TITLE
  0
TEXT
  5
85F4
  8
0
 62
     7
 10
-96.471260509313794
 20
525.9479428556499
 30
0.0
 40
31.25
  1
available on request
  7
TITLE3
  0
TEXT
  5
85F5
  8
0
 62
     7
 10
-96.471260509313794
 20
579.51937142707845
 30
0.0
 40
31.25
  1
Certified dimensions
  7
TITLE3
  0
TEXT
  5
85F6
  8
0
 62
     7
 10
-96.471260509313794
 20
633.09079999850701
 30
0.0
 40
31.25
  1
without notice or obligation.
  7
TITLE3
  0
TEXT
  5
85F7
  8
0
 62
     7
 10
-96.471260509313794
 20
686.66222856993556
 30
0.0
 40
31.25
  1
specifications at any time
  7
TITLE3
  0
TEXT
  5
85F8
  8
0
 62
     7
 10
-96.471260509313794
 20
740.23365714136412
 30
0.0
 40
31.25
  1
the right to change 
  7
TITLE3
  0
TEXT
  5
85F9
  8
0
 62
     7
 10
-96.471260509313794
 20
847.37651428422043
 30
0.0
 40
31.25
  1
NOTE
  7
TITLE3
  0
TEXT
  5
85FA
  8
0
 62
     7
 10
-96.471260509313794
 20
793.80508571279233
 30
0.0
 40
31.25
  1
The manufacturer reserves
  7
TITLE3
  0
TEXT
  5
862B
  8
0
 62
     7
 10
2714.8329220476749
 20
4183.9560549947601
 30
0.0
 40
56.25
  1
430RKTBV
  7
TITLE5
 72
     1
 11
2925.1007791905331
 21
4183.9560549947601
 31
0.0
  0
LINE
  5
8666
  8
0
 62
     7
 10
1964.980777594049
 20
374.98709778756159
 30
0.0
 11
1939.480777594049
 21
407.98709778756159
 31
0.0
  0
LINE
  5
8667
  8
0
 62
     7
 10
2048.980777594048
 20
374.98709778756159
 30
0.0
 11
2074.480777594049
 21
407.98709778756159
 31
0.0
  0
LINE
  5
866B
  8
0
 62
     7
 10
3906.9807775940449
 20
374.98709778756159
 30
0.0
 11
3822.9807775940449
 21
374.98709778756159
 31
0.0
  0
LINE
  5
866C
  8
0
 62
     7
 10
3822.030777594045
 20
3909.8416874558479
 30
0.0
 11
3822.030777594045
 21
3923.8416874558511
 31
0.0
  0
LINE
  5
866D
  8
0
 62
     7
 10
3901.9307775940451
 20
3909.8416874558479
 30
0.0
 11
3901.9307775940451
 21
3923.8416874558479
 31
0.0
  0
LINE
  5
866E
  8
0
 62
     7
 10
3901.9307775940451
 20
3909.8416874558479
 30
0.0
 11
3822.030777594045
 21
3909.8416874558479
 31
0.0
  0
LINE
  5
866F
  8
0
 62
     7
 10
3906.9807775940449
 20
374.98709778756159
 30
0.0
 11
3932.4807775940449
 21
407.98709778756159
 31
0.0
  0
LINE
  5
8670
  8
0
 62
     7
 10
3822.9807775940449
 20
374.98709778756159
 30
0.0
 11
3797.4807775940449
 21
407.98709778756159
 31
0.0
  0
LINE
  5
86BB
  8
0
 62
     7
 10
1819.980777594048
 20
387.98709778756148
 30
0.0
 11
1819.980777594048
 21
90.372615008420581
 31
0.0
  0
LINE
  5
86BC
  8
0
 62
     7
 10
4052.980777594044
 20
387.98709778756148
 30
0.0
 11
4052.980777594044
 21
90.372615008420581
 31
0.0
  0
LINE
  5
86BD
  8
0
 62
     7
 10
1849.980777594048
 20
110.37261500842079
 30
0.0
 11
2910.9442177107112
 21
110.37261500842079
 31
0.0
  0
LINE
  5
86BE
  8
0
 62
     7
 10
4022.9807775940449
 20
110.37261500842079
 30
0.0
 11
3035.9442177107121
 21
110.37261500842079
 31
0.0
  0
SOLID
  5
86BF
  8
0
 62
     7
 10
1849.980777594048
 20
115.3726150084205
 30
0.0
 11
1849.980777594048
 21
105.37261500842069
 31
0.0
 12
1819.980777594048
 22
110.37261500842079
 32
0.0
 13
1819.980777594048
 23
110.37261500842079
 33
0.0
  0
SOLID
  5
86C0
  8
0
 62
     7
 10
4022.9807775940449
 20
115.3726150084205
 30
0.0
 11
4022.9807775940449
 21
105.37261500842069
 31
0.0
 12
4052.980777594044
 22
110.37261500842079
 32
0.0
 13
4052.980777594044
 23
110.37261500842079
 33
0.0
  0
LINE
  5
86C2
  8
0
 62
     7
 10
2006.980777594049
 20
241.4483064950455
 30
0.0
 11
2006.980777594049
 21
198.82130456600541
 31
0.0
  0
LINE
  5
86C3
  8
0
 62
     7
 10
3864.9807775940449
 20
241.4483064950455
 30
0.0
 11
3864.9807775940449
 21
198.82130456600541
 31
0.0
  0
LINE
  5
86C4
  8
0
 62
     7
 10
2036.980777594049
 20
218.82130456600549
 30
0.0
 11
2820.7738047512621
 21
218.82130456600549
 31
0.0
  0
LINE
  5
86C5
  8
0
 62
     7
 10
3834.9807775940449
 20
218.82130456600549
 30
0.0
 11
3103.4442177107089
 21
218.82130456600549
 31
0.0
  0
SOLID
  5
86C6
  8
0
 62
     7
 10
2036.980777594049
 20
223.82130456600541
 30
0.0
 11
2036.980777594049
 21
213.82130456600541
 31
0.0
 12
2006.980777594049
 22
218.82130456600549
 32
0.0
 13
2006.980777594049
 23
218.82130456600549
 33
0.0
  0
SOLID
  5
86C7
  8
0
 62
     7
 10
3834.9807775940449
 20
223.82130456600541
 30
0.0
 11
3834.9807775940449
 21
213.82130456600541
 31
0.0
 12
3864.9807775940449
 22
218.82130456600549
 32
0.0
 13
3864.9807775940449
 23
218.82130456600549
 33
0.0
  0
LINE
  5
86C9
  8
0
 62
     7
 10
1932.480364268941
 20
1702.987097787561
 30
0.0
 11
1677.588490115972
 21
1702.987097787561
 31
0.0
  0
LINE
  5
86CA
  8
0
 62
     7
 10
1942.980777594049
 20
374.98709778756159
 30
0.0
 11
1677.58849011597
 21
374.98709778756171
 31
0.0
  0
LINE
  5
86CB
  8
0
 62
     7
 10
1697.5884901159729
 20
1702.987097787561
 30
0.0
 11
1697.58849011597
 21
1159.0394727357721
 31
0.0
  0
LINE
  5
86CC
  8
0
 62
     7
 10
1697.58849011597
 20
404.98709778756171
 30
0.0
 11
1697.58849011597
 21
861.01270876561432
 31
0.0
  0
SOLID
  5
86CD
  8
0
 62
     7
 10
1692.588490115972
 20
1672.987097787561
 30
0.0
 11
1702.588490115972
 21
1672.987097787561
 31
0.0
 12
1697.588490115972
 22
1702.987097787561
 32
0.0
 13
1697.588490115972
 23
1702.987097787561
 33
0.0
  0
SOLID
  5
86CE
  8
0
 62
     7
 10
1692.5884901159709
 20
404.98709778756171
 30
0.0
 11
1702.58849011597
 21
404.98709778756171
 31
0.0
 12
1697.58849011597
 22
374.98709778756171
 32
0.0
 13
1697.58849011597
 23
374.98709778756171
 33
0.0
  0
LINE
  5
86F7
  8
0
 62
     7
 10
1103.8822928793679
 20
3923.8416874558502
 30
0.0
 11
1092.882292879372
 21
3923.8416874558502
 31
0.0
  0
LINE
  5
8722
  8
0
 62
     7
 10
-113.1177071206256
 20
4711.0416874558478
 30
0.0
 11
-280.38724459403079
 21
4711.0416874558478
 31
0.0
  0
LINE
  5
8723
  8
0
 62
     7
 10
-146.11770712062801
 20
3916.0416874558482
 30
0.0
 11
-280.38724459403102
 21
3916.0416874558482
 31
0.0
  0
LINE
  5
8724
  8
0
 62
     7
 10
-260.38724459403107
 20
4681.0416874558459
 30
0.0
 11
-260.38724459403119
 21
4392.4312519038695
 31
0.0
  0
LINE
  5
8725
  8
0
 62
     7
 10
-260.38724459403119
 20
3951.0416874558468
 30
0.0
 11
-260.38724459403119
 21
4274.4223597880209
 31
0.0
  0
SOLID
  5
8726
  8
0
 62
     7
 10
-265.38724459403119
 20
4681.0416874558459
 30
0.0
 11
-255.3872445940311
 21
4681.0416874558459
 31
0.0
 12
-260.38724459403107
 22
4711.0416874558478
 32
0.0
 13
-260.38724459403107
 23
4711.0416874558478
 33
0.0
  0
SOLID
  5
8727
  8
0
 62
     7
 10
-265.38724459403119
 20
3946.0416874558509
 30
0.0
 11
-255.38724459403119
 21
3946.0416874558509
 31
0.0
 12
-260.3872445940313
 22
3916.0416874558482
 32
0.0
 13
-260.3872445940313
 23
3916.0416874558482
 33
0.0
  0
LINE
  5
8754
  8
0
 62
     7
 10
-136.1177071206279
 20
3916.04168745585
 30
0.0
 11
-116.1177071206279
 21
3916.04168745585
 31
0.0
  0
LINE
  5
875F
  8
0
 62
     7
 10
2006.980777594048
 20
364.98709778756171
 30
0.0
 11
2006.980777594049
 21
384.98709778756171
 31
0.0
  0
LINE
  5
8762
  8
0
 62
     7
 10
3864.9807775940449
 20
364.98709778756171
 30
0.0
 11
3864.9807775940449
 21
384.98709778756171
 31
0.0
  0
LINE
  5
8799
  8
0
 62
     7
 10
2006.980777594048
 20
241.4483064950455
 30
0.0
 11
2006.980777594048
 21
198.88737468623029
 31
0.0
  0
LINE
  5
879A
  8
0
 62
     7
 10
1819.980777594048
 20
387.98709778756148
 30
0.0
 11
1819.980777594048
 21
152.4261659787465
 31
0.0
  0
LINE
  5
879B
  8
0
 62
     7
 10
1976.980777594048
 20
218.8873746862304
 30
0.0
 11
1849.980777594048
 21
218.8873746862304
 31
0.0
  0
LINE
  5
879C
  8
0
 62
     7
 10
1819.980777594048
 20
218.8873746862304
 30
0.0
 11
1789.9807775940469
 21
218.8873746862304
 31
0.0
  0
SOLID
  5
879D
  8
0
 62
     7
 10
1976.980777594048
 20
223.8873746862304
 30
0.0
 11
1976.980777594048
 21
213.88737468623029
 31
0.0
 12
2006.980777594048
 22
218.8873746862304
 32
0.0
 13
2006.980777594048
 23
218.8873746862304
 33
0.0
  0
SOLID
  5
879E
  8
0
 62
     7
 10
1849.980777594048
 20
223.8873746862304
 30
0.0
 11
1849.980777594048
 21
213.88737468623029
 31
0.0
 12
1819.980777594048
 22
218.8873746862304
 32
0.0
 13
1819.980777594048
 23
218.8873746862304
 33
0.0
  0
LINE
  5
8942
  8
0
 10
4263.4999999999991
 20
5358.5923387120456
 30
0.0
 11
-449.57555622834229
 21
5358.5923387120474
 31
0.0
  0
TEXT
  5
8947
  8
0
 62
     7
 10
-246.4893812056319
 20
4283.4429842323043
 30
0.0
 40
30.0
  1
795
 50
90.0
  0
TEXT
  5
8949
  8
0
 62
     7
 10
1709.980777594048
 20
203.8873746862304
 30
0.0
 40
30.0
  1
186
  0
TEXT
  5
894A
  8
0
 62
     7
 10
1712.5884901159709
 20
881.01270876561455
 30
0.0
 40
30.0
  1
1328 O/A
 50
90.0
  0
TEXT
  5
894B
  8
0
 62
     7
 10
2861.4442177107098
 20
203.82130456600541
 30
0.0
 40
30.0
  1
1858 CTRS
  0
TEXT
  5
894C
  8
0
 62
     7
 10
2930.9442177107121
 20
95.372615008420581
 30
0.0
 40
30.0
  1
2233
  0
LINE
  5
8AE3
  8
0
 10
3996.3501050592649
 20
4666.277043970199
 30
0.0
 11
3996.3501050592649
 21
4611.2770439702053
 31
0.0
  0
TEXT
  5
8BB3
  8
0
 62
     7
 10
1626.826871019412
 20
4185.3093872571499
 30
0.0
 40
30.0
  1
CLEARANCE
 50
90.0
  7
TITLE3
  0
TEXT
  5
8BB4
  8
0
 62
     7
 10
1678.255442447984
 20
4220.6689105664927
 30
0.0
 40
30.0
  1
500 min
 50
90.0
  7
TITLE3
  0
LINE
  5
8BB5
  8
0
  6
PHANTOM2
 62
     7
 10
1701.835604225962
 20
4703.8416874558479
 30
0.0
 11
1142.882292879372
 21
4703.8416874558461
 31
0.0
  0
LINE
  5
8BB7
  8
0
  6
PHANTOM2
 62
     7
 10
1701.835604225962
 20
3923.8416874558479
 30
0.0
 11
1142.882292879372
 21
3923.8416874558479
 31
0.0
  0
LINE
  5
8BB8
  8
0
  6
PHANTOM2
 62
     7
 10
1701.835604225962
 20
4703.8416874558461
 30
0.0
 11
1701.835604225962
 21
3923.8416874558479
 31
0.0
  0
LINE
  5
8BCA
  8
0
 10
-106.1677071206268
 20
4726.0416874558459
 30
0.0
 11
-93.117707120625596
 21
4699.0902914543612
 31
0.0
  0
LINE
  5
8BCC
  8
0
 62
     7
 10
-126.1177071206279
 20
3901.0416874558482
 30
0.0
 11
-106.1677071206268
 21
3901.0416874558482
 31
0.0
  0
LINE
  5
8BCD
  8
0
 10
-106.1677071206268
 20
3901.0416874558482
 30
0.0
 11
-93.117707120625596
 21
3927.9930834573329
 31
0.0
  0
LINE
  5
8BCF
  8
0
 62
     7
 10
-126.1177071206279
 20
4711.041687455845
 30
0.0
 11
-106.1677071206268
 21
4711.041687455845
 31
0.0
  0
LINE
  5
8BD7
  8
0
 62
     7
 10
-146.1177071206279
 20
3901.0416874558482
 30
0.0
 11
-380.90534207450821
 21
3901.0416874558482
 31
0.0
  0
LINE
  5
8BD8
  8
0
 62
     7
 10
-146.1177071206279
 20
4726.0416874558459
 30
0.0
 11
-380.90534207450798
 21
4726.0416874558459
 31
0.0
  0
LINE
  5
8BD9
  8
0
 62
     7
 10
-360.90534207450821
 20
3931.0416874558482
 30
0.0
 11
-360.90534207450821
 21
4286.9453521360438
 31
0.0
  0
LINE
  5
8BDA
  8
0
 62
     7
 10
-360.90534207450821
 20
4696.0416874558459
 30
0.0
 11
-360.90534207450821
 21
4409.0408774324133
 31
0.0
  0
SOLID
  5
8BDB
  8
0
 62
     7
 10
-365.90534207450821
 20
3931.0416874558482
 30
0.0
 11
-355.90534207450821
 21
3931.0416874558482
 31
0.0
 12
-360.90534207450821
 22
3901.0416874558482
 32
0.0
 13
-360.90534207450821
 23
3901.0416874558482
 33
0.0
  0
SOLID
  5
8BDC
  8
0
 62
     7
 10
-365.9053420745081
 20
4696.0416874558459
 30
0.0
 11
-355.9053420745081
 21
4696.0416874558459
 31
0.0
 12
-360.90534207450821
 22
4726.0416874558459
 32
0.0
 13
-360.90534207450821
 23
4726.0416874558459
 33
0.0
  0
LINE
  5
8D86
  8
0
 62
     7
 10
2893.980777594049
 20
374.98709778756159
 30
0.0
 11
2977.980777594048
 21
374.98709778756159
 31
0.0
  0
LINE
  5
8D87
  8
0
 62
     7
 10
2893.980777594049
 20
374.98709778756159
 30
0.0
 11
2868.480777594049
 21
407.98709778756159
 31
0.0
  0
LINE
  5
8D88
  8
0
 62
     7
 10
2977.980777594048
 20
374.98709778756159
 30
0.0
 11
3003.480777594049
 21
407.98709778756159
 31
0.0
  0
LINE
  5
8D89
  8
0
 62
     7
 10
2935.980777594048
 20
364.98709778756171
 30
0.0
 11
2935.980777594049
 21
384.98709778756171
 31
0.0
  0
LINE
  5
8D8A
  8
0
 62
     7
 10
2006.980777594048
 20
354.98709778756171
 30
0.0
 11
2006.980777594048
 21
285.56696219673228
 31
0.0
  0
LINE
  5
8D8B
  8
0
 62
     7
 10
2935.980777594048
 20
354.98709778756171
 30
0.0
 11
2935.980777594048
 21
285.56696219673228
 31
0.0
  0
LINE
  5
8D8C
  8
0
 62
     7
 10
2036.980777594049
 20
305.56696219673228
 30
0.0
 11
2316.8112600645081
 21
305.56696219673228
 31
0.0
  0
LINE
  5
8D8D
  8
0
 62
     7
 10
2905.980777594049
 20
305.56696219673228
 30
0.0
 11
2436.9248383352779
 21
305.56696219673228
 31
0.0
  0
SOLID
  5
8D8E
  8
0
 62
     7
 10
2036.980777594049
 20
310.56696219673228
 30
0.0
 11
2036.980777594049
 21
300.56696219673228
 31
0.0
 12
2006.980777594048
 22
305.56696219673228
 32
0.0
 13
2006.980777594048
 23
305.56696219673228
 33
0.0
  0
SOLID
  5
8D8F
  8
0
 62
     7
 10
2905.980777594049
 20
310.56696219673228
 30
0.0
 11
2905.980777594049
 21
300.56696219673228
 31
0.0
 12
2935.980777594048
 22
305.56696219673228
 32
0.0
 13
2935.980777594048
 23
305.56696219673228
 33
0.0
  0
LINE
  5
8D91
  8
0
 62
     7
 10
2935.980777594048
 20
354.98709778756171
 30
0.0
 11
2935.980777594048
 21
285.56696219673228
 31
0.0
  0
LINE
  5
8D92
  8
0
 62
     7
 10
3864.9807775940449
 20
354.98709778756171
 30
0.0
 11
3864.9807775940449
 21
285.56696219673228
 31
0.0
  0
LINE
  5
8D93
  8
0
 62
     7
 10
2965.980777594049
 20
305.56696219673228
 30
0.0
 11
3337.7766014666172
 21
305.56696219673228
 31
0.0
  0
LINE
  5
8D94
  8
0
 62
     7
 10
3834.9807775940458
 20
305.56696219673228
 30
0.0
 11
3477.1536516470442
 21
305.56696219673228
 31
0.0
  0
SOLID
  5
8D95
  8
0
 62
     7
 10
2965.980777594049
 20
310.56696219673228
 30
0.0
 11
2965.980777594049
 21
300.56696219673228
 31
0.0
 12
2935.980777594048
 22
305.56696219673228
 32
0.0
 13
2935.980777594048
 23
305.56696219673228
 33
0.0
  0
SOLID
  5
8D96
  8
0
 62
     7
 10
3834.9807775940458
 20
310.56696219673228
 30
0.0
 11
3834.9807775940458
 21
300.56696219673228
 31
0.0
 12
3864.9807775940449
 22
305.56696219673228
 32
0.0
 13
3864.9807775940449
 23
305.56696219673228
 33
0.0
  0
LINE
  5
8D98
  8
0
 62
     7
 10
1799.9807775940469
 20
3923.8416874558479
 30
0.0
 11
1745.9713769057739
 21
3923.8416874558479
 31
0.0
  0
LINE
  5
8D99
  8
0
 62
     7
 10
1799.9807775940469
 20
4703.8416874558479
 30
0.0
 11
1747.8444884187261
 21
4703.8416874558479
 31
0.0
  0
LINE
  5
8D9A
  8
0
 62
     7
 10
1760.234978999958
 20
3953.841687455847
 30
0.0
 11
1760.234978999958
 21
4204.244717408541
 31
0.0
  0
LINE
  5
8D9B
  8
0
 62
     7
 10
1760.23497899996
 20
4673.8416874558498
 30
0.0
 11
1760.234978999958
 21
4312.1054957348097
 31
0.0
  0
SOLID
  5
8D9C
  8
0
 62
     7
 10
1755.2349789999589
 20
3953.841687455847
 30
0.0
 11
1765.23497899996
 21
3953.841687455847
 31
0.0
 12
1760.234978999958
 22
3923.8416874558479
 32
0.0
 13
1760.234978999958
 23
3923.8416874558479
 33
0.0
  0
SOLID
  5
8D9D
  8
0
 62
     7
 10
1755.23497899996
 20
4673.8416874558498
 30
0.0
 11
1765.23497899996
 21
4673.8416874558498
 31
0.0
 12
1760.23497899996
 22
4703.8416874558479
 32
0.0
 13
1760.23497899996
 23
4703.8416874558479
 33
0.0
  0
CIRCLE
  5
8DBC
  8
0
 10
3627.9807775940471
 20
4275.841687455847
 30
0.0
 40
325.0
  0
CIRCLE
  5
8DBE
  8
0
 10
2937.9807775940471
 20
4275.841687455847
 30
0.0
 40
325.0
  0
CIRCLE
  5
8DBF
  8
0
 10
2247.9807775940471
 20
4275.841687455847
 30
0.0
 40
325.0
  0
LINE
  5
8DC0
  8
0
 62
     7
 10
1201.882292879372
 20
3963.8416874558502
 30
0.0
 11
1201.882292879372
 21
3798.8842996582089
 31
0.0
  0
LINE
  5
8DC1
  8
0
 62
     7
 10
-126.1177071206279
 20
3963.8416874558502
 30
0.0
 11
-126.1177071206279
 21
3798.8842996582089
 31
0.0
  0
LINE
  5
8DC2
  8
0
 62
     7
 10
1171.882292879372
 20
3818.8842996582098
 30
0.0
 11
544.88229287936986
 21
3818.884299658208
 31
0.0
  0
LINE
  5
8DC3
  8
0
 62
     7
 10
-96.117707120627884
 20
3818.884299658208
 30
0.0
 11
299.88229287937008
 21
3818.884299658208
 31
0.0
  0
SOLID
  5
8DC4
  8
0
 62
     7
 10
1171.882292879372
 20
3823.8842996582089
 30
0.0
 11
1171.882292879372
 21
3813.8842996582089
 31
0.0
 12
1201.882292879372
 22
3818.884299658208
 32
0.0
 13
1201.882292879372
 23
3818.884299658208
 33
0.0
  0
SOLID
  5
8DC5
  8
0
 62
     7
 10
-96.117707120627884
 20
3823.8842996582089
 30
0.0
 11
-96.117707120627884
 21
3813.8842996582089
 31
0.0
 12
-126.1177071206279
 22
3818.884299658208
 32
0.0
 13
-126.1177071206279
 23
3818.884299658208
 33
0.0
  0
TEXT
  5
8DD0
  8
0
 62
     7
 10
-344.5903093872069
 20
4305.475472585138
 30
0.0
 40
30.0
  1
825
 50
90.0
  0
LINE
  5
8DD2
  8
0
 62
     7
 10
2976.4307775940451
 20
3909.8416874558479
 30
0.0
 11
2976.4307775940451
 21
3923.8416874558511
 31
0.0
  0
LINE
  5
8DD3
  8
0
 62
     7
 10
2896.530777594046
 20
3909.8416874558479
 30
0.0
 11
2896.530777594046
 21
3923.8416874558479
 31
0.0
  0
LINE
  5
8DD4
  8
0
 62
     7
 10
2896.530777594046
 20
3909.8416874558479
 30
0.0
 11
2976.4307775940451
 21
3909.8416874558479
 31
0.0
  0
LINE
  5
8DD6
  8
0
 62
     7
 10
2050.9307775940488
 20
4717.841687455847
 30
0.0
 11
2050.9307775940488
 21
4703.8416874558461
 31
0.0
  0
LINE
  5
8DD7
  8
0
 62
     7
 10
1971.0307775940501
 20
4717.841687455847
 30
0.0
 11
1971.0307775940501
 21
4703.8416874558479
 31
0.0
  0
LINE
  5
8DD8
  8
0
 62
     7
 10
1971.0307775940501
 20
4717.841687455847
 30
0.0
 11
2050.9307775940488
 21
4717.841687455847
 31
0.0
  0
LINE
  5
8DD9
  8
0
 62
     7
 10
3822.030777594045
 20
4717.841687455847
 30
0.0
 11
3822.030777594045
 21
4703.8416874558461
 31
0.0
  0
LINE
  5
8DDA
  8
0
 62
     7
 10
3901.9307775940451
 20
4717.841687455847
 30
0.0
 11
3901.9307775940451
 21
4703.8416874558479
 31
0.0
  0
LINE
  5
8DDB
  8
0
 62
     7
 10
3901.9307775940451
 20
4717.841687455847
 30
0.0
 11
3822.030777594045
 21
4717.841687455847
 31
0.0
  0
LINE
  5
8DDC
  8
0
 62
     7
 10
2976.4307775940451
 20
4717.841687455847
 30
0.0
 11
2976.4307775940451
 21
4703.8416874558461
 31
0.0
  0
LINE
  5
8DDD
  8
0
 62
     7
 10
2896.530777594046
 20
4717.841687455847
 30
0.0
 11
2896.530777594046
 21
4703.8416874558479
 31
0.0
  0
LINE
  5
8DDE
  8
0
 62
     7
 10
2896.530777594046
 20
4717.841687455847
 30
0.0
 11
2976.4307775940451
 21
4717.841687455847
 31
0.0
  0
TEXT
  5
8EAA
  8
0
 62
     7
 10
3356.030005134051
 20
289.22240038846797
 30
0.0
 40
30.0
  1
929
  0
TEXT
  5
8EAB
  8
0
 62
     7
 10
2340.51502019385
 20
291.1303520999486
 30
0.0
 40
30.0
  1
929
  0
TEXT
  5
8EAC
  8
0
 62
     7
 10
1775.4263380435759
 20
4220.6700623694296
 30
0.0
 40
30.0
  1
780
 50
90.0
  7
TITLE3
  0
LINE
  5
9176
  8
0
 10
1952.480364268941
 20
1593.987097787561
 30
0.0
 11
2002.480364268941
 21
1593.987097787561
 31
0.0
  0
LINE
  5
9178
  8
0
 10
1819.980777594048
 20
1593.987097787561
 30
0.0
 11
2247.980777594048
 21
1593.987097787561
 31
0.0
  0
LINE
  5
92F3
  8
0
 10
1092.882292879372
 20
4600.8416874558461
 30
0.0
 11
1092.882292879372
 21
4573.841687455847
 31
0.0
  0
LINE
  5
92F5
  8
0
 10
1201.882292879372
 20
4573.841687455847
 30
0.0
 11
1201.882292879372
 21
3977.8416874558479
 31
0.0
  0
LINE
  5
92F6
  8
0
 10
1092.882292879372
 20
3950.841687455847
 30
0.0
 11
1092.882292879372
 21
3977.8416874558479
 31
0.0
  0
LINE
  5
92F8
  8
0
 10
1092.882292879372
 20
4600.8416874558461
 30
0.0
 11
1201.882292879372
 21
4573.841687455847
 31
0.0
  0
LINE
  5
92F9
  8
0
 10
1092.882292879372
 20
3950.841687455847
 30
0.0
 11
1201.882292879372
 21
3977.8416874558479
 31
0.0
  0
TEXT
  5
9308
  8
0
 62
     7
 10
323.15494493258763
 20
3802.8049832243328
 30
0.0
 40
30.0
  1
1328 O/A
  0
LINE
  5
9309
  8
0
 10
1949.9807775940469
 20
1702.9870977875601
 30
0.0
 11
2545.980777594048
 21
1702.9870977875601
 31
0.0
  0
LINE
  5
930A
  8
0
 10
1972.9807775940469
 20
1593.987097787561
 30
0.0
 11
1999.980777594046
 21
1593.987097787561
 31
0.0
  0
LINE
  5
930C
  8
0
 10
1922.9807775940469
 20
1593.987097787561
 30
0.0
 11
1949.9807775940469
 21
1593.987097787561
 31
0.0
  0
LINE
  5
930E
  8
0
 10
2572.9807775940471
 20
1593.987097787561
 30
0.0
 11
2545.9807775940471
 21
1593.987097787561
 31
0.0
  0
LINE
  5
9310
  8
0
 10
2612.9807775940471
 20
1593.9870977875601
 30
0.0
 11
2639.9807775940471
 21
1593.987097787561
 31
0.0
  0
LINE
  5
9312
  8
0
 10
3262.9807775940471
 20
1593.9870977875601
 30
0.0
 11
3235.9807775940471
 21
1593.987097787561
 31
0.0
  0
LINE
  5
9314
  8
0
 10
3302.9807775940471
 20
1593.987097787561
 30
0.0
 11
3329.9807775940471
 21
1593.987097787561
 31
0.0
  0
LINE
  5
9316
  8
0
 10
3952.9807775940471
 20
1593.987097787561
 30
0.0
 11
3925.9807775940471
 21
1593.987097787561
 31
0.0
  0
LINE
  5
9318
  8
0
 10
3925.9807775940471
 20
1702.987097787561
 30
0.0
 11
3952.9807775940471
 21
1593.987097787561
 31
0.0
  0
LINE
  5
9319
  8
0
 10
3329.9807775940471
 20
1702.987097787561
 30
0.0
 11
3302.9807775940471
 21
1593.987097787561
 31
0.0
  0
LINE
  5
931A
  8
0
 10
3262.9807775940471
 20
1593.987097787561
 30
0.0
 11
3235.9807775940471
 21
1702.987097787561
 31
0.0
  0
LINE
  5
931B
  8
0
 10
2639.9807775940471
 20
1702.9870977875601
 30
0.0
 11
2612.9807775940471
 21
1593.987097787561
 31
0.0
  0
LINE
  5
931C
  8
0
 10
2572.9807775940471
 20
1593.987097787561
 30
0.0
 11
2545.9807775940471
 21
1702.9870977875601
 31
0.0
  0
LINE
  5
931D
  8
0
 10
1922.9807775940469
 20
1593.987097787561
 30
0.0
 11
1949.9807775940469
 21
1702.9870977875601
 31
0.0
  0
LINE
  5
931E
  8
0
 10
2639.9807775940471
 20
1702.9870977875601
 30
0.0
 11
3235.9807775940471
 21
1702.987097787561
 31
0.0
  0
LINE
  5
9321
  8
0
 10
3329.9807775940471
 20
1702.9870977875601
 30
0.0
 11
3925.9807775940471
 21
1702.987097787561
 31
0.0
  0
ENDSEC
  0
EOF
