  0
SECTION
  2
HEADER
  9
$ACADVER
  1
AC1009
  9
$INSBASE
 10
0.0
 20
0.0
 30
0.0
  9
$EXTMIN
 10
-741.90776895235103
 20
-0.7259840383339906
 30
-0.0000000000000058
  9
$EXTMAX
 10
5564.5484486229871
 20
6234.2277697911177
 30
0.0000000000000104
  9
$LIMMIN
 10
0.0
 20
0.0
  9
$LIMMAX
 10
7780.0
 20
5320.0
  9
$ORTHOMODE
 70
     1
  9
$REGENMODE
 70
     1
  9
$FILLMODE
 70
     1
  9
$QTEXTMODE
 70
     0
  9
$MIRRTEXT
 70
     0
  9
$DRAGMODE
 70
     2
  9
$LTSCALE
 40
180.0
  9
$OSMODE
 70
  3071
  9
$ATTMODE
 70
     1
  9
$TEXTSIZE
 40
60.0
  9
$TRACEWID
 40
0.05
  9
$TEXTSTYLE
  7
TITLE3
  9
$CLAYER
  8
TEXT
  9
$CELTYPE
  6
BYLAYER
  9
$CECOLOR
 62
   256
  9
$DIMSCALE
 40
1.0
  9
$DIMASZ
 40
0.12
  9
$DIMEXO
 40
0.05
  9
$DIMDLI
 40
0.5
  9
$DIMRND
 40
0.0
  9
$DIMDLE
 40
0.0
  9
$DIMEXE
 40
0.1
  9
$DIMTP
 40
0.1
  9
$DIMTM
 40
0.1
  9
$DIMTXT
 40
0.12
  9
$DIMCEN
 40
0.0
  9
$DIMTSZ
 40
0.0
  9
$DIMTOL
 70
     0
  9
$DIMLIM
 70
     0
  9
$DIMTIH
 70
     1
  9
$DIMTOH
 70
     1
  9
$DIMSE1
 70
     0
  9
$DIMSE2
 70
     0
  9
$DIMTAD
 70
     0
  9
$DIMZIN
 70
     7
  9
$DIMBLK
  1

  9
$DIMASO
 70
     0
  9
$DIMSHO
 70
     0
  9
$DIMPOST
  1

  9
$DIMAPOST
  1
mm
  9
$DIMALT
 70
     0
  9
$DIMALTD
 70
     2
  9
$DIMALTF
 40
25.399999999999999
  9
$DIMLFAC
 40
1.0
  9
$DIMTOFL
 70
     0
  9
$DIMTVP
 40
0.0
  9
$DIMTIX
 70
     0
  9
$DIMSOXD
 70
     0
  9
$DIMSAH
 70
     0
  9
$DIMBLK1
  1

  9
$DIMBLK2
  1

  9
$DIMSTYLE
  2
AM_ANSI
  9
$DIMCLRD
 70
   256
  9
$DIMCLRE
 70
   256
  9
$DIMCLRT
 70
     2
  9
$DIMTFAC
 40
0.71
  9
$DIMGAP
 40
0.06
  9
$LUNITS
 70
     2
  9
$LUPREC
 70
     2
  9
$SKETCHINC
 40
0.1
  9
$FILLETRAD
 40
0.0
  9
$AUNITS
 70
     0
  9
$AUPREC
 70
     2
  9
$MENU
  1
\acad12\support\cnc
  9
$ELEVATION
 40
0.0
  9
$PELEVATION
 40
0.0
  9
$THICKNESS
 40
0.0
  9
$LIMCHECK
 70
     0
  9
$BLIPMODE
 70
     0
  9
$CHAMFERA
 40
0.0
  9
$CHAMFERB
 40
0.0
  9
$SKPOLY
 70
     0
  9
$TDCREATE
 40
2450982.5011332179
  9
$TDUPDATE
 40
2454755.5329308799
  9
$TDINDWG
 40
0.43387
  9
$TDUSRTIMER
 40
0.4338691204
  9
$USRTIMER
 70
     1
  9
$ANGBASE
 50
0.0
  9
$ANGDIR
 70
     0
  9
$PDMODE
 70
     2
  9
$PDSIZE
 40
1.0
  9
$PLINEWID
 40
0.0
  9
$COORDS
 70
     1
  9
$SPLFRAME
 70
     0
  9
$SPLINETYPE
 70
     6
  9
$SPLINESEGS
 70
     8
  9
$ATTDIA
 70
     1
  9
$ATTREQ
 70
     1
  9
$HANDLING
 70
     1
  9
$HANDSEED
  5
19B1
  9
$SURFTAB1
 70
     6
  9
$SURFTAB2
 70
     6
  9
$SURFTYPE
 70
     6
  9
$SURFU
 70
     6
  9
$SURFV
 70
     6
  9
$UCSNAME
  2

  9
$UCSORG
 10
0.0
 20
0.0
 30
0.0
  9
$UCSXDIR
 10
1.0
 20
0.0
 30
0.0
  9
$UCSYDIR
 10
0.0
 20
1.0
 30
0.0
  9
$PUCSNAME
  2

  9
$PUCSORG
 10
0.0
 20
0.0
 30
0.0
  9
$PUCSXDIR
 10
1.0
 20
0.0
 30
0.0
  9
$PUCSYDIR
 10
0.0
 20
1.0
 30
0.0
  9
$USERI1
 70
     0
  9
$USERI2
 70
     0
  9
$USERI3
 70
     0
  9
$USERI4
 70
     0
  9
$USERI5
 70
     0
  9
$USERR1
 40
0.0
  9
$USERR2
 40
0.0
  9
$USERR3
 40
0.0
  9
$USERR4
 40
0.0
  9
$USERR5
 40
0.0
  9
$WORLDVIEW
 70
     1
  9
$SHADEDGE
 70
     3
  9
$SHADEDIF
 70
    70
  9
$TILEMODE
 70
     1
  9
$MAXACTVP
 70
    16
  9
$PLIMCHECK
 70
     0
  9
$PEXTMIN
 10
1.0000000000000000E+020
 20
1.0000000000000000E+020
 30
1.0000000000000000E+020
  9
$PEXTMAX
 10
-1.0000000000000000E+020
 20
-1.0000000000000000E+020
 30
-1.0000000000000000E+020
  9
$PLIMMIN
 10
0.0
 20
0.0
  9
$PLIMMAX
 10
12.0
 20
9.0
  9
$UNITMODE
 70
     0
  9
$VISRETAIN
 70
     0
  9
$PLINEGEN
 70
     0
  9
$PSLTSCALE
 70
     0
  0
ENDSEC
  0
SECTION
  2
TABLES
  0
TABLE
  2
VPORT
 70
     1
  0
VPORT
  2
*ACTIVE
 70
     0
 10
0.0
 20
0.0
 11
1.0
 21
1.0
 12
2411.3203398353189
 22
3116.7508928763918
 13
0.0
 23
0.0
 14
50.0
 24
50.0
 15
100.0
 25
100.0
 16
0.0
 26
0.0
 36
1.0
 17
0.0
 27
0.0
 37
0.0
 40
6274.5826971800634
 41
1.6871686108165429
 42
50.0
 43
0.0
 44
0.0
 50
0.0
 51
0.0
 71
     0
 72
   100
 73
     1
 74
     0
 75
     0
 76
     0
 77
     0
 78
     1
  0
ENDTAB
  0
TABLE
  2
LTYPE
 70
    17
  0
LTYPE
  2
CONTINUOUS
 70
     0
  3
Solid line
 72
    65
 73
     0
 40
0.0
  0
LTYPE
  2
PHANTOM
 70
     0
  3
Phantom ______  __  __  ______  __  __  ______
 72
    65
 73
     6
 40
2.5
 49
1.25
 49
-0.25
 49
0.25
 49
-0.25
 49
0.25
 49
-0.25
  0
LTYPE
  2
HIDDEN
 70
     0
  3
Hidden __ __ __ __ __ __ __ __ __ __ __ __ __ _
 72
    65
 73
     2
 40
0.375
 49
0.25
 49
-0.125
  0
LTYPE
  2
PHANTOM2
 70
     0
  3
Phantom (.5x) ___ _ _ ___ _ _ ___ _ _ ___ _ _
 72
    65
 73
     6
 40
1.25
 49
0.625
 49
-0.125
 49
0.125
 49
-0.125
 49
0.125
 49
-0.125
  0
LTYPE
  2
CENTER
 70
     0
  3
Center ____ _ ____ _ ____ _ ____ _ ____ _ ____
 72
    65
 73
     4
 40
2.0
 49
1.25
 49
-0.25
 49
0.25
 49
-0.25
  0
LTYPE
  2
AM_ISO02W050
 70
     0
  3
__ __ __ __ __ __ __ __ __ __ __ __ __ __ __
 72
    65
 73
     2
 40
7.5
 49
6.0
 49
-1.5
  0
LTYPE
  2
AM_ISO08W050
 70
     0
  3
____ . ____ . ____ . ____ . ____ . ____ . ____
 72
    65
 73
     4
 40
18.0
 49
12.0
 49
-1.5
 49
3.0
 49
-1.5
  0
LTYPE
  2
AM_ISO09W050
 70
     0
  3
_____ . . _____ . . _____ . . ____ .. ____
 72
    65
 73
     6
 40
22.5
 49
12.0
 49
-1.5
 49
3.0
 49
-1.5
 49
3.0
 49
-1.5
  0
LTYPE
  2
AMCONSTR
 70
     0
  3
_______________________
 72
    65
 73
     2
 40
9999.0
 49
9999.0
 49
0.0
  0
LTYPE
  2
AM_ISO08W050X2
 70
     0
  3
__ . __ . __ . __ . __ . __
 72
    65
 73
     4
 40
9.0
 49
6.0
 49
-0.75
 49
1.5
 49
-0.75
  0
LTYPE
  2
AM_ISO02W050X2
 70
     0
  3
 _ _ _ _ _ _ _ _ _ _ _ _
 72
    65
 73
     2
 40
3.75
 49
3.0
 49
-0.75
  0
LTYPE
  2
AMZIGZAG
 70
     0
  3
/\/-/\/-/\/-/\/-/\/-/\/
 72
    65
 73
     2
 40
11.0001
 49
0.0001
 49
-11.0
  0
LTYPE
  2
CENTER2
 70
     0
  3
Center (.5x) ___ _ ___ _ ___ _ ___ _ ___ _ ___
 72
    65
 73
     4
 40
1.125
 49
0.75
 49
-0.125
 49
0.125
 49
-0.125
  0
LTYPE
  2
HIDDEN2
 70
     0
  3
Hidden (.5x) _ _ _ _ _ _ _ _ _ _ _ _ _ _ _ _ _
 72
    65
 73
     2
 40
0.1875
 49
0.125
 49
-0.0625
  0
LTYPE
  2
AMZIGZAG2
 70
     0
  3
/\/-/\/-/\/-/\/-/\/-/\/
 72
    65
 73
     2
 40
0.4401
 49
0.0001
 49
-0.4400000000000003
  0
LTYPE
  2
ACANSTGB
 70
     0
  3
__ . . __ . .
 72
    65
 73
     6
 40
0.35433070866
 49
0.15748031496
 49
-0.03937007874
 49
0.03937007874
 49
-0.03937007874
 49
0.03937007874
 49
-0.03937007874
  0
LTYPE
  2
ACANSTGL
 70
     0
  3
_ _ _ _ _
 72
    65
 73
     2
 40
0.11811023622
 49
0.07874015748
 49
-0.03937007874
  0
ENDTAB
  0
TABLE
  2
LAYER
 70
     6
  0
LAYER
  2
0
 70
     0
 62
     7
  6
CONTINUOUS
  0
LAYER
  2
TEXT
 70
     0
 62
   100
  6
CONTINUOUS
  0
LAYER
  2
OUTLINE
 70
     0
 62
     7
  6
CONTINUOUS
  0
LAYER
  2
DIM
 70
     0
 62
     7
  6
CONTINUOUS
  0
LAYER
  2
CLEAR
 70
     0
 62
     1
  6
PHANTOM
  0
LAYER
  2
OVERLAY-A3
 70
     0
 62
     7
  6
CONTINUOUS
  0
ENDTAB
  0
TABLE
  2
STYLE
 70
     8
  0
STYLE
  2
STANDARD
 70
     0
 40
0.0
 41
1.0
 50
0.0
 71
     0
 42
0.2
  3
txt
  4

  0
STYLE
  2
ANNOTATIVE
 70
     0
 40
0.0
 41
1.0
 50
0.0
 71
     0
 42
0.2
  3
txt
  4

  0
STYLE
  2
TITLE3
 70
     0
 40
60.0
 41
1.0
 50
0.0
 71
     0
 42
60.0
  3
SIMPLEX
  4

  0
STYLE
  2
TITLE5
 70
     0
 40
100.0
 41
1.0
 50
0.0
 71
     0
 42
100.0
  3
SIMPLEX
  4

  0
STYLE
  2
SIMPLEX
 70
     0
 40
60.0
 41
1.0
 50
0.0
 71
     0
 42
60.0
  3
simplex
  4

  0
STYLE
  2

 70
     1
 40
0.0
 41
1.0
 50
0.0
 71
     0
 42
60.0
  3
genltshp.shx
  4

  0
STYLE
  2
ACANSTS
 70
     0
 40
1.0
 41
1.0
 50
0.0
 71
     0
 42
60.0
  3
romans.shx
  4

  0
STYLE
  2
ACANSGDT
 70
     0
 40
0.0
 41
1.0
 50
0.0
 71
     0
 42
60.0
  3
amgdt.shx
  4

  0
ENDTAB
  0
TABLE
  2
VIEW
 70
     0
  0
ENDTAB
  0
TABLE
  2
UCS
 70
     0
  0
ENDTAB
  0
TABLE
  2
APPID
 70
    11
  0
APPID
  2
ACAD
 70
     0
  0
APPID
  2
ACADANNOTATIVE
 70
     0
  0
APPID
  2
ACAD_MLEADERVER
 70
     0
  0
APPID
  2
MCAD_NO_VIS
 70
     0
  0
APPID
  2
ACAD_TEMP_GRAPHIC
 70
     0
  0
APPID
  2
AD_DRAW
 70
     0
  0
APPID
  2
ACATTRIBSERVICES
 70
     0
  0
APPID
  2
DESIGNERASSEMBLIES
 70
     0
  0
APPID
  2
ACADM_DIM_EDIT
 70
     0
  0
APPID
  2
AMDT_DM_ADJ
 70
     0
  0
APPID
  2
ACAD_EXEMPT_FROM_CAD_STANDARDS
 70
     0
  0
ENDTAB
  0
TABLE
  2
DIMSTYLE
 70
     8
  0
DIMSTYLE
  2
STANDARD
 70
     0
  3

  4

  5

  6

  7

 40
1.0
 41
0.18
 42
0.0625
 43
0.38
 44
0.18
 45
0.0
 46
0.0
 47
0.0
 48
0.0
140
0.18
141
0.09
142
0.0
143
25.399999999999999
144
1.0
145
0.0
146
1.0
147
0.09
 71
     0
 72
     0
 73
     1
 74
     1
 75
     0
 76
     0
 77
     0
 78
     0
170
     0
171
     2
172
     0
173
     0
174
     0
175
     0
176
     0
177
     0
178
     0
  0
DIMSTYLE
  2
ANNOTATIVE
 70
     0
  3

  4

  5

  6

  7

 40
1.0
 41
0.18
 42
0.0625
 43
0.38
 44
0.18
 45
0.0
 46
0.0
 47
0.0
 48
0.0
140
0.18
141
0.09
142
0.0
143
25.399999999999999
144
1.0
145
0.0
146
1.0
147
0.09
 71
     0
 72
     0
 73
     1
 74
     1
 75
     0
 76
     0
 77
     0
 78
     0
170
     0
171
     2
172
     0
173
     0
174
     0
175
     0
176
     0
177
     0
178
     0
  0
DIMSTYLE
  2
AM_ANSI
 70
     0
  3

  4
mm
  5

  6

  7

 40
1.0
 41
0.12
 42
0.05
 43
0.5
 44
0.1
 45
0.0
 46
0.0
 47
0.1
 48
0.1
140
0.12
141
0.0
142
0.0
143
25.399999999999999
144
1.0
145
0.0
146
0.71
147
0.06
 71
     0
 72
     0
 73
     1
 74
     1
 75
     0
 76
     0
 77
     0
 78
     7
170
     0
171
     2
172
     0
173
     0
174
     0
175
     0
176
   256
177
   256
178
     2
  0
DIMSTYLE
  2
AM_ANSI$3
 70
     0
  3

  4
mm
  5

  6

  7

 40
1.0
 41
0.12
 42
0.05
 43
0.5
 44
0.1
 45
0.0
 46
0.0
 47
0.1
 48
0.1
140
0.12
141
0.0
142
0.0
143
25.399999999999999
144
1.0
145
0.0
146
0.71
147
0.06
 71
     0
 72
     0
 73
     1
 74
     1
 75
     0
 76
     0
 77
     0
 78
     7
170
     0
171
     2
172
     0
173
     0
174
     0
175
     0
176
   256
177
   256
178
     2
  0
DIMSTYLE
  2
AM_ANSI$4
 70
     0
  3

  4
mm
  5

  6

  7

 40
1.0
 41
0.12
 42
0.05
 43
0.5
 44
0.1
 45
0.0
 46
0.0
 47
0.1
 48
0.1
140
0.12
141
0.0
142
0.0
143
25.399999999999999
144
1.0
145
0.0
146
0.71
147
0.06
 71
     0
 72
     0
 73
     1
 74
     1
 75
     0
 76
     0
 77
     0
 78
     7
170
     0
171
     2
172
     0
173
     0
174
     0
175
     0
176
   256
177
   256
178
     2
  0
DIMSTYLE
  2
AM_ANSI$7
 70
     0
  3

  4
mm
  5

  6

  7

 40
1.0
 41
0.12
 42
0.05
 43
0.5
 44
0.1
 45
0.0
 46
0.0
 47
0.1
 48
0.1
140
0.12
141
0.0
142
0.0
143
25.399999999999999
144
1.0
145
0.0
146
0.71
147
0.06
 71
     0
 72
     0
 73
     1
 74
     1
 75
     0
 76
     0
 77
     0
 78
     7
170
     0
171
     2
172
     0
173
     0
174
     0
175
     0
176
   256
177
   256
178
     2
  0
DIMSTYLE
  2
AM_ANSI$SF
 70
     0
  3

  4
mm
  5

  6

  7

 40
1.0
 41
0.12
 42
0.05
 43
0.5
 44
0.1
 45
0.0
 46
0.0
 47
0.1
 48
0.1
140
0.12
141
0.0
142
0.0
143
25.399999999999999
144
1.0
145
0.0
146
0.71
147
0.06
 71
     0
 72
     0
 73
     1
 74
     1
 75
     1
 76
     1
 77
     0
 78
     7
170
     0
171
     2
172
     0
173
     0
174
     0
175
     0
176
   256
177
   256
178
     2
  0
DIMSTYLE
  2
AM_ANSI$SH
 70
     0
  3

  4
mm
  5

  6

  7

 40
1.0
 41
0.12
 42
0.05
 43
0.5
 44
0.1
 45
0.0
 46
0.0
 47
0.1
 48
0.1
140
0.12
141
0.0
142
0.0
143
25.399999999999999
144
1.0
145
0.0
146
0.71
147
0.06
 71
     0
 72
     0
 73
     1
 74
     1
 75
     1
 76
     1
 77
     0
 78
     7
170
     0
171
     2
172
     0
173
     1
174
     0
175
     0
176
   256
177
   256
178
     2
  0
ENDTAB
  0
ENDSEC
  0
SECTION
  2
BLOCKS
  0
BLOCK
  8
0
  2
$MODEL_SPACE
 70
     0
 10
0.0
 20
0.0
 30
0.0
  3
$MODEL_SPACE
  1

  0
ENDBLK
  5
186E
  8
0
  0
BLOCK
 67
     1
  8
0
  2
$PAPER_SPACE
 70
     0
 10
0.0
 20
0.0
 30
0.0
  3
$PAPER_SPACE
  1

  0
ENDBLK
  5
186A
 67
     1
  8
0
  0
BLOCK
  8
0
  2
NEW_BLOCK
 70
     0
 10
0.0
 20
0.0
 30
0.0
  3
NEW_BLOCK
  1

  0
TEXT
  5
127C
  8
TEXT
 10
27.285946821803002
 20
25.27142175952417
 30
0.0
 40
40.0
  1
available on request
  7
TITLE3
  0
TEXT
  5
127D
  8
TEXT
 10
27.285946821803002
 20
93.842850330952714
 30
0.0
 40
40.0
  1
Certified dimensions
  7
TITLE3
  0
TEXT
  5
127E
  8
TEXT
 10
27.285946821803002
 20
162.4142789023812
 30
0.0
 40
40.0
  1
without notice or obligation.
  7
TITLE3
  0
TEXT
  5
127F
  8
TEXT
 10
27.285946821803002
 20
230.9857074738097
 30
0.0
 40
40.0
  1
specifications at any time
  7
TITLE3
  0
TEXT
  5
1280
  8
TEXT
 10
27.285946821803002
 20
299.55713604523839
 30
0.0
 40
40.0
  1
the right to change 
  7
TITLE3
  0
TEXT
  5
1281
  8
TEXT
 10
27.285946821803002
 20
436.69999318809511
 30
0.0
 40
40.0
  1
NOTE
  7
TITLE3
  0
TEXT
  5
1282
  8
TEXT
 10
27.285946821803002
 20
368.12856461666678
 30
0.0
 40
40.0
  1
The manufacturer reserves
  7
TITLE3
  0
ENDBLK
  5
1283
  8
0
  0
BLOCK
  8
0
  2
GENAXEH
 70
     0
 10
0.0
 20
0.0
 30
0.0
  3
GENAXEH
  1

  0
LINE
  5
1482
  8
0
 10
-1.0
 20
0.0
 30
0.0
 11
1.0
 21
0.0
 31
0.0
  0
ENDBLK
  5
1484
  8
0
  0
ENDSEC
  0
SECTION
  2
ENTITIES
  0
TEXT
  5
1284
  8
TEXT
 10
-236.96661552463971
 20
6041.2843787543397
 30
0.0
 40
85.0
  1
temperzone OSA 630
  7
TITLE5
 72
     1
 11
453.15243209440803
 21
6041.2843787543397
 31
0.0
  0
TEXT
  5
1285
  8
TEXT
 10
627.22855295335444
 20
5651.9457668027044
 30
0.0
 40
60.0
  1
OSA630
 41
1.720338983050848
  7
TITLE3
 72
     5
 11
1207.2285529533549
 21
5651.9457668027044
 31
0.0
  0
LINE
  5
1286
  8
OUTLINE
 10
-153.07812195416861
 20
1498.396537257393
 30
0.0
 11
1327.9218780458309
 21
1498.3965372573921
 31
0.0
  0
LINE
  5
1287
  8
OUTLINE
 10
1327.9218780458291
 20
452.39653725739282
 30
0.0
 11
-153.07812195416861
 21
452.39653725739481
 31
0.0
  0
LINE
  5
1288
  8
OUTLINE
 10
1327.9218780458309
 20
1498.3965372573921
 30
0.0
 11
1327.9218780458291
 21
452.39653725739282
 31
0.0
  0
LINE
  5
1289
  8
OUTLINE
 10
1328.4218780458309
 20
1466.196537257392
 30
0.0
 11
1327.2218780458311
 21
1466.196537257392
 31
0.0
  0
LINE
  5
128A
  8
OUTLINE
 10
-153.07812195416861
 20
1498.396537257393
 30
0.0
 11
-153.07812195416861
 21
452.39653725739481
 31
0.0
  0
LINE
  5
128B
  8
DIM
 10
4382.789162360501
 20
5786.0685708274586
 30
0.0
 11
3734.7086571367831
 21
5786.0685708274586
 31
0.0
  0
LINE
  5
128C
  8
DIM
 10
2748.394371422497
 20
5786.0685708274586
 30
0.0
 11
3323.280085708212
 21
5786.0685708274586
 31
0.0
  0
SOLID
  5
128D
  8
DIM
 10
4382.789162360501
 20
5796.0685708274586
 30
0.0
 11
4382.789162360501
 21
5776.0685708274577
 31
0.0
 12
4443.1943714224972
 22
5785.7217500182087
 32
0.0
 13
4443.1943714224972
 23
5785.7217500182087
 33
0.0
  0
SOLID
  5
128E
  8
DIM
 10
2748.394371422497
 20
5796.0685708274586
 30
0.0
 11
2748.394371422497
 21
5776.0685708274577
 31
0.0
 12
2688.394371422497
 22
5786.0685708274586
 32
0.0
 13
2688.394371422497
 23
5786.0685708274586
 33
0.0
  0
TEXT
  5
128F
  8
DIM
 10
3430.4229428510689
 20
5756.0685708274586
 30
0.0
 40
60.0
  1
1756
  7
TITLE3
 72
     1
 11
3528.9943714224969
 21
5786.0685708274586
 31
0.0
 73
     2
  0
LINE
  5
1290
  8
DIM
 10
2647.1943714224999
 20
4112.8600254815901
 30
0.0
 11
2444.4071030034629
 21
4112.8600254815901
 31
0.0
  0
LINE
  5
1291
  8
DIM
 10
2647.1943714224999
 20
5593.8600254815929
 30
0.0
 11
2444.4071030034629
 21
5593.8600254815929
 31
0.0
  0
LINE
  5
1292
  8
DIM
 10
2484.4071030034638
 20
4172.8600254815901
 30
0.0
 11
2484.4071030034638
 21
4631.1014766193566
 31
0.0
  0
LINE
  5
1293
  8
DIM
 10
2484.4071030034638
 20
5533.8600254815901
 30
0.0
 11
2484.4071030034638
 21
5053.9586194765043
 31
0.0
  0
SOLID
  5
1294
  8
DIM
 10
2494.4071030034638
 20
4172.8600254815901
 30
0.0
 11
2474.4071030034661
 21
4172.8600254815901
 31
0.0
 12
2484.4071030034638
 22
4112.8600254815901
 32
0.0
 13
2484.4071030034638
 23
4112.8600254815901
 33
0.0
  0
SOLID
  5
1295
  8
DIM
 10
2494.4071030034638
 20
5533.8600254815901
 30
0.0
 11
2474.4071030034661
 21
5533.8600254815901
 31
0.0
 12
2484.4071030034638
 22
5593.8600254815929
 32
0.0
 13
2484.4071030034638
 23
5593.8600254815929
 33
0.0
  0
TEXT
  5
1296
  8
DIM
 10
2514.4071030034638
 20
4755.3871909050758
 30
0.0
 40
60.0
  1
1481
 50
90.0
  7
TITLE3
 72
     1
 11
2484.4071030034638
 21
4842.5300480479327
 31
0.0
 73
     2
  0
LINE
  5
1297
  8
DIM
 10
2873.9442768825438
 20
402.39653725739572
 30
0.0
 11
2503.4741577826771
 21
402.39653725739572
 31
0.0
  0
LINE
  5
1298
  8
DIM
 10
2648.394371422497
 20
1498.396537257395
 30
0.0
 11
2503.4741577826771
 21
1498.396537257395
 31
0.0
  0
LINE
  5
1299
  8
DIM
 10
2543.4741577826771
 20
450.39653725739572
 30
0.0
 11
2543.4741577826771
 21
706.16796582882375
 31
0.0
  0
LINE
  5
129A
  8
DIM
 10
2543.4741577826771
 20
1438.3965372573939
 30
0.0
 11
2543.4741577826771
 21
1129.0251086859671
 31
0.0
  0
SOLID
  5
129B
  8
DIM
 10
2533.474157782678
 20
462.39653725739572
 30
0.0
 11
2553.4741577826771
 21
462.39653725739572
 31
0.0
 12
2543.4741577826771
 22
402.39653725739572
 32
0.0
 13
2543.4741577826771
 23
402.39653725739572
 33
0.0
  0
SOLID
  5
129C
  8
DIM
 10
2533.474157782678
 20
1438.3965372573939
 30
0.0
 11
2553.4741577826771
 21
1438.3965372573939
 31
0.0
 12
2543.4741577826771
 22
1498.396537257395
 32
0.0
 13
2543.4741577826771
 23
1498.396537257395
 33
0.0
  0
TEXT
  5
129D
  8
DIM
 10
2573.4741577826771
 20
819.02510868596676
 30
0.0
 40
60.0
  1
1096
 50
90.0
  7
TITLE3
 72
     4
 11
2543.4741577826771
 21
917.59653725739531
 31
0.0
  0
LINE
  5
129E
  8
DIM
 10
3439.079810624019
 20
1625.5919077556171
 30
0.0
 11
3401.0878311282549
 21
1625.5919077556171
 31
0.0
  0
LINE
  5
129F
  8
DIM
 10
3420.083820876137
 20
1697.7909976249721
 30
0.0
 11
3360.2464531703072
 21
1648.640658859176
 31
0.0
  0
LINE
  5
12A0
  8
DIM
 10
3360.2464531703072
 20
1648.640658859176
 30
0.0
 11
3401.0878311282549
 21
1648.640658859176
 31
0.0
  0
LINE
  5
12A1
  8
DIM
 10
3401.0878311282549
 20
1648.640658859176
 30
0.0
 11
3401.0878311282549
 21
1625.5919077556171
 31
0.0
  0
LINE
  5
12A2
  8
DIM
 10
3420.083820876137
 20
1697.7909976249721
 30
0.0
 11
3479.921188581965
 21
1648.640658859176
 31
0.0
  0
LINE
  5
12A3
  8
DIM
 10
3479.921188581965
 20
1648.640658859176
 30
0.0
 11
3439.079810624019
 21
1648.640658859176
 31
0.0
  0
LINE
  5
12A4
  8
DIM
 10
3439.079810624019
 20
1648.640658859176
 30
0.0
 11
3439.079810624019
 21
1625.5919077556171
 31
0.0
  0
TEXT
  5
12A5
  8
TEXT
 10
10519.19229952241
 20
34534.021163469079
 30
0.0
 40
180.0
  1

  7
SIMPLEX
  0
TEXT
  5
12A6
  8
TEXT
 10
10519.19229952241
 20
61134.021163470163
 30
0.0
 40
180.0
  1

  7
SIMPLEX
  0
TEXT
  5
12A7
  8
TEXT
 10
10519.19229952241
 20
61134.021163469093
 30
0.0
 40
180.0
  1

  7
SIMPLEX
  0
TEXT
  5
12A8
  8
TEXT
 10
10519.19229952241
 20
37194.021163469079
 30
0.0
 40
180.0
  1

  7
SIMPLEX
  0
TEXT
  5
12A9
  8
TEXT
 10
10519.19229952241
 20
63794.021163470163
 30
0.0
 40
180.0
  1

  7
SIMPLEX
  0
TEXT
  5
12AA
  8
TEXT
 10
10519.19229952241
 20
63794.021163469093
 30
0.0
 40
180.0
  1

  7
SIMPLEX
  0
TEXT
  5
12AB
  8
TEXT
 10
6068.1934915237043
 20
14067.82211798511
 30
0.0
 40
18.0
  1

  7
SIMPLEX
  0
TEXT
  5
12AC
  8
TEXT
 10
6068.1934915237043
 20
14067.82211798511
 30
0.0
 40
18.0
  1

  7
SIMPLEX
  0
TEXT
  5
12AD
  8
TEXT
 10
6068.1934915237043
 20
11407.82211798513
 30
0.0
 40
18.0
  1

  7
SIMPLEX
  0
TEXT
  5
12AE
  8
TEXT
 10
6068.1934915237043
 20
11407.82211798513
 30
0.0
 40
18.0
  1

  7
SIMPLEX
  0
TEXT
  5
12AF
  8
TEXT
 10
10184.56997263704
 20
34556.95302002049
 30
0.0
 40
180.0
  1

  7
SIMPLEX
  0
TEXT
  5
12B0
  8
TEXT
 10
10184.56997263704
 20
61156.953020021581
 30
0.0
 40
180.0
  1

  7
SIMPLEX
  0
TEXT
  5
12B1
  8
TEXT
 10
10184.56997263704
 20
61156.95302002049
 30
0.0
 40
180.0
  1

  7
SIMPLEX
  0
TEXT
  5
12B2
  8
TEXT
 10
10184.56997263704
 20
37216.953020020497
 30
0.0
 40
180.0
  1

  7
SIMPLEX
  0
TEXT
  5
12B3
  8
TEXT
 10
10184.56997263704
 20
63816.953020021581
 30
0.0
 40
180.0
  1

  7
SIMPLEX
  0
TEXT
  5
12B4
  8
TEXT
 10
10184.56997263704
 20
63816.95302002049
 30
0.0
 40
180.0
  1

  7
SIMPLEX
  0
TEXT
  5
12B5
  8
TEXT
 10
5733.5711646383261
 20
14090.75397453653
 30
0.0
 40
18.0
  1

  7
SIMPLEX
  0
TEXT
  5
12B6
  8
TEXT
 10
5733.5711646383261
 20
14090.75397453653
 30
0.0
 40
18.0
  1

  7
SIMPLEX
  0
TEXT
  5
12B7
  8
TEXT
 10
5733.5711646383261
 20
11430.75397453653
 30
0.0
 40
18.0
  1

  7
SIMPLEX
  0
TEXT
  5
12B8
  8
TEXT
 10
5733.5711646383261
 20
11430.75397453653
 30
0.0
 40
18.0
  1

  7
SIMPLEX
  0
LINE
  5
12B9
  8
DIM
 10
4101.0866883468743
 20
1625.5919077556171
 30
0.0
 11
4063.0947088511089
 21
1625.5919077556171
 31
0.0
  0
LINE
  5
12BA
  8
DIM
 10
4082.0906985989909
 20
1697.7909976249721
 30
0.0
 11
4022.2533308931602
 21
1648.640658859176
 31
0.0
  0
LINE
  5
12BB
  8
DIM
 10
4063.0947088511089
 20
1648.640658859176
 30
0.0
 11
4063.0947088511089
 21
1625.5919077556171
 31
0.0
  0
LINE
  5
12BC
  8
DIM
 10
4022.2533308931602
 20
1648.640658859176
 30
0.0
 11
4063.0947088511089
 21
1648.640658859176
 31
0.0
  0
LINE
  5
12BD
  8
DIM
 10
4082.0906985989909
 20
1697.7909976249721
 30
0.0
 11
4141.9280663048212
 21
1648.640658859176
 31
0.0
  0
LINE
  5
12BE
  8
DIM
 10
4101.0866883468743
 20
1648.640658859176
 30
0.0
 11
4101.0866883468743
 21
1625.5919077556171
 31
0.0
  0
LINE
  5
12BF
  8
DIM
 10
4141.9280663048212
 20
1648.640658859176
 30
0.0
 11
4101.0866883468743
 21
1648.640658859176
 31
0.0
  0
LINE
  5
12C0
  8
DIM
 10
2873.9442768825438
 20
402.39653725739572
 30
0.0
 11
2362.2194645806412
 21
402.39653725739572
 31
0.0
  0
LINE
  5
12C1
  8
DIM
 10
2402.2194645806412
 20
462.39653725739618
 30
0.0
 11
2402.2194645806412
 21
841.31082297168166
 31
0.0
  0
LINE
  5
12C2
  8
DIM
 10
2402.2194645806421
 20
1540.396537257395
 30
0.0
 11
2402.2194645806421
 21
1109.88225154311
 31
0.0
  0
SOLID
  5
12C3
  8
DIM
 10
2392.2194645806399
 20
462.39653725739618
 30
0.0
 11
2412.2194645806399
 21
462.39653725739618
 31
0.0
 12
2402.2194645806412
 22
402.39653725739572
 32
0.0
 13
2402.2194645806412
 23
402.39653725739572
 33
0.0
  0
SOLID
  5
12C4
  8
DIM
 10
2392.2194645806421
 20
1540.396537257395
 30
0.0
 11
2412.2194645806421
 21
1540.396537257395
 31
0.0
 12
2402.2194645806421
 22
1600.3965372573959
 32
0.0
 13
2402.2194645806421
 23
1600.3965372573959
 33
0.0
  0
TEXT
  5
12C5
  8
DIM
 10
2432.2194645806399
 20
882.73939440025424
 30
0.0
 40
60.0
  1
1198
 50
90.0
  7
TITLE3
  0
LINE
  5
12C6
  8
OUTLINE
 10
2687.194371422499
 20
4112.8600254815883
 30
0.0
 11
2687.1943714224981
 21
5593.8600254815929
 31
0.0
  0
LINE
  5
12C8
  8
OUTLINE
 10
4443.194371422499
 20
4112.8600254815883
 30
0.0
 11
2687.194371422499
 21
4112.8600254815883
 31
0.0
  0
LINE
  5
12C9
  8
OUTLINE
 10
4445.5943714224968
 20
1498.396537257393
 30
0.0
 11
2689.5943714224968
 21
1498.396537257393
 31
0.0
  0
LINE
  5
12CA
  8
OUTLINE
 10
4445.5943714224968
 20
455.3965372573943
 30
0.0
 11
2689.5943714224968
 21
455.39653725739481
 31
0.0
  0
LINE
  5
12CB
  8
OUTLINE
 10
2689.5943714224968
 20
1498.396537257393
 30
0.0
 11
2689.5943714224968
 21
455.39653725739481
 31
0.0
  0
LINE
  5
12CC
  8
OUTLINE
 10
3011.0941823425878
 20
402.39653725739481
 30
0.0
 11
2897.094182342586
 21
402.39653725739481
 31
0.0
  0
LINE
  5
12CD
  8
OUTLINE
 10
2870.0893335193819
 20
455.39653725739481
 30
0.0
 11
2897.094182342586
 21
402.39653725739481
 31
0.0
  0
LINE
  5
12CE
  8
OUTLINE
 10
3038.0990311657938
 20
455.39653725739481
 30
0.0
 11
3011.0941823425878
 21
402.3965372573947
 31
0.0
  0
LINE
  5
12CF
  8
OUTLINE
 10
4445.5943714224968
 20
1498.396537257393
 30
0.0
 11
4445.5943714224968
 21
455.3965372573943
 31
0.0
  0
LINE
  5
12D0
  8
OUTLINE
 10
4124.0943714224959
 20
402.39653725739481
 30
0.0
 11
4238.0943714224968
 21
402.39653725739481
 31
0.0
  0
LINE
  5
12D1
  8
OUTLINE
 10
4097.0895225992926
 20
455.3965372573943
 30
0.0
 11
4124.0943714224959
 21
402.39653725739481
 31
0.0
  0
LINE
  5
12D2
  8
OUTLINE
 10
4265.0992202457001
 20
455.3965372573943
 30
0.0
 11
4238.0943714224968
 21
402.39653725739481
 31
0.0
  0
LINE
  5
12D3
  8
OUTLINE
 10
2687.1943714224981
 20
5593.8600254815929
 30
0.0
 11
4443.1943714224972
 21
5593.8600254815901
 31
0.0
  0
TEXT
  5
12D4
  8
TEXT
 10
-293.12529147010349
 20
5731.9457668027026
 30
0.0
 40
60.0
  1
15.10.08
 41
0.8888888888888891
  7
TITLE3
 72
     5
 11
26.874708529896449
 21
5731.9457668027026
 31
0.0
  0
LINE
  5
12D5
  8
OUTLINE
 10
2988.9442768825429
 20
4088.5600254815881
 30
0.0
 11
3092.9442768825438
 21
4088.5600254815881
 31
0.0
  0
LINE
  5
12D6
  8
OUTLINE
 10
2988.9442768825452
 20
4112.8600254815901
 30
0.0
 11
2988.9442768825429
 21
4088.5600254815881
 31
0.0
  0
LINE
  5
12D7
  8
OUTLINE
 10
3092.9442768825452
 20
4112.8600254815901
 30
0.0
 11
3092.9442768825438
 21
4088.5600254815881
 31
0.0
  0
LINE
  5
12D8
  8
OUTLINE
 10
2988.9442768825429
 20
5618.1600254815903
 30
0.0
 11
3092.9442768825438
 21
5618.1600254815903
 31
0.0
  0
LINE
  5
12D9
  8
OUTLINE
 10
2988.9442768825452
 20
5593.8600254815901
 30
0.0
 11
2988.9442768825429
 21
5618.1600254815903
 31
0.0
  0
LINE
  5
12DA
  8
OUTLINE
 10
3092.9442768825452
 20
5593.8600254815901
 30
0.0
 11
3092.9442768825438
 21
5618.1600254815903
 31
0.0
  0
LINE
  5
12DB
  8
OUTLINE
 10
4067.8444659624538
 20
4088.5600254815881
 30
0.0
 11
3963.8444659624538
 21
4088.5600254815881
 31
0.0
  0
LINE
  5
12DC
  8
OUTLINE
 10
3963.8444659624529
 20
4112.8600254815901
 30
0.0
 11
3963.8444659624538
 21
4088.5600254815881
 31
0.0
  0
LINE
  5
12DD
  8
OUTLINE
 10
4067.8444659624529
 20
4112.8600254815901
 30
0.0
 11
4067.8444659624538
 21
4088.5600254815881
 31
0.0
  0
LINE
  5
12DE
  8
OUTLINE
 10
4067.8444659624538
 20
5618.1600254815903
 30
0.0
 11
3963.8444659624538
 21
5618.1600254815903
 31
0.0
  0
LINE
  5
12DF
  8
OUTLINE
 10
3963.8444659624529
 20
5593.8600254815901
 30
0.0
 11
3963.8444659624538
 21
5618.1600254815903
 31
0.0
  0
LINE
  5
12E0
  8
OUTLINE
 10
4067.8444659624529
 20
5593.8600254815901
 30
0.0
 11
4067.8444659624538
 21
5618.1600254815903
 31
0.0
  0
LINE
  5
12E1
  8
DIM
 10
1353.1718780458309
 20
359.99482896530372
 30
0.0
 11
1353.1718780458309
 21
108.22563359467129
 31
0.0
  0
LINE
  5
12E2
  8
DIM
 10
-177.82812195416861
 20
359.99482896530372
 30
0.0
 11
-177.82812195416861
 21
108.22563359467129
 31
0.0
  0
LINE
  5
12E3
  8
DIM
 10
1289.1718780458309
 20
148.22563359467131
 30
0.0
 11
709.07785197541034
 21
148.22563359467131
 31
0.0
  0
LINE
  5
12E4
  8
DIM
 10
-113.82812195416859
 20
148.22563359467131
 30
0.0
 11
440.50642340398088
 21
148.22563359467131
 31
0.0
  0
SOLID
  5
12E5
  8
DIM
 10
1289.1718780458309
 20
158.22563359467131
 30
0.0
 11
1289.1718780458309
 21
138.22563359467119
 31
0.0
 12
1353.1718780458309
 22
148.22563359467131
 32
0.0
 13
1353.1718780458309
 23
148.22563359467131
 33
0.0
  0
SOLID
  5
12E6
  8
DIM
 10
-113.82812195416859
 20
158.22563359467131
 30
0.0
 11
-113.82812195416859
 21
138.22563359467119
 31
0.0
 12
-177.82812195416861
 22
148.22563359467131
 32
0.0
 13
-177.82812195416861
 23
148.22563359467131
 33
0.0
  0
TEXT
  5
12E7
  8
DIM
 10
480.50642340398088
 20
118.22563359467119
 30
0.0
 40
60.0
  1
1531
  7
TITLE3
  0
TEXT
  5
12E8
  8
OVERLAY-A3
 10
-534.90347225580172
 20
5733.6081945229062
 30
0.0
 40
48.0
  1
Date
  7
SIMPLEX
  0
TEXT
  5
12E9
  8
OVERLAY-A3
 10
1259.4509377005579
 20
5770.9523708495281
 30
0.0
 40
48.0
  1
Revision
 41
0.7812095035934759
  7
SIMPLEX
 72
     5
 11
1470.1543009554839
 21
5770.9523708495281
 31
0.0
  0
LINE
  5
12EA
  8
OVERLAY-A3
 10
1236.211252933675
 20
5553.6307524993372
 30
0.0
 11
1236.2112529336739
 21
5848.483078219796
 31
0.0
  0
LINE
  5
12EB
  8
OVERLAY-A3
 10
-594.06838813235106
 20
6169.4460261869972
 30
0.0
 11
-594.06838813235106
 21
5553.6307524993372
 31
0.0
  0
LINE
  5
12EC
  8
OVERLAY-A3
 10
601.05590897954244
 20
5553.6307524993372
 30
0.0
 11
601.05590897954244
 21
5848.483078219796
 31
0.0
  0
LINE
  5
12ED
  8
OVERLAY-A3
 10
601.05590897954153
 20
5698.5709653416297
 30
0.0
 11
-594.06838813235106
 21
5698.5709653416297
 31
0.0
  0
LINE
  5
12EE
  8
OVERLAY-A3
 10
1490.3794834290379
 20
5848.483078219796
 30
0.0
 11
-594.06838813235106
 21
5848.483078219796
 31
0.0
  0
LINE
  5
12EF
  8
OVERLAY-A3
 10
-594.06838813235106
 20
5553.6307524993372
 30
0.0
 11
1489.7844690723371
 21
5553.6307524993372
 31
0.0
  0
LINE
  5
12F0
  8
OVERLAY-A3
 10
1489.7844690723371
 20
5553.6307524993372
 30
0.0
 11
1489.7844690723371
 21
6169.4460261869972
 31
0.0
  0
LINE
  5
12F1
  8
OVERLAY-A3
 10
1489.7844690723371
 20
6169.4460261869972
 30
0.0
 11
-594.06838813235106
 21
6169.4460261869972
 31
0.0
  0
TEXT
  5
12F2
  8
OVERLAY-A3
 10
-543.80500884042601
 20
5607.7907429334209
 30
0.0
 40
40.0
  1
Scale
 41
1.3701747965659721
  7
SIMPLEX
 72
     5
 11
-342.8460386774168
 21
5607.7907429334209
 31
0.0
  0
TEXT
  5
12F3
  8
OVERLAY-A3
 10
716.94680015494805
 20
5769.7326298161242
 30
0.0
 40
40.0
  1
Drawing No.
  7
SIMPLEX
 72
     2
 11
1065.5182287263769
 21
5769.7326298161242
 31
0.0
  0
LINE
  5
12F4
  8
OVERLAY-A3
 10
-741.27554174562192
 20
-0.3558578775973729
 30
0.0
 11
5564.422023467595
 21
-0.3558578775973729
 31
0.0
  0
LINE
  5
12F5
  8
OVERLAY-A3
 10
5564.422023467595
 20
-0.3558578775973729
 30
0.0
 11
5564.422023467595
 21
6233.982577544416
 31
0.0
  0
LINE
  5
12F6
  8
OVERLAY-A3
 10
5564.422023467595
 20
6233.982577544416
 30
0.0
 11
-741.27554174562192
 21
6233.982577544416
 31
0.0
  0
LINE
  5
12F7
  8
OVERLAY-A3
 10
-741.27554174562192
 20
6233.982577544416
 30
0.0
 11
-741.27554174562192
 21
-0.3558578775973729
 31
0.0
  0
LINE
  5
12F8
  8
OUTLINE
 10
124.79879098715629
 20
1600.3965372573921
 30
0.0
 11
-36.182799973962567
 21
1592.566364182268
 31
0.0
  0
LINE
  5
12FE
  8
OUTLINE
 10
196.64011487949031
 20
1584.594028995524
 30
0.0
 11
172.25370799350549
 21
1584.594028995524
 31
0.0
  0
LINE
  5
12FF
  8
OUTLINE
 10
196.6401148794894
 20
1579.394028995524
 30
0.0
 11
245.87187804583121
 21
1579.3940289955231
 31
0.0
  0
LINE
  5
1302
  8
OUTLINE
 10
196.64011487949031
 20
1584.594028995524
 30
0.0
 11
196.6401148794894
 21
1579.394028995524
 31
0.0
  0
ARC
  5
1303
  8
OUTLINE
 10
124.79879098715629
 20
1585.996537257392
 30
0.0
 40
14.4
 50
70.650415913284689
 51
90.0
  0
LINE
  5
1304
  8
OUTLINE
 10
129.56995795516829
 20
1599.583147053929
 30
0.0
 11
172.25370799350549
 21
1584.594028995524
 31
0.0
  0
LINE
  5
1305
  8
OUTLINE
 10
-79.128121954167895
 20
1498.396537257393
 30
0.0
 11
-54.356167655317222
 21
1580.3751441821171
 31
0.0
  0
LINE
  5
1307
  8
OUTLINE
 10
-177.82812195416861
 20
402.39653725739493
 30
0.0
 11
1353.1718780458309
 21
402.39653725739481
 31
0.0
  0
LINE
  5
1308
  8
OUTLINE
 10
1353.1718780458309
 20
410.39653725739493
 30
0.0
 11
1307.171878045833
 21
452.3965372573939
 31
0.0
  0
LINE
  5
1309
  8
OUTLINE
 10
1353.1718780458309
 20
402.39653725739481
 30
0.0
 11
1353.1718780458309
 21
410.39653725739493
 31
0.0
  0
LINE
  5
130A
  8
OUTLINE
 10
-177.82812195416861
 20
410.39653725739572
 30
0.0
 11
-131.82812195416849
 21
452.39653725739481
 31
0.0
  0
LINE
  5
130B
  8
OUTLINE
 10
-177.82812195416861
 20
402.39653725739493
 30
0.0
 11
-177.82812195416861
 21
410.39653725739572
 31
0.0
  0
LINE
  5
130C
  8
DIM
 10
-163.32812195416861
 20
362.39653725739481
 30
0.0
 11
-163.32812195416861
 21
233.37548560294809
 31
0.0
  0
LINE
  5
130D
  8
DIM
 10
1338.6718780458309
 20
362.39653725739481
 30
0.0
 11
1338.6718780458309
 21
233.37548560294809
 31
0.0
  0
LINE
  5
130E
  8
DIM
 10
-103.32812195416859
 20
273.37548560294812
 30
0.0
 11
294.58028060066681
 21
273.37548560294812
 31
0.0
  0
LINE
  5
130F
  8
DIM
 10
1278.6718780458309
 20
273.37548560294812
 30
0.0
 11
857.43742345780993
 21
273.37548560294812
 31
0.0
  0
SOLID
  5
1310
  8
DIM
 10
-103.32812195416859
 20
283.375485602948
 30
0.0
 11
-103.32812195416859
 21
263.37548560294812
 31
0.0
 12
-163.32812195416861
 22
273.37548560294812
 32
0.0
 13
-163.32812195416861
 23
273.37548560294812
 33
0.0
  0
SOLID
  5
1311
  8
DIM
 10
1278.6718780458309
 20
283.375485602948
 30
0.0
 11
1278.6718780458309
 21
263.37548560294812
 31
0.0
 12
1338.6718780458309
 22
273.37548560294812
 32
0.0
 13
1338.6718780458309
 23
273.37548560294812
 33
0.0
  0
TEXT
  5
1312
  8
DIM
 10
334.58028060066408
 20
243.37548560294809
 30
0.0
 40
60.0
  1
1502 CTRS
  7
TITLE3
  0
CIRCLE
  5
1314
  8
OUTLINE
 10
3988.3943714224988
 20
5188.3600254815901
 30
0.0
 40
325.0
  0
LINE
  5
1315
  8
CLEAR
 10
1687.1943714224969
 20
6093.8600254815901
 30
0.0
 11
5443.194371422499
 21
6093.8600254815901
 31
0.0
  0
LINE
  5
1316
  8
CLEAR
 10
5443.194371422499
 20
6093.8600254815901
 30
0.0
 11
5443.194371422499
 21
4112.8600254815883
 31
0.0
  0
LINE
  5
1317
  8
CLEAR
 10
1687.194371422499
 20
4112.8600254815883
 30
0.0
 11
1687.1943714224969
 21
6093.8600254815901
 31
0.0
  0
LINE
  5
1318
  8
CLEAR
 10
4447.9943714224974
 20
3612.8600254815892
 30
0.0
 11
2687.194371422499
 21
3612.8600254815892
 31
0.0
  0
TEXT
  5
1319
  8
TEXT
 10
-262.15653640051642
 20
5607.4756759378697
 30
0.0
 40
60.0
  1
1:20
  7
TITLE3
  0
LINE
  5
1338
  8
DIM
 10
2865.1755331701861
 20
1600.3965372573959
 30
0.0
 11
2362.2194645806421
 21
1600.3965372573959
 31
0.0
  0
LINE
  5
1339
  8
CLEAR
 10
1687.194371422499
 20
4112.8600254815883
 30
0.0
 11
2404.8264944105758
 21
4112.8600254815883
 31
0.0
  0
LINE
  5
133A
  8
CLEAR
 10
2687.194371422499
 20
3612.8600254815892
 30
0.0
 11
2687.194371422499
 21
4096.1483323332513
 31
0.0
  0
LINE
  5
133B
  8
CLEAR
 10
4447.9943714224974
 20
3612.8600254815892
 30
0.0
 11
4447.9943714224974
 21
4096.1483323332513
 31
0.0
  0
LINE
  5
133C
  8
CLEAR
 10
5443.194371422499
 20
4112.8600254815883
 30
0.0
 11
4473.2609845991246
 21
4112.8600254815883
 31
0.0
  0
LINE
  5
133D
  8
DIM
 10
2687.5943714224968
 20
432.44411966280308
 30
0.0
 11
2687.5943714224968
 21
126.1365390300889
 31
0.0
  0
LINE
  5
133E
  8
DIM
 10
2627.5943714224991
 20
166.13653903008881
 30
0.0
 11
2567.5943714224959
 21
166.13653903008881
 31
0.0
  0
SOLID
  5
133F
  8
DIM
 10
2627.5943714224991
 20
176.1365390300889
 30
0.0
 11
2627.5943714224991
 21
156.1365390300889
 31
0.0
 12
2687.5943714224968
 22
166.13653903008881
 32
0.0
 13
2687.5943714224968
 23
166.13653903008881
 33
0.0
  0
TEXT
  5
1340
  8
DIM
 10
2740.3868000559619
 20
136.13653903008881
 30
0.0
 40
60.0
  1
265
  7
TITLE3
  0
LINE
  5
1341
  8
DIM
 10
2954.0941823425878
 20
362.39653725739481
 30
0.0
 11
2954.0941823425878
 21
126.1365390300889
 31
0.0
  0
LINE
  5
1342
  8
DIM
 10
4181.0943714224968
 20
362.39653725739481
 30
0.0
 11
4181.0943714224968
 21
126.1365390300889
 31
0.0
  0
LINE
  5
1343
  8
DIM
 10
3014.0941823425869
 20
166.13653903008881
 30
0.0
 11
3371.3978363076289
 21
166.13653903008881
 31
0.0
  0
LINE
  5
1344
  8
DIM
 10
4121.0943714224959
 20
166.13653903008881
 30
0.0
 11
3628.371536262192
 21
166.13653903008881
 31
0.0
  0
SOLID
  5
1345
  8
DIM
 10
3014.0941823425869
 20
176.1365390300889
 30
0.0
 11
3014.0941823425869
 21
156.1365390300889
 31
0.0
 12
2954.0941823425878
 22
166.13653903008881
 32
0.0
 13
2954.0941823425878
 23
166.13653903008881
 33
0.0
  0
SOLID
  5
1346
  8
DIM
 10
4121.0943714224959
 20
176.1365390300889
 30
0.0
 11
4121.0943714224959
 21
156.1365390300889
 31
0.0
 12
4181.0943714224968
 22
166.13653903008881
 32
0.0
 13
4181.0943714224968
 23
166.13653903008881
 33
0.0
  0
TEXT
  5
1347
  8
DIM
 10
3411.3978363076321
 20
136.13653903008881
 30
0.0
 40
60.0
  1
1227
  7
TITLE3
  0
LINE
  5
1348
  8
DIM
 10
4447.5943714224986
 20
412.3965372573943
 30
0.0
 11
4447.5943714224986
 21
126.1365390300889
 31
0.0
  0
LINE
  5
1349
  8
DIM
 10
4507.5943714224977
 20
166.13653903008881
 30
0.0
 11
4567.5943714224968
 21
166.13653903008881
 31
0.0
  0
SOLID
  5
134A
  8
DIM
 10
4507.5943714224977
 20
176.1365390300889
 30
0.0
 11
4507.5943714224977
 21
156.1365390300889
 31
0.0
 12
4447.5943714224986
 22
166.13653903008881
 32
0.0
 13
4447.5943714224986
 23
166.13653903008881
 33
0.0
  0
TEXT
  5
134B
  8
DIM
 10
4228.3293517135107
 20
136.13653903008881
 30
0.0
 40
60.0
  1
265
  7
TITLE3
  0
LINE
  5
134C
  8
CLEAR
 10
4447.9943714224974
 20
3498.3965372573939
 30
0.0
 11
2688.394371422497
 21
3498.3965372573939
 31
0.0
  0
LINE
  5
134D
  8
CLEAR
 10
2688.394371422497
 20
3498.3965372573939
 30
0.0
 11
2688.394371422497
 21
1526.5665108566191
 31
0.0
  0
LINE
  5
134E
  8
CLEAR
 10
4447.9943714224974
 20
3498.3965372573939
 30
0.0
 11
4447.9943714224974
 21
1546.7222706507091
 31
0.0
  0
LINE
  5
134F
  8
DIM
 10
3596.9031540141018
 20
5685.2285258390584
 30
0.0
 11
3558.9111745183368
 21
5685.2285258390584
 31
0.0
  0
LINE
  5
1350
  8
DIM
 10
3577.9071642662188
 20
5613.0294359697027
 30
0.0
 11
3637.74453197205
 21
5662.1797747354976
 31
0.0
  0
LINE
  5
1351
  8
DIM
 10
3558.9111745183368
 20
5662.1797747354976
 30
0.0
 11
3558.9111745183368
 21
5685.2285258390584
 31
0.0
  0
LINE
  5
1352
  8
DIM
 10
3518.0697965603881
 20
5662.1797747354976
 30
0.0
 11
3558.9111745183368
 21
5662.1797747354976
 31
0.0
  0
LINE
  5
1353
  8
DIM
 10
3577.9071642662188
 20
5613.0294359697027
 30
0.0
 11
3518.0697965603881
 21
5662.1797747354976
 31
0.0
  0
LINE
  5
1354
  8
DIM
 10
3596.9031540141018
 20
5662.1797747354976
 30
0.0
 11
3596.9031540141018
 21
5685.2285258390584
 31
0.0
  0
LINE
  5
1355
  8
DIM
 10
3637.74453197205
 20
5662.1797747354976
 30
0.0
 11
3596.9031540141018
 21
5662.1797747354976
 31
0.0
  0
LINE
  5
1356
  8
DIM
 10
3596.9031540141018
 20
4032.4026644046912
 30
0.0
 11
3558.9111745183368
 21
4032.4026644046912
 31
0.0
  0
LINE
  5
1357
  8
DIM
 10
3577.9071642662188
 20
4104.6017542740447
 30
0.0
 11
3637.74453197205
 21
4055.4514155082502
 31
0.0
  0
LINE
  5
1358
  8
DIM
 10
3558.9111745183368
 20
4055.4514155082502
 30
0.0
 11
3558.9111745183368
 21
4032.4026644046912
 31
0.0
  0
LINE
  5
1359
  8
DIM
 10
3518.0697965603881
 20
4055.4514155082502
 30
0.0
 11
3558.9111745183368
 21
4055.4514155082502
 31
0.0
  0
LINE
  5
135A
  8
DIM
 10
3577.9071642662188
 20
4104.6017542740447
 30
0.0
 11
3518.0697965603881
 21
4055.4514155082502
 31
0.0
  0
LINE
  5
135B
  8
DIM
 10
3596.9031540141018
 20
4055.4514155082502
 30
0.0
 11
3596.9031540141018
 21
4032.4026644046912
 31
0.0
  0
LINE
  5
135C
  8
DIM
 10
3637.74453197205
 20
4055.4514155082502
 30
0.0
 11
3596.9031540141018
 21
4055.4514155082502
 31
0.0
  0
TEXT
  5
135D
  8
TEXT
 10
3138.785234845614
 20
886.72631603181935
 30
0.0
 40
140.0
  1
OSA630
  7
TITLE5
 72
     1
 11
3532.118568178947
 21
886.72631603181935
 31
0.0
  0
TEXT
  5
135E
  8
TEXT
 10
3164.6823233855889
 20
5070.701625650132
 30
0.0
 40
140.0
  1
OSA 630
  7
TITLE5
 72
     1
 11
3621.348990052255
 21
5070.701625650132
 31
0.0
  0
TEXT
  5
135F
  8
TEXT
 10
256.37834590414718
 20
868.64515228585128
 30
0.0
 40
112.0
  1
OSA630
  7
TITLE5
 72
     1
 11
571.04501257081392
 21
868.64515228585128
 31
0.0
  0
TEXT
  5
1360
  8
TEXT
 10
3080.5034835128281
 20
6007.8203221665899
 30
0.0
 40
60.0
  1
500 min CLEARANCE
  7
TITLE3
  0
TEXT
  5
1361
  8
TEXT
 10
3080.5034835128281
 20
3383.945862417544
 30
0.0
 40
60.0
  1
2000 min CLEARANCE
  7
TITLE3
  0
TEXT
  5
1362
  8
TEXT
 10
3080.5034835128281
 20
3642.4480133432512
 30
0.0
 40
60.0
  1
500 min CLEARANCE
  7
TITLE3
  0
TEXT
  5
1363
  8
TEXT
 10
1782.6327945870789
 20
4841.0196900679384
 30
0.0
 40
60.0
  1
1000 min CLEARANCE
 50
90.0
  7
TITLE3
  0
TEXT
  5
1364
  8
TEXT
 10
5393.0042667998659
 20
4841.0196900679384
 30
0.0
 40
60.0
  1
1000 min CLEARANCE
 50
90.0
  7
TITLE3
  0
INSERT
  5
1365
  8
TEXT
  2
NEW_BLOCK
 10
560.93189895514922
 20
4974.4688288124235
 30
0.0
  0
ARC
  5
1629
  8
OUTLINE
 10
-37.169772126580021
 20
1574.3965697594469
 30
0.0
 40
18.196580541343359
 50
86.890783808702082
 51
160.81891700020671
  0
LINE
  5
162C
  8
OUTLINE
 10
366.9449651045079
 20
1600.3965372573921
 30
0.0
 11
527.92655606562676
 21
1592.566364182268
 31
0.0
  0
ARC
  5
162D
  8
OUTLINE
 10
528.91352821824603
 20
1574.3965697594469
 30
0.0
 40
18.196580541342151
 50
19.181082999799202
 51
93.109216191245764
  0
LINE
  5
162E
  8
OUTLINE
 10
295.1036412121739
 20
1584.594028995524
 30
0.0
 11
319.4900480981587
 21
1584.594028995524
 31
0.0
  0
LINE
  5
162F
  8
OUTLINE
 10
295.10364121217481
 20
1579.394028995524
 30
0.0
 11
245.871878045833
 21
1579.3940289955231
 31
0.0
  0
LINE
  5
1630
  8
OUTLINE
 10
295.1036412121739
 20
1584.594028995524
 30
0.0
 11
295.10364121217481
 21
1579.394028995524
 31
0.0
  0
ARC
  5
1631
  8
OUTLINE
 10
366.9449651045079
 20
1585.996537257392
 30
0.0
 40
14.4
 50
90.0
 51
109.34958408671611
  0
LINE
  5
1632
  8
OUTLINE
 10
362.17379813649598
 20
1599.583147053929
 30
0.0
 11
319.4900480981587
 21
1584.594028995524
 31
0.0
  0
LINE
  5
1633
  8
OUTLINE
 10
570.87187804583209
 20
1498.396537257393
 30
0.0
 11
546.09992374698118
 21
1580.3751441821171
 31
0.0
  0
LINE
  5
1634
  8
OUTLINE
 10
794.79879098715605
 20
1600.3965372573921
 30
0.0
 11
633.81720002603754
 21
1592.566364182268
 31
0.0
  0
ARC
  5
1635
  8
OUTLINE
 10
632.83022787341997
 20
1574.3965697594469
 30
0.0
 40
18.19658054134387
 50
86.890783808702082
 51
160.818917000206
  0
LINE
  5
1636
  8
OUTLINE
 10
866.64011487949006
 20
1584.594028995524
 30
0.0
 11
842.25370799350515
 21
1584.594028995524
 31
0.0
  0
LINE
  5
1637
  8
OUTLINE
 10
866.64011487948926
 20
1579.394028995524
 30
0.0
 11
915.87187804583095
 21
1579.3940289955231
 31
0.0
  0
LINE
  5
1638
  8
OUTLINE
 10
866.64011487949006
 20
1584.594028995524
 30
0.0
 11
866.64011487948926
 21
1579.394028995524
 31
0.0
  0
ARC
  5
1639
  8
OUTLINE
 10
794.79879098715605
 20
1585.996537257392
 30
0.0
 40
14.4
 50
70.650415913284505
 51
90.0
  0
LINE
  5
163A
  8
OUTLINE
 10
799.56995795516832
 20
1599.583147053929
 30
0.0
 11
842.25370799350515
 21
1584.594028995524
 31
0.0
  0
LINE
  5
163B
  8
OUTLINE
 10
590.87187804583209
 20
1498.396537257393
 30
0.0
 11
615.64383234468278
 21
1580.3751441821171
 31
0.0
  0
LINE
  5
163C
  8
OUTLINE
 10
1036.9449651045079
 20
1600.3965372573921
 30
0.0
 11
1197.926556065627
 21
1592.566364182268
 31
0.0
  0
ARC
  5
163D
  8
OUTLINE
 10
1198.913528218246
 20
1574.3965697594469
 30
0.0
 40
18.196580541342289
 50
19.18108299980041
 51
93.109216191245764
  0
LINE
  5
163E
  8
OUTLINE
 10
965.10364121217378
 20
1584.594028995524
 30
0.0
 11
989.49004809815847
 21
1584.594028995524
 31
0.0
  0
LINE
  5
163F
  8
OUTLINE
 10
965.10364121217469
 20
1579.394028995524
 30
0.0
 11
915.87187804583289
 21
1579.3940289955231
 31
0.0
  0
LINE
  5
1640
  8
OUTLINE
 10
965.10364121217378
 20
1584.594028995524
 30
0.0
 11
965.10364121217469
 21
1579.394028995524
 31
0.0
  0
ARC
  5
1641
  8
OUTLINE
 10
1036.9449651045079
 20
1585.996537257392
 30
0.0
 40
14.4
 50
90.0
 51
109.34958408671621
  0
LINE
  5
1642
  8
OUTLINE
 10
1032.1737981364961
 20
1599.583147053929
 30
0.0
 11
989.49004809815847
 21
1584.594028995524
 31
0.0
  0
LINE
  5
1643
  8
OUTLINE
 10
1240.8718780458321
 20
1498.396537257393
 30
0.0
 11
1216.0999237469809
 21
1580.3751441821171
 31
0.0
  0
LINE
  5
1645
  8
OUTLINE
 10
3300.2212843638208
 20
1600.3965372573921
 30
0.0
 11
3139.239693402702
 21
1592.566364182268
 31
0.0
  0
ARC
  5
1646
  8
OUTLINE
 10
3140.2113482184209
 20
1572.5899809530861
 30
0.0
 40
20.0
 50
92.784682177210072
 51
163.18645155141411
  0
LINE
  5
1647
  8
OUTLINE
 10
3372.0626082561539
 20
1584.594028995524
 30
0.0
 11
3347.67620137017
 21
1584.594028995524
 31
0.0
  0
LINE
  5
1648
  8
OUTLINE
 10
3372.0626082561539
 20
1577.394028995524
 30
0.0
 11
3421.2943714224962
 21
1577.3940289955231
 31
0.0
  0
LINE
  5
1649
  8
OUTLINE
 10
3372.0626082561539
 20
1584.594028995524
 30
0.0
 11
3372.0626082561539
 21
1577.394028995524
 31
0.0
  0
ARC
  5
164A
  8
OUTLINE
 10
3300.2212843638208
 20
1585.996537257392
 30
0.0
 40
14.4
 50
70.650415913283865
 51
90.0
  0
LINE
  5
164B
  8
OUTLINE
 10
3304.9924513318329
 20
1599.583147053929
 30
0.0
 11
3347.67620137017
 21
1584.594028995524
 31
0.0
  0
LINE
  5
164C
  8
OUTLINE
 10
3096.2943714224971
 20
1498.396537257393
 30
0.0
 11
3121.0663257213469
 21
1578.3751441821171
 31
0.0
  0
LINE
  5
164D
  8
OUTLINE
 10
3542.367458481172
 20
1600.3965372573921
 30
0.0
 11
3703.3490494422908
 21
1592.566364182268
 31
0.0
  0
ARC
  5
164E
  8
OUTLINE
 10
3702.3773946265728
 20
1572.5899809530861
 30
0.0
 40
20.0
 50
16.813548448589739
 51
87.215317822763808
  0
LINE
  5
164F
  8
OUTLINE
 10
3470.526134588838
 20
1584.594028995524
 30
0.0
 11
3494.9125414748228
 21
1584.594028995524
 31
0.0
  0
LINE
  5
1650
  8
OUTLINE
 10
3470.5261345888389
 20
1577.394028995524
 30
0.0
 11
3421.2943714224971
 21
1577.3940289955231
 31
0.0
  0
LINE
  5
1651
  8
OUTLINE
 10
3470.526134588838
 20
1584.594028995524
 30
0.0
 11
3470.5261345888389
 21
1577.394028995524
 31
0.0
  0
ARC
  5
1652
  8
OUTLINE
 10
3542.367458481172
 20
1585.996537257392
 30
0.0
 40
14.4
 50
90.0
 51
109.34958408671621
  0
LINE
  5
1653
  8
OUTLINE
 10
3537.5962915131599
 20
1599.583147053929
 30
0.0
 11
3494.9125414748228
 21
1584.594028995524
 31
0.0
  0
LINE
  5
1654
  8
OUTLINE
 10
3746.2943714224962
 20
1498.396537257393
 30
0.0
 11
3721.5224171236459
 21
1578.3751441821171
 31
0.0
  0
LINE
  5
1655
  8
OUTLINE
 10
3970.2212843638208
 20
1600.3965372573921
 30
0.0
 11
3809.239693402702
 21
1592.566364182268
 31
0.0
  0
ARC
  5
1656
  8
OUTLINE
 10
3810.2113482184209
 20
1572.5899809530861
 30
0.0
 40
20.0
 50
92.784682177210072
 51
163.18645155141499
  0
LINE
  5
1657
  8
OUTLINE
 10
4042.0626082561548
 20
1584.594028995524
 30
0.0
 11
4017.6762013701709
 21
1584.594028995524
 31
0.0
  0
LINE
  5
1658
  8
OUTLINE
 10
4042.062608256153
 20
1577.394028995524
 30
0.0
 11
4091.2943714224939
 21
1577.3940289955231
 31
0.0
  0
LINE
  5
1659
  8
OUTLINE
 10
4042.0626082561548
 20
1584.594028995524
 30
0.0
 11
4042.062608256153
 21
1577.394028995524
 31
0.0
  0
ARC
  5
165A
  8
OUTLINE
 10
3970.2212843638208
 20
1585.996537257392
 30
0.0
 40
14.4
 50
70.650415913283851
 51
90.0
  0
LINE
  5
165B
  8
OUTLINE
 10
3974.9924513318329
 20
1599.583147053929
 30
0.0
 11
4017.6762013701709
 21
1584.594028995524
 31
0.0
  0
LINE
  5
165C
  8
OUTLINE
 10
3766.2943714224971
 20
1498.396537257393
 30
0.0
 11
3791.0663257213469
 21
1578.3751441821171
 31
0.0
  0
LINE
  5
165D
  8
OUTLINE
 10
4212.3674584811733
 20
1600.3965372573921
 30
0.0
 11
4373.3490494422922
 21
1592.566364182268
 31
0.0
  0
ARC
  5
165E
  8
OUTLINE
 10
4372.3773946265719
 20
1572.5899809530861
 30
0.0
 40
20.0
 50
16.813548448590421
 51
87.215317822763808
  0
LINE
  5
165F
  8
OUTLINE
 10
4140.5261345888384
 20
1584.594028995524
 30
0.0
 11
4164.9125414748232
 21
1584.594028995524
 31
0.0
  0
LINE
  5
1660
  8
OUTLINE
 10
4140.5261345888393
 20
1577.394028995524
 30
0.0
 11
4091.2943714224971
 21
1577.3940289955231
 31
0.0
  0
LINE
  5
1661
  8
OUTLINE
 10
4140.5261345888384
 20
1584.594028995524
 30
0.0
 11
4140.5261345888393
 21
1577.394028995524
 31
0.0
  0
ARC
  5
1662
  8
OUTLINE
 10
4212.3674584811733
 20
1585.996537257392
 30
0.0
 40
14.4
 50
90.0
 51
109.34958408671621
  0
LINE
  5
1663
  8
OUTLINE
 10
4207.5962915131586
 20
1599.583147053929
 30
0.0
 11
4164.9125414748232
 21
1584.594028995524
 31
0.0
  0
LINE
  5
1664
  8
OUTLINE
 10
4416.2943714224957
 20
1498.396537257393
 30
0.0
 11
4391.522417123645
 21
1578.3751441821171
 31
0.0
  0
CIRCLE
  5
1681
  8
OUTLINE
 10
3318.3943714224988
 20
5188.3600254815901
 30
0.0
 40
325.0
  0
CIRCLE
  5
1682
  8
OUTLINE
 10
3988.3943714224988
 20
4518.3600254815901
 30
0.0
 40
325.0
  0
CIRCLE
  5
1683
  8
OUTLINE
 10
3318.3943714224988
 20
4518.3600254815901
 30
0.0
 40
325.0
  0
LINE
  5
168F
  8
OUTLINE
 10
4443.194371422499
 20
4112.8600254815883
 30
0.0
 11
4443.1943714224972
 21
5593.8600254815901
 31
0.0
  0
CIRCLE
  5
1693
  8
OUTLINE
 10
59.67187804583137
 20
514.39653725739481
 30
0.0
 40
19.0
  0
CIRCLE
  5
1695
  8
OUTLINE
 10
124.2718780458317
 20
514.39653725739481
 30
0.0
 40
25.0
  0
CIRCLE
  5
16A1
  8
OUTLINE
 10
250.9718780458316
 20
514.39653725739481
 30
0.0
 40
12.699999999999999
  0
CIRCLE
  5
16A2
  8
OUTLINE
 10
285.97187804583149
 20
514.39653725739481
 30
0.0
 40
12.699999999999999
  0
CIRCLE
  5
16A3
  8
OUTLINE
 10
320.97187804583149
 20
514.39653725739481
 30
0.0
 40
12.699999999999999
  0
CIRCLE
  5
16A4
  8
OUTLINE
 10
1115.1718780458291
 20
514.39653725739481
 30
0.0
 40
19.0
  0
CIRCLE
  5
16A5
  8
OUTLINE
 10
1050.571878045829
 20
514.39653725739481
 30
0.0
 40
25.0
  0
LINE
  5
16AB
  8
OUTLINE
 10
-153.07812195416861
 20
1474.396537257395
 30
0.0
 11
1327.9218780458309
 21
1474.3965372573939
 31
0.0
  0
LINE
  5
16AE
  8
OUTLINE
 10
-68.078121954168637
 20
1474.396537257395
 30
0.0
 11
-68.078121954168637
 21
452.39653725739481
 31
0.0
  0
LINE
  5
16AF
  8
OUTLINE
 10
1242.92187804583
 20
1474.396537257395
 30
0.0
 11
1242.9218780458291
 21
452.39653725739288
 31
0.0
  0
LINE
  5
16B1
  8
OUTLINE
 10
-68.078121954169546
 20
559.39653725739481
 30
0.0
 11
1242.92187804583
 21
559.39653725739481
 31
0.0
  0
LINE
  5
16B9
  8
DIM
 10
-196.97802741421131
 20
402.39653725739572
 30
0.0
 11
-343.02424035286458
 21
402.39653725739572
 31
0.0
  0
LINE
  5
16BA
  8
DIM
 10
22.1214521156171
 20
514.39653725739481
 30
0.0
 11
-342.17144263412678
 21
514.39653725739481
 31
0.0
  0
LINE
  5
16BB
  8
DIM
 10
-303.02424035286458
 20
562.39653725739458
 30
0.0
 11
-303.02424035286458
 21
690.28225154310883
 31
0.0
  0
LINE
  5
16BC
  8
DIM
 10
-303.02424035286458
 20
402.39653725739572
 30
0.0
 11
-303.02424035286458
 21
212.097566130904
 31
0.0
  0
SOLID
  5
16BD
  8
DIM
 10
-313.02424035286373
 20
574.3965372573947
 30
0.0
 11
-293.02424035286458
 21
574.3965372573947
 31
0.0
 12
-303.02424035286458
 22
514.39653725739481
 32
0.0
 13
-303.02424035286458
 23
514.39653725739481
 33
0.0
  0
SOLID
  5
16BE
  8
DIM
 10
-313.02424035286373
 20
342.39653725739493
 30
0.0
 11
-293.02424035286458
 21
342.39653725739493
 31
0.0
 12
-303.02424035286458
 22
402.39653725739572
 32
0.0
 13
-303.02424035286458
 23
402.39653725739572
 33
0.0
  0
TEXT
  5
16BF
  8
DIM
 10
-384.14558172428212
 20
386.61381438502059
 30
0.0
 40
60.0
  1
112
 50
90.0
  7
TITLE3
 72
     4
 11
-414.14558172428212
 21
452.32810009930631
 31
0.0
  0
LINE
  5
16C0
  8
DIM
 10
-196.97802741421131
 20
402.39653725739572
 30
0.0
 11
-343.02424035286458
 21
402.39653725739572
 31
0.0
  0
LINE
  5
177A
  8
OUTLINE
 10
2687.1943714224981
 20
5629.2215588133131
 30
0.0
 11
2687.1943714224981
 21
5849.7820556069873
 31
0.0
  0
LINE
  5
177B
  8
OUTLINE
 10
4443.1943714224972
 20
5629.2215588133131
 30
0.0
 11
4443.1943714224972
 21
5849.7820556069864
 31
0.0
  0
LINE
  5
17A1
  8
DIM
 10
278.87414112520901
 20
1625.5919077556171
 30
0.0
 11
240.88216162944491
 21
1625.5919077556171
 31
0.0
  0
LINE
  5
17A2
  8
DIM
 10
259.8781513773269
 20
1697.7909976249721
 30
0.0
 11
200.0407836714968
 21
1648.640658859176
 31
0.0
  0
LINE
  5
17A3
  8
DIM
 10
200.0407836714968
 20
1648.640658859176
 30
0.0
 11
240.88216162944491
 21
1648.640658859176
 31
0.0
  0
LINE
  5
17A4
  8
DIM
 10
240.88216162944491
 20
1648.640658859176
 30
0.0
 11
240.88216162944491
 21
1625.5919077556171
 31
0.0
  0
LINE
  5
17A5
  8
DIM
 10
259.8781513773269
 20
1697.7909976249721
 30
0.0
 11
319.71551908315593
 21
1648.640658859176
 31
0.0
  0
LINE
  5
17A6
  8
DIM
 10
319.71551908315593
 20
1648.640658859176
 30
0.0
 11
278.87414112520901
 21
1648.640658859176
 31
0.0
  0
LINE
  5
17A7
  8
DIM
 10
278.87414112520901
 20
1648.640658859176
 30
0.0
 11
278.87414112520901
 21
1625.5919077556171
 31
0.0
  0
LINE
  5
17A8
  8
DIM
 10
940.88101884806383
 20
1625.5919077556171
 30
0.0
 11
902.88903935229962
 21
1625.5919077556171
 31
0.0
  0
LINE
  5
17A9
  8
DIM
 10
921.88502910018235
 20
1697.7909976249721
 30
0.0
 11
862.04766139435185
 21
1648.640658859176
 31
0.0
  0
LINE
  5
17AA
  8
DIM
 10
902.88903935229962
 20
1648.640658859176
 30
0.0
 11
902.88903935229962
 21
1625.5919077556171
 31
0.0
  0
LINE
  5
17AB
  8
DIM
 10
862.04766139435185
 20
1648.640658859176
 30
0.0
 11
902.88903935229962
 21
1648.640658859176
 31
0.0
  0
LINE
  5
17AC
  8
DIM
 10
921.88502910018235
 20
1697.7909976249721
 30
0.0
 11
981.72239680601149
 21
1648.640658859176
 31
0.0
  0
LINE
  5
17AD
  8
DIM
 10
940.88101884806383
 20
1648.640658859176
 30
0.0
 11
940.88101884806383
 21
1625.5919077556171
 31
0.0
  0
LINE
  5
17AE
  8
DIM
 10
981.72239680601149
 20
1648.640658859176
 30
0.0
 11
940.88101884806383
 21
1648.640658859176
 31
0.0
  0
ENDSEC
  0
EOF
