  0
SECTION
  2
HEADER
  9
$ACADVER
  1
AC1009
  9
$INSBASE
 10
0.0
 20
0.0
 30
0.0
  9
$EXTMIN
 10
924.71496027861565
 20
-0.0405648441292215
 30
-0.0000000000112498
  9
$EXTMAX
 10
3890.0593766152761
 20
1807.876163659248
 30
0.0000000000002956
  9
$LIMMIN
 10
0.0
 20
0.0
  9
$LIMMAX
 10
3890.0
 20
2660.0
  9
$ORTHOMODE
 70
     1
  9
$REGENMODE
 70
     1
  9
$FILLMODE
 70
     1
  9
$QTEXTMODE
 70
     0
  9
$MIRRTEXT
 70
     0
  9
$DRAGMODE
 70
     2
  9
$LTSCALE
 40
40.0
  9
$OSMODE
 70
     0
  9
$ATTMODE
 70
     1
  9
$TEXTSIZE
 40
30.0
  9
$TRACEWID
 40
0.05
  9
$TEXTSTYLE
  7
TITLE3
  9
$CLAYER
  8
DIM
  9
$CELTYPE
  6
BYLAYER
  9
$CECOLOR
 62
   256
  9
$DIMSCALE
 40
1.0
  9
$DIMASZ
 40
0.12
  9
$DIMEXO
 40
0.05
  9
$DIMDLI
 40
0.5
  9
$DIMRND
 40
0.0
  9
$DIMDLE
 40
0.0
  9
$DIMEXE
 40
0.1
  9
$DIMTP
 40
0.1
  9
$DIMTM
 40
0.1
  9
$DIMTXT
 40
0.12
  9
$DIMCEN
 40
0.0
  9
$DIMTSZ
 40
0.0
  9
$DIMTOL
 70
     0
  9
$DIMLIM
 70
     0
  9
$DIMTIH
 70
     1
  9
$DIMTOH
 70
     1
  9
$DIMSE1
 70
     0
  9
$DIMSE2
 70
     0
  9
$DIMTAD
 70
     0
  9
$DIMZIN
 70
     7
  9
$DIMBLK
  1

  9
$DIMASO
 70
     0
  9
$DIMSHO
 70
     0
  9
$DIMPOST
  1

  9
$DIMAPOST
  1
mm
  9
$DIMALT
 70
     0
  9
$DIMALTD
 70
     2
  9
$DIMALTF
 40
25.399999999999999
  9
$DIMLFAC
 40
1.0
  9
$DIMTOFL
 70
     0
  9
$DIMTVP
 40
0.0
  9
$DIMTIX
 70
     0
  9
$DIMSOXD
 70
     0
  9
$DIMSAH
 70
     0
  9
$DIMBLK1
  1

  9
$DIMBLK2
  1

  9
$DIMSTYLE
  2
AM_ANSI
  9
$DIMCLRD
 70
   256
  9
$DIMCLRE
 70
   256
  9
$DIMCLRT
 70
     2
  9
$DIMTFAC
 40
0.71
  9
$DIMGAP
 40
0.06
  9
$LUNITS
 70
     2
  9
$LUPREC
 70
     2
  9
$SKETCHINC
 40
0.1
  9
$FILLETRAD
 40
0.0
  9
$AUNITS
 70
     0
  9
$AUPREC
 70
     2
  9
$MENU
  1
\acad12\support\cnc
  9
$ELEVATION
 40
0.0
  9
$PELEVATION
 40
0.0
  9
$THICKNESS
 40
0.0
  9
$LIMCHECK
 70
     0
  9
$BLIPMODE
 70
     0
  9
$CHAMFERA
 40
0.7
  9
$CHAMFERB
 40
0.7
  9
$SKPOLY
 70
     0
  9
$TDCREATE
 40
2450010.9382214118
  9
$TDUPDATE
 40
2454699.5370420492
  9
$TDINDWG
 40
0.5256549653
  9
$TDUSRTIMER
 40
0.5256256597
  9
$USRTIMER
 70
     1
  9
$ANGBASE
 50
0.0
  9
$ANGDIR
 70
     0
  9
$PDMODE
 70
     2
  9
$PDSIZE
 40
10.0
  9
$PLINEWID
 40
0.6400000000000004
  9
$COORDS
 70
     1
  9
$SPLFRAME
 70
     0
  9
$SPLINETYPE
 70
     6
  9
$SPLINESEGS
 70
     8
  9
$ATTDIA
 70
     1
  9
$ATTREQ
 70
     1
  9
$HANDLING
 70
     1
  9
$HANDSEED
  5
291B
  9
$SURFTAB1
 70
     6
  9
$SURFTAB2
 70
     6
  9
$SURFTYPE
 70
     6
  9
$SURFU
 70
     6
  9
$SURFV
 70
     6
  9
$UCSNAME
  2

  9
$UCSORG
 10
0.0
 20
0.0
 30
0.0
  9
$UCSXDIR
 10
1.0
 20
0.0
 30
0.0
  9
$UCSYDIR
 10
0.0
 20
1.0
 30
0.0
  9
$PUCSNAME
  2

  9
$PUCSORG
 10
0.0
 20
0.0
 30
0.0
  9
$PUCSXDIR
 10
1.0
 20
0.0
 30
0.0
  9
$PUCSYDIR
 10
0.0
 20
1.0
 30
0.0
  9
$USERI1
 70
     0
  9
$USERI2
 70
     0
  9
$USERI3
 70
     0
  9
$USERI4
 70
     0
  9
$USERI5
 70
     0
  9
$USERR1
 40
0.0
  9
$USERR2
 40
0.0
  9
$USERR3
 40
0.0
  9
$USERR4
 40
0.0
  9
$USERR5
 40
0.0
  9
$WORLDVIEW
 70
     1
  9
$SHADEDGE
 70
     3
  9
$SHADEDIF
 70
    70
  9
$TILEMODE
 70
     1
  9
$MAXACTVP
 70
    16
  9
$PLIMCHECK
 70
     0
  9
$PEXTMIN
 10
1.0000000000000000E+020
 20
1.0000000000000000E+020
 30
1.0000000000000000E+020
  9
$PEXTMAX
 10
-1.0000000000000000E+020
 20
-1.0000000000000000E+020
 30
-1.0000000000000000E+020
  9
$PLIMMIN
 10
0.0
 20
0.0
  9
$PLIMMAX
 10
12.0
 20
9.0
  9
$UNITMODE
 70
     0
  9
$VISRETAIN
 70
     0
  9
$PLINEGEN
 70
     0
  9
$PSLTSCALE
 70
     0
  0
ENDSEC
  0
SECTION
  2
TABLES
  0
TABLE
  2
VPORT
 70
     1
  0
VPORT
  2
*ACTIVE
 70
     0
 10
0.0
 20
0.0
 11
1.0
 21
1.0
 12
2407.3871684469459
 22
903.9177994075593
 13
0.0
 23
0.0
 14
25.0
 24
25.0
 15
100.0
 25
100.0
 16
0.0
 26
0.0
 36
1.0
 17
0.0
 27
0.0
 37
0.0
 40
1946.561355418736
 41
1.5308953341740219
 42
50.0
 43
0.0
 44
0.0
 50
0.0
 51
0.0
 71
     0
 72
   100
 73
     1
 74
     0
 75
     0
 76
     0
 77
     0
 78
     1
  0
ENDTAB
  0
TABLE
  2
LTYPE
 70
    16
  0
LTYPE
  2
CONTINUOUS
 70
     0
  3
Solid line
 72
    65
 73
     0
 40
0.0
  0
LTYPE
  2
HIDDEN
 70
     0
  3
Hidden __ __ __ __ __ __ __ __ __ __ __ __ __ _
 72
    65
 73
     2
 40
0.375
 49
0.25
 49
-0.125
  0
LTYPE
  2
PHANTOM2
 70
     0
  3
Phantom (.5x) ___ _ _ ___ _ _ ___ _ _ ___ _ _
 72
    65
 73
     6
 40
1.25
 49
0.625
 49
-0.125
 49
0.125
 49
-0.125
 49
0.125
 49
-0.125
  0
LTYPE
  2
CENTER
 70
     0
  3
Center ____ _ ____ _ ____ _ ____ _ ____ _ ____
 72
    65
 73
     4
 40
2.0
 49
1.25
 49
-0.25
 49
0.25
 49
-0.25
  0
LTYPE
  2
AM_ISO02W050
 70
     0
  3
__ __ __ __ __ __ __ __ __ __ __ __ __ __ __
 72
    65
 73
     2
 40
7.5
 49
6.0
 49
-1.5
  0
LTYPE
  2
AM_ISO08W050
 70
     0
  3
____ . ____ . ____ . ____ . ____ . ____ . ____
 72
    65
 73
     4
 40
18.0
 49
12.0
 49
-1.5
 49
3.0
 49
-1.5
  0
LTYPE
  2
AM_ISO09W050
 70
     0
  3
_____ . . _____ . . _____ . . ____ .. ____
 72
    65
 73
     6
 40
22.5
 49
12.0
 49
-1.5
 49
3.0
 49
-1.5
 49
3.0
 49
-1.5
  0
LTYPE
  2
AMCONSTR
 70
     0
  3
_______________________
 72
    65
 73
     2
 40
9999.0
 49
9999.0
 49
0.0
  0
LTYPE
  2
AM_ISO08W050X2
 70
     0
  3
__ . __ . __ . __ . __ . __
 72
    65
 73
     4
 40
9.0
 49
6.0
 49
-0.75
 49
1.5
 49
-0.75
  0
LTYPE
  2
AM_ISO02W050X2
 70
     0
  3
 _ _ _ _ _ _ _ _ _ _ _ _
 72
    65
 73
     2
 40
3.75
 49
3.0
 49
-0.75
  0
LTYPE
  2
AMZIGZAG
 70
     0
  3
/\/-/\/-/\/-/\/-/\/-/\/
 72
    65
 73
     2
 40
11.0001
 49
0.0001
 49
-11.0
  0
LTYPE
  2
CENTER2
 70
     0
  3
Center (.5x) ___ _ ___ _ ___ _ ___ _ ___ _ ___
 72
    65
 73
     4
 40
1.125
 49
0.75
 49
-0.125
 49
0.125
 49
-0.125
  0
LTYPE
  2
HIDDEN2
 70
     0
  3
Hidden (.5x) _ _ _ _ _ _ _ _ _ _ _ _ _ _ _ _ _
 72
    65
 73
     2
 40
0.1875
 49
0.125
 49
-0.0625
  0
LTYPE
  2
AMZIGZAG2
 70
     0
  3
/\/-/\/-/\/-/\/-/\/-/\/
 72
    65
 73
     2
 40
0.4401
 49
0.0001
 49
-0.4400000000000001
  0
LTYPE
  2
ACANSTGB
 70
     0
  3
__ . . __ . .
 72
    65
 73
     6
 40
0.35433070866
 49
0.15748031496
 49
-0.03937007874
 49
0.03937007874
 49
-0.03937007874
 49
0.03937007874
 49
-0.03937007874
  0
LTYPE
  2
ACANSTGL
 70
     0
  3
_ _ _ _ _
 72
    65
 73
     2
 40
0.11811023622
 49
0.07874015748
 49
-0.03937007874
  0
ENDTAB
  0
TABLE
  2
LAYER
 70
     5
  0
LAYER
  2
0
 70
     0
 62
     7
  6
CONTINUOUS
  0
LAYER
  2
DIM
 70
     0
 62
     7
  6
CONTINUOUS
  0
LAYER
  2
OUTLINE
 70
     0
 62
     7
  6
CONTINUOUS
  0
LAYER
  2
TEXT
 70
     0
 62
   100
  6
CONTINUOUS
  0
LAYER
  2
OVERLAY-A3
 70
     0
 62
     7
  6
CONTINUOUS
  0
ENDTAB
  0
TABLE
  2
STYLE
 70
     8
  0
STYLE
  2
STANDARD
 70
     0
 40
0.0
 41
1.0
 50
0.0
 71
     0
 42
0.2
  3
txt
  4

  0
STYLE
  2
ANNOTATIVE
 70
     0
 40
0.0
 41
1.0
 50
0.0
 71
     0
 42
0.2
  3
txt
  4

  0
STYLE
  2
TITLE3
 70
     0
 40
30.0
 41
1.0
 50
0.0
 71
     0
 42
30.0
  3
SIMPLEX
  4

  0
STYLE
  2
SIMPLEX
 70
     0
 40
30.0
 41
1.0
 50
0.0
 71
     0
 42
25.0
  3
SIMPLEX.shx
  4

  0
STYLE
  2
TITLE5
 70
     0
 40
50.0
 41
1.0
 50
0.0
 71
     0
 42
50.0
  3
SIMPLEX
  4

  0
STYLE
  2

 70
     1
 40
0.0
 41
1.0
 50
0.0
 71
     0
 42
30.0
  3
genltshp.shx
  4

  0
STYLE
  2
ACANSTS
 70
     0
 40
1.0
 41
1.0
 50
0.0
 71
     0
 42
30.0
  3
romans.shx
  4

  0
STYLE
  2
ACANSGDT
 70
     0
 40
0.0
 41
1.0
 50
0.0
 71
     0
 42
30.0
  3
amgdt.shx
  4

  0
ENDTAB
  0
TABLE
  2
VIEW
 70
     0
  0
ENDTAB
  0
TABLE
  2
UCS
 70
     0
  0
ENDTAB
  0
TABLE
  2
APPID
 70
    10
  0
APPID
  2
ACAD
 70
     0
  0
APPID
  2
ACADANNOTATIVE
 70
     0
  0
APPID
  2
ACAD_MLEADERVER
 70
     0
  0
APPID
  2
MCAD_NO_VIS
 70
     0
  0
APPID
  2
ACAD_TEMP_GRAPHIC
 70
     0
  0
APPID
  2
AD_DRAW
 70
     0
  0
APPID
  2
ACATTRIBSERVICES
 70
     0
  0
APPID
  2
DESIGNERASSEMBLIES
 70
     0
  0
APPID
  2
ACADM_DIM_EDIT
 70
     0
  0
APPID
  2
AMDT_DM_ADJ
 70
     0
  0
ENDTAB
  0
TABLE
  2
DIMSTYLE
 70
     8
  0
DIMSTYLE
  2
STANDARD
 70
     0
  3

  4

  5

  6

  7

 40
1.0
 41
0.18
 42
0.0625
 43
0.38
 44
0.18
 45
0.0
 46
0.0
 47
0.0
 48
0.0
140
0.18
141
0.09
142
0.0
143
25.399999999999999
144
1.0
145
0.0
146
1.0
147
0.09
 71
     0
 72
     0
 73
     1
 74
     1
 75
     0
 76
     0
 77
     0
 78
     0
170
     0
171
     2
172
     0
173
     0
174
     0
175
     0
176
     0
177
     0
178
     0
  0
DIMSTYLE
  2
ANNOTATIVE
 70
     0
  3

  4

  5

  6

  7

 40
1.0
 41
0.18
 42
0.0625
 43
0.38
 44
0.18
 45
0.0
 46
0.0
 47
0.0
 48
0.0
140
0.18
141
0.09
142
0.0
143
25.399999999999999
144
1.0
145
0.0
146
1.0
147
0.09
 71
     0
 72
     0
 73
     1
 74
     1
 75
     0
 76
     0
 77
     0
 78
     0
170
     0
171
     2
172
     0
173
     0
174
     0
175
     0
176
     0
177
     0
178
     0
  0
DIMSTYLE
  2
AM_ANSI
 70
     0
  3

  4
mm
  5

  6

  7

 40
1.0
 41
0.12
 42
0.05
 43
0.5
 44
0.1
 45
0.0
 46
0.0
 47
0.1
 48
0.1
140
0.12
141
0.0
142
0.0
143
25.399999999999999
144
1.0
145
0.0
146
0.71
147
0.06
 71
     0
 72
     0
 73
     1
 74
     1
 75
     0
 76
     0
 77
     0
 78
     7
170
     0
171
     2
172
     0
173
     0
174
     0
175
     0
176
   256
177
   256
178
     2
  0
DIMSTYLE
  2
AM_ANSI$3
 70
     0
  3

  4
mm
  5

  6

  7

 40
1.0
 41
0.12
 42
0.05
 43
0.5
 44
0.1
 45
0.0
 46
0.0
 47
0.1
 48
0.1
140
0.12
141
0.0
142
0.0
143
25.399999999999999
144
1.0
145
0.0
146
0.71
147
0.06
 71
     0
 72
     0
 73
     1
 74
     1
 75
     0
 76
     0
 77
     0
 78
     7
170
     0
171
     2
172
     0
173
     0
174
     0
175
     0
176
   256
177
   256
178
     2
  0
DIMSTYLE
  2
AM_ANSI$4
 70
     0
  3

  4
mm
  5

  6

  7

 40
1.0
 41
0.12
 42
0.05
 43
0.5
 44
0.1
 45
0.0
 46
0.0
 47
0.1
 48
0.1
140
0.12
141
0.0
142
0.0
143
25.399999999999999
144
1.0
145
0.0
146
0.71
147
0.06
 71
     0
 72
     0
 73
     1
 74
     1
 75
     0
 76
     0
 77
     0
 78
     7
170
     0
171
     2
172
     0
173
     0
174
     0
175
     0
176
   256
177
   256
178
     2
  0
DIMSTYLE
  2
AM_ANSI$7
 70
     0
  3

  4
mm
  5

  6

  7

 40
1.0
 41
0.12
 42
0.05
 43
0.5
 44
0.1
 45
0.0
 46
0.0
 47
0.1
 48
0.1
140
0.12
141
0.0
142
0.0
143
25.399999999999999
144
1.0
145
0.0
146
0.71
147
0.06
 71
     0
 72
     0
 73
     1
 74
     1
 75
     0
 76
     0
 77
     0
 78
     7
170
     0
171
     2
172
     0
173
     0
174
     0
175
     0
176
   256
177
   256
178
     2
  0
DIMSTYLE
  2
AM_ANSI$SF
 70
     0
  3

  4
mm
  5

  6

  7

 40
1.0
 41
0.12
 42
0.05
 43
0.5
 44
0.1
 45
0.0
 46
0.0
 47
0.1
 48
0.1
140
0.12
141
0.0
142
0.0
143
25.399999999999999
144
1.0
145
0.0
146
0.71
147
0.06
 71
     0
 72
     0
 73
     1
 74
     1
 75
     1
 76
     1
 77
     0
 78
     7
170
     0
171
     2
172
     0
173
     0
174
     0
175
     0
176
   256
177
   256
178
     2
  0
DIMSTYLE
  2
AM_ANSI$SH
 70
     0
  3

  4
mm
  5

  6
GENAXEH
  7

 40
1.0
 41
0.12
 42
0.05
 43
0.5
 44
0.1
 45
0.0
 46
0.0
 47
0.1
 48
0.1
140
0.12
141
0.0
142
0.0
143
25.399999999999999
144
1.0
145
0.0
146
0.71
147
0.06
 71
     0
 72
     0
 73
     1
 74
     1
 75
     1
 76
     1
 77
     0
 78
     7
170
     0
171
     2
172
     0
173
     1
174
     0
175
     0
176
   256
177
   256
178
     2
  0
ENDTAB
  0
ENDSEC
  0
SECTION
  2
BLOCKS
  0
BLOCK
  8
0
  2
$MODEL_SPACE
 70
     0
 10
0.0
 20
0.0
 30
0.0
  3
$MODEL_SPACE
  1

  0
ENDBLK
  5
2843
  8
0
  0
BLOCK
 67
     1
  8
0
  2
$PAPER_SPACE
 70
     0
 10
0.0
 20
0.0
 30
0.0
  3
$PAPER_SPACE
  1

  0
ENDBLK
  5
283F
 67
     1
  8
0
  0
BLOCK
  8
0
  2
NEW_BLOCK
 70
     0
 10
0.0
 20
0.0
 30
0.0
  3
NEW_BLOCK
  1

  0
TEXT
  5
26BE
  8
TEXT
 10
27.285946821803002
 20
25.27142175952417
 30
0.0
 40
40.0
  1
available on request
  7
TITLE3
  0
TEXT
  5
26BF
  8
TEXT
 10
27.285946821803002
 20
93.842850330952714
 30
0.0
 40
40.0
  1
Certified dimensions
  7
TITLE3
  0
TEXT
  5
26C0
  8
TEXT
 10
27.285946821803002
 20
162.4142789023812
 30
0.0
 40
40.0
  1
without notice or obligation.
  7
TITLE3
  0
TEXT
  5
26C1
  8
TEXT
 10
27.285946821803002
 20
230.9857074738097
 30
0.0
 40
40.0
  1
specifications at any time
  7
TITLE3
  0
TEXT
  5
26C2
  8
TEXT
 10
27.285946821803002
 20
299.55713604523839
 30
0.0
 40
40.0
  1
the right to change 
  7
TITLE3
  0
TEXT
  5
26C3
  8
TEXT
 10
27.285946821803002
 20
436.69999318809488
 30
0.0
 40
40.0
  1
NOTE
  7
TITLE3
  0
TEXT
  5
26C4
  8
TEXT
 10
27.285946821803002
 20
368.12856461666672
 30
0.0
 40
40.0
  1
The manufacturer reserves
  7
TITLE3
  0
ENDBLK
  5
26C5
  8
0
  0
BLOCK
  8
0
  2
NEW_BLOCK0
 70
     0
 10
0.0
 20
0.0
 30
0.0
  3
NEW_BLOCK0
  1

  0
INSERT
  5
26C8
  8
DIM
  2
NEW_BLOCK
 10
13.048098169647799
 20
6.0725618626865971
 30
0.0
 41
0.7000000000000455
 42
0.6999999999999993
 43
0.7
  0
ENDBLK
  5
26C9
  8
0
  0
BLOCK
  8
0
  2
GENAXEH
 70
     0
 10
0.0
 20
0.0
 30
0.0
  3
GENAXEH
  1

  0
LINE
  5
28E3
  8
0
 10
-1.0
 20
0.0
 30
0.0
 11
1.0
 21
0.0
 31
0.0
  0
ENDBLK
  5
28E5
  8
0
  0
ENDSEC
  0
SECTION
  2
ENTITIES
  0
TEXT
  5
26CA
  8
TEXT
 10
3198.3333333333339
 20
220.4815951529726
 30
0.0
 40
50.0
  1
ISU 160
  7
TITLE5
 72
     1
 11
3340.0
 21
220.4815951529726
 31
0.0
  0
LINE
  5
26CB
  8
OUTLINE
 10
1058.277898652872
 20
495.15279887165559
 30
0.0
 11
1617.457098787796
 21
495.15279887165559
 31
0.0
  0
LINE
  5
26CC
  8
OUTLINE
 10
1019.277898652872
 20
741.15279887165525
 30
0.0
 11
1019.277898652872
 21
511.05279887165563
 31
0.0
  0
LINE
  5
26CD
  8
OUTLINE
 10
1054.277898652877
 20
750.15279887165548
 30
0.0
 11
1054.277898652872
 21
499.15279887165559
 31
0.0
  0
LINE
  5
26CE
  8
OUTLINE
 10
1019.277898652872
 20
741.15279887165525
 30
0.0
 11
1054.277898652874
 21
741.15279887165548
 31
0.0
  0
ARC
  5
26CF
  8
OUTLINE
 10
1058.277898652872
 20
499.15279887165559
 30
0.0
 40
4.0
 50
179.99999999999901
 51
270.0
  0
LINE
  5
26D0
  8
OUTLINE
 10
1019.277898652872
 20
511.05279887165563
 30
0.0
 11
1054.2778986528731
 21
511.05279887165563
 31
0.0
  0
ARC
  5
26D1
  8
OUTLINE
 10
1683.3778986528721
 20
535.98721371733347
 30
0.0
 40
15.0
 50
290.86934779483357
 51
359.99999999999881
  0
LINE
  5
26D2
  8
OUTLINE
 10
1691.3778986528721
 20
551.15279887165536
 30
0.0
 11
1698.3778986528721
 21
551.15279887165536
 31
0.0
  0
LINE
  5
26D3
  8
OUTLINE
 10
1691.377898652873
 20
629.15279887165548
 30
0.0
 11
1698.3778986528721
 21
629.15279887165548
 31
0.0
  0
LINE
  5
26D4
  8
OUTLINE
 10
1610.722296993124
 20
750.15279887165559
 30
0.0
 11
1698.3778986528739
 21
650.1527988716548
 31
0.0
  0
LINE
  5
26D5
  8
OUTLINE
 10
1691.377898652873
 20
629.15279887165548
 30
0.0
 11
1691.3778986528721
 21
551.15279887165536
 31
0.0
  0
LINE
  5
26D6
  8
OUTLINE
 10
1688.7214711399561
 20
521.9712858823566
 30
0.0
 11
1619.2382896168251
 21
495.48082292666282
 31
0.0
  0
ARC
  5
26D7
  8
OUTLINE
 10
1617.457098787796
 20
500.15279887165559
 30
0.0
 40
5.0
 50
270.0
 51
290.86934779483357
  0
LINE
  5
26D8
  8
OUTLINE
 10
1698.3778986528739
 20
650.1527988716548
 30
0.0
 11
1698.3778986528721
 21
535.98721371733268
 31
0.0
  0
TEXT
  5
26D9
  8
TEXT
 10
2949.3822691677142
 20
110.0
 30
0.0
 40
30.0
  1
09-05-08
 41
0.674698795180723
  7
TITLE3
 72
     5
 11
3109.3822691677142
 21
110.0
 31
0.0
  0
TEXT
  5
26DA
  8
OVERLAY-A3
 10
2845.967312649921
 20
110.8312138601009
 30
0.0
 40
24.0
  1
Date
  7
SIMPLEX
  0
TEXT
  5
26DB
  8
OVERLAY-A3
 10
3746.1111923736021
 20
129.50330202341121
 30
0.0
 40
24.0
  1
Revision
 41
0.7812095035934773
  7
SIMPLEX
 72
     5
 11
3851.4628740010648
 21
129.50330202341121
 31
0.0
  0
LINE
  5
26DC
  8
OVERLAY-A3
 10
3734.49134999016
 20
20.842492848317129
 30
0.0
 11
3734.49134999016
 21
168.2686557085465
 31
0.0
  0
LINE
  5
26DD
  8
OVERLAY-A3
 10
2819.3515294571471
 20
323.13802517646468
 30
0.0
 11
2819.3515294571471
 21
20.842492848317129
 31
0.0
  0
LINE
  5
26DE
  8
OVERLAY-A3
 10
3416.9136780130939
 20
20.842492848317129
 30
0.0
 11
3416.9136780130939
 21
168.2686557085465
 31
0.0
  0
LINE
  5
26DF
  8
OVERLAY-A3
 10
3416.9136780130939
 20
93.312599269463774
 30
0.0
 11
2819.3515294571471
 21
93.312599269463774
 31
0.0
  0
LINE
  5
26E0
  8
OVERLAY-A3
 10
3861.5754652378419
 20
168.2686557085465
 30
0.0
 11
2819.3515294571471
 21
168.2686557085465
 31
0.0
  0
LINE
  5
26E1
  8
OVERLAY-A3
 10
2819.3515294571471
 20
20.842492848317129
 30
0.0
 11
3861.2779580594911
 21
20.842492848317129
 31
0.0
  0
LINE
  5
26E2
  8
OVERLAY-A3
 10
3861.2779580594911
 20
20.842492848317129
 30
0.0
 11
3861.2779580594911
 21
323.13802517646468
 31
0.0
  0
LINE
  5
26E3
  8
OVERLAY-A3
 10
3861.2779580594911
 20
323.13802517646468
 30
0.0
 11
2819.3515294571471
 21
323.13802517646468
 31
0.0
  0
TEXT
  5
26E4
  8
OVERLAY-A3
 10
2844.4832191031091
 20
47.922488065357669
 30
0.0
 40
20.0
  1
Scale
 41
1.3701747965659721
  7
SIMPLEX
 72
     5
 11
2944.9627041846138
 21
47.922488065357669
 31
0.0
  0
TEXT
  5
26E5
  8
OVERLAY-A3
 10
3474.8591236007978
 20
128.8934315067097
 30
0.0
 40
20.0
  1
Drawing No.
  7
SIMPLEX
 72
     2
 11
3649.1448378865121
 21
128.8934315067097
 31
0.0
  0
LINE
  5
26E6
  8
OVERLAY-A3
 10
924.87541981267452
 20
0.0
 30
0.0
 11
3890.0
 21
0.0
 31
0.0
  0
LINE
  5
26E7
  8
OVERLAY-A3
 10
3890.0
 20
0.0
 30
0.0
 11
3890.0
 21
1807.6740986117361
 31
0.0
  0
LINE
  5
26E8
  8
OVERLAY-A3
 10
3890.0
 20
1807.6740986117361
 30
0.0
 11
924.87541981267452
 21
1807.6740986117361
 31
0.0
  0
LINE
  5
26E9
  8
OVERLAY-A3
 10
924.87541981267452
 20
1807.6740986117361
 30
0.0
 11
924.87541981267452
 21
0.0
 31
0.0
  0
TEXT
  5
26EA
  8
TEXT
 10
2971.4096586529922
 20
49.06194545662764
 30
0.0
 40
30.0
  1
1:10
  7
TITLE3
  0
TEXT
  5
26EB
  8
TEXT
 10
3489.8826051158062
 20
58.60630023553675
 30
0.0
 40
30.0
  1
ISU160
  7
TITLE3
  0
LINE
  5
26EC
  8
OUTLINE
  6
HIDDEN
 10
1363.643886961584
 20
659.7214726345486
 30
0.0
 11
1224.235383624298
 21
671.91813627567774
 31
0.0
  0
LINE
  5
26ED
  8
OUTLINE
  6
HIDDEN
 10
1370.713594713211
 20
659.10295335183946
 30
0.0
 11
1372.8060858381691
 21
579.6181169339535
 31
0.0
  0
ARC
  5
26EE
  8
OUTLINE
  6
HIDDEN
 10
1215.224085259636
 20
571.31046674590891
 30
0.0
 40
70.21573897638622
 50
292.93851018982389
 51
355.8243587642749
  0
ARC
  5
26EF
  8
OUTLINE
  6
HIDDEN
 10
1291.628903590376
 20
581.70110092989648
 30
0.0
 40
5.0
 50
85.000000000000014
 51
175.00000000000051
  0
LINE
  5
26F0
  8
OUTLINE
  6
HIDDEN
 10
1286.647930099914
 20
582.1368796436343
 30
0.0
 11
1285.253438215954
 21
566.19776447416621
 31
0.0
  0
ARC
  5
26F1
  8
OUTLINE
  6
HIDDEN
 10
1217.6031869709891
 20
583.88226897590243
 30
0.0
 40
88.285332664444937
 50
85.691750983317931
 51
186.5447721909772
  0
ARC
  5
26F2
  8
OUTLINE
  6
HIDDEN
 10
1216.2122301786519
 20
580.83065575544651
 30
0.0
 40
87.0
 50
184.6340592374828
 51
242.8159190218104
  0
LINE
  5
26F3
  8
OUTLINE
  6
HIDDEN
 10
1176.3701708346739
 20
503.44878771456962
 30
0.0
 11
1242.9034225934579
 21
506.66226097604959
 31
0.0
  0
CIRCLE
  5
26F4
  8
OUTLINE
  6
HIDDEN
 10
1215.999165934644
 20
577.77773730600643
 30
0.0
 40
41.0
  0
LINE
  5
26F5
  8
OUTLINE
  6
HIDDEN
 10
1365.352188594004
 20
672.76543164357952
 30
0.0
 11
1363.2943388179719
 21
672.71005086546381
 31
0.0
  0
LINE
  5
26F6
  8
OUTLINE
  6
HIDDEN
 10
1367.9841327768279
 20
572.78906838086061
 30
0.0
 11
1365.984856637439
 21
572.73526393431735
 31
0.0
  0
LINE
  5
26F7
  8
OUTLINE
  6
HIDDEN
 10
1367.7754793590871
 20
580.05823797153232
 30
0.0
 11
1372.8060858381691
 21
579.6181169339535
 31
0.0
  0
LINE
  5
26F8
  8
OUTLINE
  6
HIDDEN
 10
1365.352188594004
 20
672.76543164357952
 30
0.0
 11
1367.9841327768279
 21
572.78906838086061
 31
0.0
  0
LINE
  5
26F9
  8
OUTLINE
  6
HIDDEN
 10
1365.7830899629039
 20
580.23254945702831
 30
0.0
 11
1292.0646823041141
 21
586.68207442035418
 31
0.0
  0
LINE
  5
26FA
  8
OUTLINE
  6
HIDDEN
 10
1370.713594713211
 20
659.10295335183946
 30
0.0
 11
1365.700315841975
 21
659.54155842016735
 31
0.0
  0
LINE
  5
26FB
  8
OUTLINE
  6
HIDDEN
 10
1363.2943388179719
 20
672.71005086546381
 30
0.0
 11
1365.984856637439
 21
572.73526393431735
 31
0.0
  0
INSERT
  5
26FC
  8
TEXT
  2
NEW_BLOCK0
 10
953.74901223723623
 20
21.706545417137921
 30
0.0
 41
0.75
 42
0.75
 43
0.75
  0
LINE
  5
26FD
  8
OUTLINE
 10
1821.6021508607039
 20
495.15279887165468
 30
0.0
 11
3681.6021508607032
 21
495.15279887165559
 31
0.0
  0
LINE
  5
26FE
  8
OUTLINE
 10
1821.6021508607039
 20
495.15279887165468
 30
0.0
 11
1821.602150860703
 21
750.1527988716548
 31
0.0
  0
LINE
  5
26FF
  8
OUTLINE
 10
3681.6021508607032
 20
495.15279887165559
 30
0.0
 11
3681.6021508607032
 21
750.15279887165559
 31
0.0
  0
LINE
  5
2700
  8
OUTLINE
 10
1871.6021508607039
 20
558.05279887165455
 30
0.0
 11
1871.602150860703
 21
636.05279887165477
 31
0.0
  0
LINE
  5
2701
  8
OUTLINE
 10
3631.6021508607032
 20
558.05279887165455
 30
0.0
 11
3631.6021508607032
 21
636.05279887165557
 31
0.0
  0
LINE
  5
2702
  8
OUTLINE
 10
1871.602150860703
 20
636.05279887165477
 30
0.0
 11
3631.6021508607032
 21
636.05279887165557
 31
0.0
  0
LINE
  5
2703
  8
OUTLINE
 10
1871.6021508607039
 20
558.05279887165455
 30
0.0
 11
3631.6021508607032
 21
558.05279887165455
 31
0.0
  0
LINE
  5
2704
  8
OUTLINE
 10
1821.6021508607039
 20
1037.003205764071
 30
0.0
 11
1821.6021508607
 21
1632.0032057640699
 31
0.0
  0
LINE
  5
2705
  8
OUTLINE
 10
3681.6021508607032
 20
1037.003205764071
 30
0.0
 11
3681.6021508607032
 21
1632.0032057640719
 31
0.0
  0
LINE
  5
2706
  8
OUTLINE
 10
1851.602150860705
 20
1007.003205764072
 30
0.0
 11
3651.6021508607032
 21
1007.003205764072
 31
0.0
  0
LINE
  5
2707
  8
OUTLINE
 10
1853.602150860703
 20
1697.0032057640719
 30
0.0
 11
3649.6021508607041
 21
1697.0032057640719
 31
0.0
  0
LINE
  5
2708
  8
OUTLINE
 10
1851.6021508607
 20
1662.003205764071
 30
0.0
 11
3651.6021508607032
 21
1662.0032057640719
 31
0.0
  0
ARC
  5
2709
  8
OUTLINE
 10
1851.602150860705
 20
1037.003205764071
 30
0.0
 40
30.0
 50
180.0000000000002
 51
270.0
  0
ARC
  5
270A
  8
OUTLINE
 10
3651.6021508607032
 20
1037.003205764071
 30
0.0
 40
30.0
 50
270.0
 51
359.99999999999972
  0
ARC
  5
270B
  8
OUTLINE
 10
3651.6021508607032
 20
1632.0032057640719
 30
0.0
 40
30.0
 50
359.99999999999972
 51
90.0
  0
ARC
  5
270C
  8
OUTLINE
 10
1851.6021508607
 20
1632.0032057640699
 30
0.0
 40
30.0
 50
90.000000000000057
 51
180.00000000000031
  0
LINE
  5
270D
  8
OUTLINE
 10
1853.602150860703
 20
1007.003205764072
 30
0.0
 11
1853.602150860703
 21
1697.0032057640719
 31
0.0
  0
LINE
  5
270E
  8
OUTLINE
 10
1889.602150860703
 20
1046.0032057640719
 30
0.0
 11
1889.602150860703
 21
1662.0032057640719
 31
0.0
  0
LINE
  5
270F
  8
OUTLINE
 10
3649.6021508607041
 20
1007.003205764072
 30
0.0
 11
3649.6021508607041
 21
1697.0032057640719
 31
0.0
  0
LINE
  5
2710
  8
OUTLINE
 10
3613.6021508607032
 20
1046.0032057640719
 30
0.0
 11
3613.6021508607032
 21
1662.0032057640719
 31
0.0
  0
CIRCLE
  5
2711
  8
OUTLINE
 10
1871.602150860703
 20
1252.003205764071
 30
0.0
 40
6.0
  0
CIRCLE
  5
2712
  8
OUTLINE
 10
1871.602150860703
 20
1527.003205764071
 30
0.0
 40
6.0
  0
CIRCLE
  5
2713
  8
OUTLINE
 10
3631.6021508607032
 20
1252.003205764071
 30
0.0
 40
6.0
  0
CIRCLE
  5
2714
  8
OUTLINE
 10
3631.6021508607032
 20
1527.003205764071
 30
0.0
 40
6.0
  0
LINE
  5
2715
  8
OUTLINE
 10
1853.602150860703
 20
1046.0032057640719
 30
0.0
 11
3649.6021508607041
 21
1046.0032057640719
 31
0.0
  0
LINE
  5
2716
  8
OUTLINE
 10
3599.1021508607041
 20
1697.0032057640719
 30
0.0
 11
3599.1021508607041
 21
1722.003205764071
 31
0.0
  0
LINE
  5
2717
  8
OUTLINE
 10
3618.1021508607032
 20
1697.0032057640719
 30
0.0
 11
3618.1021508607032
 21
1722.003205764071
 31
0.0
  0
LINE
  5
2718
  8
OUTLINE
 10
3599.1021508607041
 20
1722.003205764071
 30
0.0
 11
3618.1021508607032
 21
1722.003205764071
 31
0.0
  0
LINE
  5
2719
  8
DIM
 10
3669.6021508607032
 20
1007.003205764072
 30
0.0
 11
3821.22023011188
 21
1007.003205764072
 31
0.0
  0
LINE
  5
271A
  8
DIM
 10
3669.6021508607032
 20
1697.0032057640719
 30
0.0
 11
3821.22023011188
 21
1697.0032057640719
 31
0.0
  0
LINE
  5
271B
  8
DIM
 10
3801.2202301118791
 20
1037.003205764071
 30
0.0
 11
3801.2202301118791
 21
1293.431777192643
 31
0.0
  0
LINE
  5
271C
  8
DIM
 10
3801.2202301118791
 20
1667.003205764071
 30
0.0
 11
3801.2202301118791
 21
1410.5746343355011
 31
0.0
  0
SOLID
  5
271D
  8
DIM
 10
3796.22023011188
 20
1037.003205764071
 30
0.0
 11
3806.2202301118791
 21
1037.003205764071
 31
0.0
 12
3801.2202301118791
 22
1007.003205764072
 32
0.0
 13
3801.2202301118791
 23
1007.003205764072
 33
0.0
  0
SOLID
  5
271E
  8
DIM
 10
3796.22023011188
 20
1667.003205764071
 30
0.0
 11
3806.2202301118791
 21
1667.003205764071
 31
0.0
 12
3801.2202301118791
 22
1697.0032057640719
 32
0.0
 13
3801.2202301118791
 23
1697.0032057640719
 33
0.0
  0
TEXT
  5
271F
  8
DIM
 10
3816.2202301118791
 20
1313.4317771926439
 30
0.0
 40
30.0
  1
690
 50
90.0
  7
SIMPLEX
  0
LINE
  5
2720
  8
DIM
 10
1871.602150860703
 20
1232.003205764071
 30
0.0
 11
1871.602150860703
 21
890.39975063072325
 31
0.0
  0
LINE
  5
2721
  8
DIM
 10
3631.6021508607032
 20
1232.003205764071
 30
0.0
 11
3631.6021508607032
 21
890.39975063072325
 31
0.0
  0
LINE
  5
2722
  8
DIM
 10
1901.602150860703
 20
910.39975063072325
 30
0.0
 11
2693.0307222892729
 21
910.39975063072325
 31
0.0
  0
LINE
  5
2723
  8
DIM
 10
3601.6021508607032
 20
910.39975063072325
 30
0.0
 11
2810.1735794321312
 21
910.39975063072325
 31
0.0
  0
SOLID
  5
2724
  8
DIM
 10
1901.602150860703
 20
915.39975063072325
 30
0.0
 11
1901.602150860703
 21
905.39975063072325
 31
0.0
 12
1871.602150860703
 22
910.39975063072325
 32
0.0
 13
1871.602150860703
 23
910.39975063072325
 33
0.0
  0
SOLID
  5
2725
  8
DIM
 10
3601.6021508607032
 20
915.39975063072325
 30
0.0
 11
3601.6021508607032
 21
905.39975063072325
 31
0.0
 12
3631.6021508607032
 22
910.39975063072325
 32
0.0
 13
3631.6021508607032
 23
910.39975063072325
 33
0.0
  0
TEXT
  5
2726
  8
DIM
 10
2701.6021508607032
 20
895.39975063072302
 30
0.0
 40
30.0
  1
1760
  7
SIMPLEX
  0
LINE
  5
2727
  8
DIM
 10
1833.602150860703
 20
1697.0032057640719
 30
0.0
 11
1655.2848199546811
 21
1697.0032057640719
 31
0.0
  0
LINE
  5
2728
  8
DIM
 10
1675.28481995468
 20
1727.0032057640719
 30
0.0
 11
1675.28481995468
 21
1757.0032057640719
 31
0.0
  0
SOLID
  5
2729
  8
DIM
 10
1670.28481995468
 20
1727.0032057640719
 30
0.0
 11
1680.28481995468
 21
1727.0032057640719
 31
0.0
 12
1675.28481995468
 22
1697.0032057640719
 32
0.0
 13
1675.28481995468
 23
1697.0032057640719
 33
0.0
  0
TEXT
  5
272A
  8
DIM
 10
1690.28481995468
 20
1576.2889200497859
 30
0.0
 40
30.0
  1
170
 50
90.0
  7
SIMPLEX
  0
LINE
  5
272B
  8
DIM
 10
1851.602150860703
 20
1527.003205764071
 30
0.0
 11
1655.2848199546811
 21
1527.003205764071
 31
0.0
  0
LINE
  5
272C
  8
DIM
 10
1851.602150860703
 20
1252.003205764071
 30
0.0
 11
1655.2848199546811
 21
1252.003205764071
 31
0.0
  0
LINE
  5
272D
  8
DIM
 10
1675.28481995468
 20
1497.0032057640699
 30
0.0
 11
1675.28481995468
 21
1448.074634335499
 31
0.0
  0
LINE
  5
272E
  8
DIM
 10
1675.28481995468
 20
1282.003205764071
 30
0.0
 11
1675.28481995468
 21
1330.931777192643
 31
0.0
  0
SOLID
  5
272F
  8
DIM
 10
1670.28481995468
 20
1497.0032057640699
 30
0.0
 11
1680.28481995468
 21
1497.0032057640699
 31
0.0
 12
1675.28481995468
 22
1527.003205764071
 32
0.0
 13
1675.28481995468
 23
1527.003205764071
 33
0.0
  0
SOLID
  5
2730
  8
DIM
 10
1670.28481995468
 20
1282.003205764071
 30
0.0
 11
1680.28481995468
 21
1282.003205764071
 31
0.0
 12
1675.28481995468
 22
1252.003205764071
 32
0.0
 13
1675.28481995468
 23
1252.003205764071
 33
0.0
  0
TEXT
  5
2731
  8
DIM
 10
1690.28481995468
 20
1350.931777192643
 30
0.0
 40
30.0
  1
275
 50
90.0
  7
SIMPLEX
  0
LINE
  5
2732
  8
DIM
 10
1821.6021508607039
 20
1017.003205764071
 30
0.0
 11
1821.6021508607039
 21
820.48973751017718
 31
0.0
  0
LINE
  5
2733
  8
DIM
 10
3681.6021508607032
 20
1017.003205764072
 30
0.0
 11
3681.6021508607032
 21
820.48973751017718
 31
0.0
  0
LINE
  5
2734
  8
DIM
 10
1851.602150860705
 20
840.48973751017729
 30
0.0
 11
2681.602150860705
 21
840.48973751017729
 31
0.0
  0
LINE
  5
2735
  8
DIM
 10
3651.6021508607032
 20
840.48973751017729
 30
0.0
 11
2821.6021508607032
 21
840.48973751017729
 31
0.0
  0
SOLID
  5
2736
  8
DIM
 10
1851.602150860705
 20
845.48973751017718
 30
0.0
 11
1851.602150860705
 21
835.48973751017718
 31
0.0
 12
1821.6021508607039
 22
840.48973751017729
 32
0.0
 13
1821.6021508607039
 23
840.48973751017729
 33
0.0
  0
SOLID
  5
2737
  8
DIM
 10
3651.6021508607032
 20
845.48973751017718
 30
0.0
 11
3651.6021508607032
 21
835.48973751017718
 31
0.0
 12
3681.6021508607032
 22
840.48973751017729
 32
0.0
 13
3681.6021508607032
 23
840.48973751017729
 33
0.0
  0
TEXT
  5
2738
  8
DIM
 10
2701.602150860705
 20
825.48973751017729
 30
0.0
 40
30.0
  1
1860
  7
SIMPLEX
  0
LINE
  5
2739
  8
OUTLINE
 10
1054.277898652876
 20
650.15279887165502
 30
0.0
 11
1698.3778986528739
 21
650.1527988716548
 31
0.0
  0
TEXT
  5
273A
  8
TEXT
 62
     7
 10
2605.2578671152451
 20
1332.383707986146
 30
0.0
 40
50.0
  1
ISU 160
  7
TITLE5
 72
     1
 11
2746.9245337819111
 21
1332.383707986146
 31
0.0
  0
LINE
  5
273B
  8
DIM
 10
2750.4717636510591
 20
1633.2197118703
 30
0.0
 11
2779.0477600027239
 21
1680.2237933626191
 31
0.0
  0
LINE
  5
273C
  8
DIM
 10
2750.4717636510591
 20
1633.2197118703
 30
0.0
 11
2721.8957672993961
 21
1680.2237933626191
 31
0.0
  0
LINE
  5
273D
  8
DIM
 10
2779.0477600027239
 20
1680.2237933626191
 30
0.0
 11
2761.2987774490912
 21
1680.2237933626191
 31
0.0
  0
LINE
  5
273E
  8
DIM
 10
2761.2987774490912
 20
1680.2237933626191
 30
0.0
 11
2761.2987774490912
 21
1735.2096960701631
 31
0.0
  0
LINE
  5
273F
  8
DIM
 10
2739.644749853026
 20
1680.2237933626191
 30
0.0
 11
2739.644749853026
 21
1735.2096960701631
 31
0.0
  0
LINE
  5
2740
  8
DIM
 10
2761.2987774490912
 20
1735.2096960701631
 30
0.0
 11
2739.644749853026
 21
1735.2096960701631
 31
0.0
  0
LINE
  5
2741
  8
DIM
 10
2721.8957672993961
 20
1680.2237933626191
 30
0.0
 11
2739.644749853026
 21
1680.2237933626191
 31
0.0
  0
LINE
  5
2742
  8
DIM
 10
2761.2987774490912
 20
1026.3469170053561
 30
0.0
 11
2761.2987774490912
 21
1081.332819712901
 31
0.0
  0
LINE
  5
2743
  8
DIM
 10
2739.644749853026
 20
1026.3469170053561
 30
0.0
 11
2739.644749853026
 21
1081.332819712901
 31
0.0
  0
LINE
  5
2744
  8
DIM
 10
2761.2987774490912
 20
1081.332819712901
 30
0.0
 11
2739.644749853026
 21
1081.332819712901
 31
0.0
  0
LINE
  5
2745
  8
DIM
 10
2750.4717636510591
 20
979.34283551303747
 30
0.0
 11
2779.0477600027239
 21
1026.3469170053561
 31
0.0
  0
LINE
  5
2746
  8
DIM
 10
2779.0477600027239
 20
1026.3469170053561
 30
0.0
 11
2761.2987774490912
 21
1026.3469170053561
 31
0.0
  0
LINE
  5
2747
  8
DIM
 10
2721.8957672993952
 20
1026.3469170053561
 30
0.0
 11
2739.644749853026
 21
1026.3469170053561
 31
0.0
  0
LINE
  5
2748
  8
DIM
 10
2750.4717636510591
 20
979.34283551303747
 30
0.0
 11
2721.8957672993952
 21
1026.3469170053561
 31
0.0
  0
LINE
  5
2749
  8
OUTLINE
 10
1054.277898652877
 20
750.15279887165548
 30
0.0
 11
1610.722296993124
 21
750.15279887165559
 31
0.0
  0
LINE
  5
274A
  8
OUTLINE
 10
1821.602150860703
 20
750.1527988716548
 30
0.0
 11
3681.6021508607032
 21
750.15279887165559
 31
0.0
  0
LINE
  5
274B
  8
OUTLINE
 10
1821.6021508607039
 20
650.15279887165468
 30
0.0
 11
3681.6021508607032
 21
650.15279887165559
 31
0.0
  0
LINE
  5
274C
  8
DIM
 10
3701.6021508607032
 20
495.15279887165559
 30
0.0
 11
3821.0215287573842
 21
495.15279887165508
 31
0.0
  0
LINE
  5
274D
  8
DIM
 10
3701.6021508607032
 20
750.15279887165559
 30
0.0
 11
3821.0215287573842
 21
750.15279887165559
 31
0.0
  0
LINE
  5
274E
  8
DIM
 10
3801.0215287573828
 20
525.15279887165559
 30
0.0
 11
3801.0215287573828
 21
564.08137030022692
 31
0.0
  0
LINE
  5
274F
  8
DIM
 10
3801.0215287573828
 20
720.1527988716557
 30
0.0
 11
3801.0215287573828
 21
681.22422744308415
 31
0.0
  0
SOLID
  5
2750
  8
DIM
 10
3796.0215287573851
 20
525.15279887165559
 30
0.0
 11
3806.0215287573828
 21
525.15279887165559
 31
0.0
 12
3801.0215287573828
 22
495.15279887165508
 32
0.0
 13
3801.0215287573828
 23
495.15279887165508
 33
0.0
  0
SOLID
  5
2751
  8
DIM
 10
3796.0215287573851
 20
720.1527988716557
 30
0.0
 11
3806.0215287573828
 21
720.1527988716557
 31
0.0
 12
3801.0215287573828
 22
750.15279887165559
 32
0.0
 13
3801.0215287573828
 23
750.15279887165559
 33
0.0
  0
TEXT
  5
2752
  8
DIM
 10
3816.0215287573842
 20
584.08137030022726
 30
0.0
 40
30.0
  1
255
 50
90.0
  7
SIMPLEX
  0
ENDSEC
  0
EOF
