  0
SECTION
  2
HEADER
  9
$ACADVER
  1
AC1009
  9
$INSBASE
 10
0.0
 20
0.0
 30
0.0
  9
$EXTMIN
 10
1671.246968301999
 20
-0.1623411292239325
 30
-0.0015258207003583
  9
$EXTMAX
 10
5835.1187292289906
 20
4098.4521594020207
 30
0.0000000349246037
  9
$LIMMIN
 10
0.0
 20
0.0
  9
$LIMMAX
 10
7780.0
 20
5320.0
  9
$ORTHOMODE
 70
     1
  9
$REGENMODE
 70
     1
  9
$FILLMODE
 70
     1
  9
$QTEXTMODE
 70
     0
  9
$MIRRTEXT
 70
     0
  9
$DRAGMODE
 70
     2
  9
$LTSCALE
 40
100.0
  9
$OSMODE
 70
     0
  9
$ATTMODE
 70
     1
  9
$TEXTSIZE
 40
45.0
  9
$TRACEWID
 40
0.05
  9
$TEXTSTYLE
  7
TITLE3
  9
$CLAYER
  8
OUTLINE
  9
$CELTYPE
  6
BYLAYER
  9
$CECOLOR
 62
   256
  9
$DIMSCALE
 40
1.0
  9
$DIMASZ
 40
0.12
  9
$DIMEXO
 40
0.05
  9
$DIMDLI
 40
0.5
  9
$DIMRND
 40
0.0
  9
$DIMDLE
 40
0.0
  9
$DIMEXE
 40
0.1
  9
$DIMTP
 40
0.1
  9
$DIMTM
 40
0.1
  9
$DIMTXT
 40
0.12
  9
$DIMCEN
 40
0.0
  9
$DIMTSZ
 40
0.0
  9
$DIMTOL
 70
     0
  9
$DIMLIM
 70
     0
  9
$DIMTIH
 70
     1
  9
$DIMTOH
 70
     1
  9
$DIMSE1
 70
     0
  9
$DIMSE2
 70
     0
  9
$DIMTAD
 70
     0
  9
$DIMZIN
 70
     7
  9
$DIMBLK
  1

  9
$DIMASO
 70
     0
  9
$DIMSHO
 70
     0
  9
$DIMPOST
  1

  9
$DIMAPOST
  1
mm
  9
$DIMALT
 70
     0
  9
$DIMALTD
 70
     2
  9
$DIMALTF
 40
25.399999999999999
  9
$DIMLFAC
 40
1.0
  9
$DIMTOFL
 70
     0
  9
$DIMTVP
 40
0.0
  9
$DIMTIX
 70
     0
  9
$DIMSOXD
 70
     0
  9
$DIMSAH
 70
     0
  9
$DIMBLK1
  1

  9
$DIMBLK2
  1

  9
$DIMSTYLE
  2
AM_ANSI
  9
$DIMCLRD
 70
   256
  9
$DIMCLRE
 70
   256
  9
$DIMCLRT
 70
     2
  9
$DIMTFAC
 40
0.71
  9
$DIMGAP
 40
0.06
  9
$LUNITS
 70
     2
  9
$LUPREC
 70
     2
  9
$SKETCHINC
 40
0.1
  9
$FILLETRAD
 40
0.0
  9
$AUNITS
 70
     0
  9
$AUPREC
 70
     2
  9
$MENU
  1
\acad12\support\cnc
  9
$ELEVATION
 40
0.0
  9
$PELEVATION
 40
0.0
  9
$THICKNESS
 40
0.0
  9
$LIMCHECK
 70
     0
  9
$BLIPMODE
 70
     0
  9
$CHAMFERA
 40
0.0
  9
$CHAMFERB
 40
0.0
  9
$SKPOLY
 70
     0
  9
$TDCREATE
 40
2451402.5558215282
  9
$TDUPDATE
 40
2454699.5863823849
  9
$TDINDWG
 40
0.3742860995
  9
$TDUSRTIMER
 40
0.374284838
  9
$USRTIMER
 70
     1
  9
$ANGBASE
 50
0.0
  9
$ANGDIR
 70
     0
  9
$PDMODE
 70
     2
  9
$PDSIZE
 40
15.0
  9
$PLINEWID
 40
0.0
  9
$COORDS
 70
     1
  9
$SPLFRAME
 70
     0
  9
$SPLINETYPE
 70
     6
  9
$SPLINESEGS
 70
     8
  9
$ATTDIA
 70
     1
  9
$ATTREQ
 70
     1
  9
$HANDLING
 70
     1
  9
$HANDSEED
  5
1223
  9
$SURFTAB1
 70
     6
  9
$SURFTAB2
 70
     6
  9
$SURFTYPE
 70
     6
  9
$SURFU
 70
     6
  9
$SURFV
 70
     6
  9
$UCSNAME
  2

  9
$UCSORG
 10
0.0
 20
0.0
 30
0.0
  9
$UCSXDIR
 10
1.0
 20
0.0
 30
0.0
  9
$UCSYDIR
 10
0.0
 20
1.0
 30
0.0
  9
$PUCSNAME
  2

  9
$PUCSORG
 10
0.0
 20
0.0
 30
0.0
  9
$PUCSXDIR
 10
1.0
 20
0.0
 30
0.0
  9
$PUCSYDIR
 10
0.0
 20
1.0
 30
0.0
  9
$USERI1
 70
     0
  9
$USERI2
 70
     0
  9
$USERI3
 70
     0
  9
$USERI4
 70
     0
  9
$USERI5
 70
     0
  9
$USERR1
 40
0.0
  9
$USERR2
 40
0.0
  9
$USERR3
 40
0.0
  9
$USERR4
 40
0.0
  9
$USERR5
 40
0.0
  9
$WORLDVIEW
 70
     1
  9
$SHADEDGE
 70
     3
  9
$SHADEDIF
 70
    70
  9
$TILEMODE
 70
     1
  9
$MAXACTVP
 70
    16
  9
$PLIMCHECK
 70
     0
  9
$PEXTMIN
 10
1.0000000000000000E+020
 20
1.0000000000000000E+020
 30
1.0000000000000000E+020
  9
$PEXTMAX
 10
-1.0000000000000000E+020
 20
-1.0000000000000000E+020
 30
-1.0000000000000000E+020
  9
$PLIMMIN
 10
0.0
 20
0.0
  9
$PLIMMAX
 10
12.0
 20
9.0
  9
$UNITMODE
 70
     0
  9
$VISRETAIN
 70
     0
  9
$PLINEGEN
 70
     0
  9
$PSLTSCALE
 70
     0
  0
ENDSEC
  0
SECTION
  2
TABLES
  0
TABLE
  2
VPORT
 70
     1
  0
VPORT
  2
*ACTIVE
 70
     0
 10
0.0
 20
0.0
 11
1.0
 21
1.0
 12
3753.1828487654939
 22
2049.1449091363979
 13
0.0
 23
0.0
 14
50.0
 24
50.0
 15
100.0
 25
100.0
 16
0.0
 26
0.0
 36
1.0
 17
0.0
 27
0.0
 37
0.0
 40
4129.5863985201449
 41
1.5308953341740219
 42
50.0
 43
0.0
 44
0.0
 50
0.0
 51
0.0
 71
     0
 72
   100
 73
     1
 74
     0
 75
     0
 76
     0
 77
     0
 78
     0
  0
ENDTAB
  0
TABLE
  2
LTYPE
 70
    18
  0
LTYPE
  2
CONTINUOUS
 70
     0
  3
Solid line
 72
    65
 73
     0
 40
0.0
  0
LTYPE
  2
PHANTOM
 70
     0
  3
______  __  __  ______  __  __  ______  __  __ 
 72
    65
 73
     6
 40
2.5
 49
1.25
 49
-0.25
 49
0.25
 49
-0.25
 49
0.25
 49
-0.25
  0
LTYPE
  2
HIDDEN
 70
     0
  3
Hidden __ __ __ __ __ __ __ __ __ __ __ __ __ _
 72
    65
 73
     2
 40
0.375
 49
0.25
 49
-0.125
  0
LTYPE
  2
PHANTOM2
 70
     0
  3
Phantom (.5x) ___ _ _ ___ _ _ ___ _ _ ___ _ _
 72
    65
 73
     6
 40
1.25
 49
0.625
 49
-0.125
 49
0.125
 49
-0.125
 49
0.125
 49
-0.125
  0
LTYPE
  2
CENTER
 70
     0
  3
Center ____ _ ____ _ ____ _ ____ _ ____ _ ____
 72
    65
 73
     4
 40
2.0
 49
1.25
 49
-0.25
 49
0.25
 49
-0.25
  0
LTYPE
  2
AM_ISO02W050
 70
     0
  3
__ __ __ __ __ __ __ __ __ __ __ __ __ __ __
 72
    65
 73
     2
 40
7.5
 49
6.0
 49
-1.5
  0
LTYPE
  2
AM_ISO08W050
 70
     0
  3
____ . ____ . ____ . ____ . ____ . ____ . ____
 72
    65
 73
     4
 40
18.0
 49
12.0
 49
-1.5
 49
3.0
 49
-1.5
  0
LTYPE
  2
AM_ISO09W050
 70
     0
  3
_____ . . _____ . . _____ . . ____ .. ____
 72
    65
 73
     6
 40
22.5
 49
12.0
 49
-1.5
 49
3.0
 49
-1.5
 49
3.0
 49
-1.5
  0
LTYPE
  2
AMCONSTR
 70
     0
  3
_______________________
 72
    65
 73
     2
 40
9999.0
 49
9999.0
 49
0.0
  0
LTYPE
  2
AM_ISO08W050X2
 70
     0
  3
__ . __ . __ . __ . __ . __
 72
    65
 73
     4
 40
9.0
 49
6.0
 49
-0.75
 49
1.5
 49
-0.75
  0
LTYPE
  2
AM_ISO02W050X2
 70
     0
  3
 _ _ _ _ _ _ _ _ _ _ _ _
 72
    65
 73
     2
 40
3.75
 49
3.0
 49
-0.75
  0
LTYPE
  2
AMZIGZAG
 70
     0
  3
/\/-/\/-/\/-/\/-/\/-/\/
 72
    65
 73
     2
 40
11.0001
 49
0.0001
 49
-11.0
  0
LTYPE
  2
CENTER2
 70
     0
  3
Center (.5x) ___ _ ___ _ ___ _ ___ _ ___ _ ___
 72
    65
 73
     4
 40
1.125
 49
0.75
 49
-0.125
 49
0.125
 49
-0.125
  0
LTYPE
  2
HIDDEN2
 70
     0
  3
Hidden (.5x) _ _ _ _ _ _ _ _ _ _ _ _ _ _ _ _ _
 72
    65
 73
     2
 40
0.1875
 49
0.125
 49
-0.0625
  0
LTYPE
  2
AMZIGZAG2
 70
     0
  3
/\/-/\/-/\/-/\/-/\/-/\/
 72
    65
 73
     2
 40
0.4401
 49
0.0001
 49
-0.4400000000000001
  0
LTYPE
  2
ACANSTGB
 70
     0
  3
__ . . __ . .
 72
    65
 73
     6
 40
0.35433070866
 49
0.15748031496
 49
-0.03937007874
 49
0.03937007874
 49
-0.03937007874
 49
0.03937007874
 49
-0.03937007874
  0
LTYPE
  2
ACANSTGL
 70
     0
  3
_ _ _ _ _
 72
    65
 73
     2
 40
0.11811023622
 49
0.07874015748
 49
-0.03937007874
  0
ENDTAB
  0
TABLE
  2
LAYER
 70
     7
  0
LAYER
  2
0
 70
     0
 62
     7
  6
CONTINUOUS
  0
LAYER
  2
OUTLINE
 70
     0
 62
     7
  6
CONTINUOUS
  0
LAYER
  2
TEXT
 70
     0
 62
   100
  6
CONTINUOUS
  0
LAYER
  2
DIM
 70
     0
 62
     2
  6
CONTINUOUS
  0
LAYER
  2
MTG-FEET
 70
     0
 62
    30
  6
CONTINUOUS
  0
LAYER
  2
OVERLAY-A3
 70
     0
 62
     7
  6
CONTINUOUS
  0
LAYER
  2
CLEAR
 70
     0
 62
     1
  6
PHANTOM
  0
ENDTAB
  0
TABLE
  2
STYLE
 70
     7
  0
STYLE
  2
STANDARD
 70
     0
 40
0.0
 41
1.0
 50
0.0
 71
     0
 42
0.2
  3
txt
  4

  0
STYLE
  2
TITLE3
 70
     0
 40
45.0
 41
1.0
 50
0.0
 71
     0
 42
45.0
  3
SIMPLEX
  4

  0
STYLE
  2
TITLE5
 70
     0
 40
75.0
 41
1.0
 50
0.0
 71
     0
 42
100.0
  3
SIMPLEX
  4

  0
STYLE
  2
SIMPLEX
 70
     0
 40
60.0
 41
1.0
 50
0.0
 71
     0
 42
60.0
  3
simplex
  4

  0
STYLE
  2

 70
     1
 40
0.0
 41
1.0
 50
0.0
 71
     0
 42
45.0
  3
genltshp.shx
  4

  0
STYLE
  2
ACANSTS
 70
     0
 40
1.0
 41
1.0
 50
0.0
 71
     0
 42
45.0
  3
romans.shx
  4

  0
STYLE
  2
ACANSGDT
 70
     0
 40
0.0
 41
1.0
 50
0.0
 71
     0
 42
45.0
  3
amgdt.shx
  4

  0
ENDTAB
  0
TABLE
  2
VIEW
 70
     0
  0
ENDTAB
  0
TABLE
  2
UCS
 70
     0
  0
ENDTAB
  0
TABLE
  2
APPID
 70
    11
  0
APPID
  2
ACAD
 70
     0
  0
APPID
  2
ACAD_PSEXT
 70
     0
  0
APPID
  2
ACAD_MLEADERVER
 70
     0
  0
APPID
  2
MCAD_NO_VIS
 70
     0
  0
APPID
  2
ACAD_TEMP_GRAPHIC
 70
     0
  0
APPID
  2
AD_DRAW
 70
     0
  0
APPID
  2
ACATTRIBSERVICES
 70
     0
  0
APPID
  2
DESIGNERASSEMBLIES
 70
     0
  0
APPID
  2
ACADM_DIM_EDIT
 70
     0
  0
APPID
  2
AMDT_DM_ADJ
 70
     0
  0
APPID
  2
ACAD_EXEMPT_FROM_CAD_STANDARDS
 70
     0
  0
ENDTAB
  0
TABLE
  2
DIMSTYLE
 70
     7
  0
DIMSTYLE
  2
STANDARD
 70
     0
  3

  4

  5

  6

  7

 40
1.0
 41
0.18
 42
0.0625
 43
0.38
 44
0.18
 45
0.0
 46
0.0
 47
0.0
 48
0.0
140
0.18
141
0.09
142
0.0
143
25.399999999999999
144
1.0
145
0.0
146
1.0
147
0.09
 71
     0
 72
     0
 73
     1
 74
     1
 75
     0
 76
     0
 77
     0
 78
     0
170
     0
171
     2
172
     0
173
     0
174
     0
175
     0
176
     0
177
     0
178
     0
  0
DIMSTYLE
  2
AM_ANSI
 70
     0
  3

  4
mm
  5

  6

  7

 40
1.0
 41
0.12
 42
0.05
 43
0.5
 44
0.1
 45
0.0
 46
0.0
 47
0.1
 48
0.1
140
0.12
141
0.0
142
0.0
143
25.399999999999999
144
1.0
145
0.0
146
0.71
147
0.06
 71
     0
 72
     0
 73
     1
 74
     1
 75
     0
 76
     0
 77
     0
 78
     7
170
     0
171
     2
172
     0
173
     0
174
     0
175
     0
176
   256
177
   256
178
     2
  0
DIMSTYLE
  2
AM_ANSI$3
 70
     0
  3

  4
mm
  5

  6

  7

 40
1.0
 41
0.12
 42
0.05
 43
0.5
 44
0.1
 45
0.0
 46
0.0
 47
0.1
 48
0.1
140
0.12
141
0.0
142
0.0
143
25.399999999999999
144
1.0
145
0.0
146
0.71
147
0.06
 71
     0
 72
     0
 73
     1
 74
     1
 75
     0
 76
     0
 77
     0
 78
     7
170
     0
171
     2
172
     0
173
     0
174
     0
175
     0
176
   256
177
   256
178
     2
  0
DIMSTYLE
  2
AM_ANSI$4
 70
     0
  3

  4
mm
  5

  6

  7

 40
1.0
 41
0.12
 42
0.05
 43
0.5
 44
0.1
 45
0.0
 46
0.0
 47
0.1
 48
0.1
140
0.12
141
0.0
142
0.0
143
25.399999999999999
144
1.0
145
0.0
146
0.71
147
0.06
 71
     0
 72
     0
 73
     1
 74
     1
 75
     0
 76
     0
 77
     0
 78
     7
170
     0
171
     2
172
     0
173
     0
174
     0
175
     0
176
   256
177
   256
178
     2
  0
DIMSTYLE
  2
AM_ANSI$7
 70
     0
  3

  4
mm
  5

  6

  7

 40
1.0
 41
0.12
 42
0.05
 43
0.5
 44
0.1
 45
0.0
 46
0.0
 47
0.1
 48
0.1
140
0.12
141
0.0
142
0.0
143
25.399999999999999
144
1.0
145
0.0
146
0.71
147
0.06
 71
     0
 72
     0
 73
     1
 74
     1
 75
     0
 76
     0
 77
     0
 78
     7
170
     0
171
     2
172
     0
173
     0
174
     0
175
     0
176
   256
177
   256
178
     2
  0
DIMSTYLE
  2
AM_ANSI$SF
 70
     0
  3

  4
mm
  5

  6

  7

 40
1.0
 41
0.12
 42
0.05
 43
0.5
 44
0.1
 45
0.0
 46
0.0
 47
0.1
 48
0.1
140
0.12
141
0.0
142
0.0
143
25.399999999999999
144
1.0
145
0.0
146
0.71
147
0.06
 71
     0
 72
     0
 73
     1
 74
     1
 75
     1
 76
     1
 77
     0
 78
     7
170
     0
171
     2
172
     0
173
     0
174
     0
175
     0
176
   256
177
   256
178
     2
  0
DIMSTYLE
  2
AM_ANSI$SH
 70
     0
  3

  4
mm
  5

  6
GENAXEH
  7

 40
1.0
 41
0.12
 42
0.05
 43
0.5
 44
0.1
 45
0.0
 46
0.0
 47
0.1
 48
0.1
140
0.12
141
0.0
142
0.0
143
25.399999999999999
144
1.0
145
0.0
146
0.71
147
0.06
 71
     0
 72
     0
 73
     1
 74
     1
 75
     1
 76
     1
 77
     0
 78
     7
170
     0
171
     2
172
     0
173
     1
174
     0
175
     0
176
   256
177
   256
178
     2
  0
ENDTAB
  0
ENDSEC
  0
SECTION
  2
BLOCKS
  0
BLOCK
  8
0
  2
$MODEL_SPACE
 70
     0
 10
0.0
 20
0.0
 30
0.0
  3
$MODEL_SPACE
  1

  0
ENDBLK
  5
104F
  8
0
  0
BLOCK
 67
     1
  8
0
  2
$PAPER_SPACE
 70
     0
 10
0.0
 20
0.0
 30
0.0
  3
$PAPER_SPACE
  1

  0
ENDBLK
  5
104B
 67
     1
  8
0
  0
BLOCK
  8
0
  2
LINES
 70
     0
 10
0.0
 20
0.0
 30
0.0
  3
LINES
  1

  0
ENDBLK
  5
F67
  8
0
  0
BLOCK
  8
0
  2
NEW_BLOCK
 70
     0
 10
0.0
 20
0.0
 30
0.0
  3
NEW_BLOCK
  1

  0
TEXT
  5
F6A
  8
TEXT
 10
27.285946821803002
 20
25.27142175952417
 30
0.0
 40
40.0
  1
available on request
  7
TITLE3
  0
TEXT
  5
F6B
  8
TEXT
 10
27.285946821803002
 20
93.842850330952714
 30
0.0
 40
40.0
  1
Certified dimensions
  7
TITLE3
  0
TEXT
  5
F6C
  8
TEXT
 10
27.285946821803002
 20
162.4142789023812
 30
0.0
 40
40.0
  1
without notice or obligation.
  7
TITLE3
  0
TEXT
  5
F6D
  8
TEXT
 10
27.285946821803002
 20
230.9857074738097
 30
0.0
 40
40.0
  1
specifications at any time
  7
TITLE3
  0
TEXT
  5
F6E
  8
TEXT
 10
27.285946821803002
 20
299.55713604523839
 30
0.0
 40
40.0
  1
the right to change 
  7
TITLE3
  0
TEXT
  5
F6F
  8
TEXT
 10
27.285946821803002
 20
436.69999318809528
 30
0.0
 40
40.0
  1
NOTE
  7
TITLE3
  0
TEXT
  5
F70
  8
TEXT
 10
27.285946821803002
 20
368.12856461666678
 30
0.0
 40
40.0
  1
The manufacturer reserves
  7
TITLE3
  0
ENDBLK
  5
F71
  8
0
  0
BLOCK
  8
0
  2
GENAXEH
 70
     0
 10
0.0
 20
0.0
 30
0.0
  3
GENAXEH
  1

  0
LINE
  5
11E2
  8
0
 10
-1.0
 20
0.0
 30
0.0
 11
1.0
 21
0.0
 31
0.0
  0
ENDBLK
  5
11E4
  8
0
  0
ENDSEC
  0
SECTION
  2
ENTITIES
  0
LINE
  5
F72
  8
OUTLINE
 10
2099.046399703087
 20
3323.7830840071042
 30
0.0
 11
2099.046399703087
 21
3699.7830840071042
 31
0.0
  0
LINE
  5
F73
  8
OUTLINE
 10
2099.046399703087
 20
403.20819360355671
 30
0.0
 11
3222.0463997030861
 21
403.20819360355671
 31
0.0
  0
LINE
  5
F74
  8
OUTLINE
 10
2099.046399703087
 20
1495.208193603557
 30
0.0
 11
3222.0463997030861
 21
1495.208193603557
 31
0.0
  0
LINE
  5
F75
  8
OUTLINE
 10
2099.046399703087
 20
3323.7830840071042
 30
0.0
 11
3222.0463997030861
 21
3323.7830840071042
 31
0.0
  0
LINE
  5
F76
  8
OUTLINE
 10
2099.046399703087
 20
1495.208193603557
 30
0.0
 11
2099.046399703087
 21
403.20819360355671
 31
0.0
  0
LINE
  5
F77
  8
OUTLINE
 10
2099.046399703087
 20
3699.7830840071042
 30
0.0
 11
3222.0463997030861
 21
3699.7830840071042
 31
0.0
  0
TEXT
  5
F78
  8
TEXT
 10
4408.2142857142862
 20
407.06288897435661
 30
0.0
 40
75.0
  1
temperzone OSA 182
  7
TITLE5
 72
     1
 11
5010.0
 21
407.06288897435661
 31
0.0
  0
TEXT
  5
F79
  8
TEXT
 10
5167.207040051012
 20
106.9986799601034
 30
0.0
 40
40.499999999999993
  1
OSA182
 41
1.7807017543859649
  7
TITLE3
 72
     5
 11
5558.707040051012
 21
106.9986799601034
 31
0.0
  0
LINE
  5
F7B
  8
OUTLINE
 10
5388.2292835689168
 20
3323.7830840071042
 30
0.0
 11
5388.2292835689168
 21
3699.7830840071019
 31
0.0
  0
LINE
  5
F7C
  8
OUTLINE
 10
4391.0975848368516
 20
3323.7830840071042
 30
0.0
 11
4391.0975848368516
 21
3699.7830840071042
 31
0.0
  0
LINE
  5
F7D
  8
OUTLINE
 10
3222.0463997030852
 20
3323.7830840071042
 30
0.0
 11
3222.0463997030852
 21
3699.7830840071042
 31
0.0
  0
LINE
  5
F7F
  8
OUTLINE
 10
3222.0463997030861
 20
1495.208193603557
 30
0.0
 11
3222.0463997030861
 21
403.20819360355671
 31
0.0
  0
TEXT
  5
F80
  8
DIM
 10
2676.6303425825672
 20
3093.0563979725798
 30
0.0
 40
45.0
  1
FLOW
 50
90.0
  7
SIMPLEX
  0
TEXT
  5
F81
  8
DIM
 10
2557.9980611596511
 20
3087.3804287875728
 30
0.0
 40
45.0
  1
AIR
 50
90.0
  7
SIMPLEX
  0
LINE
  5
F82
  8
DIM
 10
2604.8665812002132
 20
3061.0391195220632
 30
0.0
 11
2604.8665812002132
 21
3122.7584108606488
 31
0.0
  0
LINE
  5
F83
  8
DIM
 10
2632.0873596091842
 20
3061.0391195220632
 30
0.0
 11
2604.8665812002132
 21
3061.0391195220632
 31
0.0
  0
LINE
  5
F84
  8
DIM
 10
2592.2057540332462
 20
3028.2804187346601
 30
0.0
 11
2632.0873596091842
 21
3061.0391195220632
 31
0.0
  0
LINE
  5
F85
  8
DIM
 10
2579.5449268662842
 20
3122.7584108606488
 30
0.0
 11
2604.8665812002132
 21
3122.7584108606488
 31
0.0
  0
LINE
  5
F86
  8
DIM
 10
2579.5449268662842
 20
3061.0391195220632
 30
0.0
 11
2579.5449268662842
 21
3122.7584108606488
 31
0.0
  0
LINE
  5
F87
  8
DIM
 10
2552.3241484573118
 20
3061.0391195220632
 30
0.0
 11
2579.5449268662842
 21
3061.0391195220632
 31
0.0
  0
LINE
  5
F88
  8
DIM
 10
2592.2057540332462
 20
3028.2804187346601
 30
0.0
 11
2552.3241484573118
 21
3061.0391195220632
 31
0.0
  0
LINE
  5
F89
  8
DIM
 10
3223.2463997030891
 20
1525.208193603557
 30
0.0
 11
3223.2463997030891
 21
1707.3403342206329
 31
0.0
  0
LINE
  5
F8A
  8
DIM
 10
2097.8463997030872
 20
1525.208193603557
 30
0.0
 11
2097.8463997030872
 21
1707.3403342206329
 31
0.0
  0
LINE
  5
F8B
  8
DIM
 10
3178.2463997030859
 20
1677.3403342206329
 30
0.0
 11
2728.2898983237392
 21
1677.3403342206329
 31
0.0
  0
LINE
  5
F8C
  8
DIM
 10
2142.8463997030881
 20
1677.3403342206329
 30
0.0
 11
2526.8613268951649
 21
1677.3403342206329
 31
0.0
  0
SOLID
  5
F8D
  8
DIM
 10
3178.2463997030859
 20
1684.8403342206329
 30
0.0
 11
3178.2463997030859
 21
1669.8403342206341
 31
0.0
 12
3223.2463997030891
 22
1677.3403342206329
 32
0.0
 13
3223.2463997030891
 23
1677.3403342206329
 33
0.0
  0
SOLID
  5
F8E
  8
DIM
 10
2142.8463997030881
 20
1684.8403342206329
 30
0.0
 11
2142.8463997030881
 21
1669.8403342206341
 31
0.0
 12
2097.8463997030872
 22
1677.3403342206329
 32
0.0
 13
2097.8463997030872
 23
1677.3403342206329
 33
0.0
  0
TEXT
  5
F8F
  8
DIM
 10
2556.8613268951608
 20
1654.8403342206329
 30
0.0
 40
45.0
  1
1123
  7
TITLE3
 72
     1
 11
2627.575612609447
 21
1677.3403342206329
 31
0.0
 73
     2
  0
LINE
  5
F90
  8
DIM
 10
3253.2463997030859
 20
1495.208193603557
 30
0.0
 11
3474.9060920860579
 21
1495.208193603557
 31
0.0
  0
LINE
  5
F91
  8
DIM
 10
3124.6837208371921
 20
370.20819360355722
 30
0.0
 11
3474.9060920860579
 21
370.20819360355722
 31
0.0
  0
LINE
  5
F92
  8
DIM
 10
3444.906092086057
 20
1450.2081936035579
 30
0.0
 11
3444.906092086057
 21
991.99117187043589
 31
0.0
  0
LINE
  5
F93
  8
DIM
 10
3444.906092086057
 20
415.20819360355688
 30
0.0
 11
3444.906092086057
 21
794.17192558887416
 31
0.0
  0
SOLID
  5
F94
  8
DIM
 10
3437.4060920860579
 20
1450.2081936035579
 30
0.0
 11
3452.4060920860579
 21
1450.2081936035579
 31
0.0
 12
3444.906092086057
 22
1495.208193603557
 32
0.0
 13
3444.906092086057
 23
1495.208193603557
 33
0.0
  0
SOLID
  5
F95
  8
DIM
 10
3437.4060920860579
 20
415.20819360355688
 30
0.0
 11
3452.4060920860579
 21
415.20819360355688
 31
0.0
 12
3444.906092086057
 22
370.20819360355722
 32
0.0
 13
3444.906092086057
 23
370.20819360355722
 33
0.0
  0
TEXT
  5
F96
  8
DIM
 10
3467.406092086057
 20
824.1374091187356
 30
0.0
 40
45.0
  1
1125
 50
90.0
  7
TITLE3
 72
     4
 11
3444.906092086057
 21
894.85169483302116
 31
0.0
  0
LINE
  5
F97
  8
DIM
 10
2324.0455691170841
 20
355.40459703630398
 30
0.0
 11
2324.0455691170841
 21
126.3442674348252
 31
0.0
  0
LINE
  5
F99
  8
DIM
 10
2369.0455691170841
 20
156.3442674348251
 30
0.0
 11
2591.1045941589909
 21
156.3442674348251
 31
0.0
  0
LINE
  5
F9A
  8
DIM
 10
2979.0472302890898
 20
156.3442674348251
 30
0.0
 11
2977.810685417372
 21
156.3442674348251
 31
0.0
  0
SOLID
  5
F9B
  8
DIM
 10
2369.0455691170841
 20
163.8442674348251
 30
0.0
 11
2369.0455691170841
 21
148.84426743482521
 31
0.0
 12
2324.0455691170841
 22
156.3442674348251
 32
0.0
 13
2324.0455691170841
 23
156.3442674348251
 33
0.0
  0
SOLID
  5
F9C
  8
DIM
 10
2979.0472302890898
 20
163.8442674348251
 30
0.0
 11
2979.0472302890898
 21
148.84426743482521
 31
0.0
 12
3024.0472302890898
 22
156.3442674348251
 32
0.0
 13
3024.0472302890898
 23
156.3442674348251
 33
0.0
  0
TEXT
  5
F9D
  8
DIM
 10
2617.9278783317659
 20
133.8442674348251
 30
0.0
 40
45.0
  1
700
  7
TITLE3
 72
     1
 11
2675.7850211889081
 21
156.3442674348251
 31
0.0
 73
     2
  0
LINE
  5
F9E
  8
DIM
 10
3024.0472302890898
 20
355.40459703630398
 30
0.0
 11
3024.0472302890898
 21
126.3442674348252
 31
0.0
  0
LINE
  5
F9F
  8
DIM
 10
3222.0463997030861
 20
389.80819360355719
 30
0.0
 11
3222.0463997030861
 21
126.3442674348252
 31
0.0
  0
LINE
  5
FA0
  8
DIM
 10
2756.798288255799
 20
156.3442674348251
 30
0.0
 11
3024.0472302890898
 21
156.3442674348251
 31
0.0
  0
LINE
  5
FA1
  8
DIM
 10
3267.046399703087
 20
156.3442674348251
 30
0.0
 11
3312.0463997030861
 21
156.3442674348251
 31
0.0
  0
SOLID
  5
FA2
  8
DIM
 10
2979.0472302890898
 20
163.8442674348251
 30
0.0
 11
2979.0472302890898
 21
148.84426743482521
 31
0.0
 12
3024.0472302890898
 22
156.3442674348251
 32
0.0
 13
3024.0472302890898
 23
156.3442674348251
 33
0.0
  0
SOLID
  5
FA3
  8
DIM
 10
3267.046399703087
 20
163.8442674348251
 30
0.0
 11
3267.046399703087
 21
148.84426743482521
 31
0.0
 12
3222.0463997030861
 22
156.3442674348251
 32
0.0
 13
3222.0463997030861
 23
156.3442674348251
 33
0.0
  0
TEXT
  5
FA4
  8
DIM
 10
3076.1869981175919
 20
140.57821245318951
 30
0.0
 40
45.0
  1
198
  7
TITLE3
 72
     1
 11
3129.7584266890208
 21
163.07821245318951
 31
0.0
 73
     2
  0
SOLID
  5
FA5
  8
DIM
 10
2054.046399703087
 20
163.8442674348251
 30
0.0
 11
2054.046399703087
 21
148.84426743482521
 31
0.0
 12
2099.046399703087
 22
156.3442674348251
 32
0.0
 13
2099.046399703087
 23
156.3442674348251
 33
0.0
  0
LINE
  5
FA6
  8
DIM
 10
2099.046399703087
 20
389.80819360355719
 30
0.0
 11
2099.046399703087
 21
126.3442674348252
 31
0.0
  0
LINE
  5
FA7
  8
DIM
 10
2054.046399703087
 20
156.3442674348251
 30
0.0
 11
2009.0463997030879
 21
156.3442674348251
 31
0.0
  0
TEXT
  5
FA8
  8
DIM
 10
2157.0990356831062
 20
138.53604151132001
 30
0.0
 40
45.0
  1
225
  7
TITLE3
 72
     1
 11
2214.9561785402489
 21
161.03604151132001
 31
0.0
 73
     2
  0
LINE
  5
FA9
  8
DIM
 10
4361.0975848368498
 20
3323.7830840071042
 30
0.0
 11
4276.600961505399
 21
3323.7830840071042
 31
0.0
  0
LINE
  5
FAA
  8
DIM
 10
4361.0975848368498
 20
3699.7830840071042
 30
0.0
 11
4276.600961505399
 21
3699.7830840071042
 31
0.0
  0
LINE
  5
FAB
  8
DIM
 10
4306.6009615054008
 20
3368.7830840071042
 30
0.0
 11
4306.6009615054008
 21
3443.861133115558
 31
0.0
  0
LINE
  5
FAC
  8
DIM
 10
4306.6009615054008
 20
3654.7830840071042
 30
0.0
 11
4306.6009615054008
 21
3597.827914383497
 31
0.0
  0
SOLID
  5
FAD
  8
DIM
 10
4299.1009615053981
 20
3368.7830840071042
 30
0.0
 11
4314.1009615053981
 21
3368.7830840071042
 31
0.0
 12
4306.6009615054008
 22
3323.7830840071042
 32
0.0
 13
4306.6009615054008
 23
3323.7830840071042
 33
0.0
  0
SOLID
  5
FAE
  8
DIM
 10
4299.1009615053981
 20
3654.7830840071042
 30
0.0
 11
4314.1009615053981
 21
3654.7830840071042
 31
0.0
 12
4306.6009615054008
 22
3699.7830840071042
 32
0.0
 13
4306.6009615054008
 23
3699.7830840071042
 33
0.0
  0
TEXT
  5
FAF
  8
DIM
 10
4329.1009615054008
 20
3464.0588094638128
 30
0.0
 40
45.0
  1
376
 50
90.0
  7
TITLE3
 72
     1
 11
4306.6009615054008
 21
3520.8445237495271
 31
0.0
 73
     2
  0
LINE
  5
FB0
  8
OUTLINE
 10
2269.3455691170848
 20
3310.0830840071039
 30
0.0
 11
2380.745569117084
 21
3310.0830840071039
 31
0.0
  0
LINE
  5
FB1
  8
OUTLINE
 10
2259.745569117084
 20
3323.7830840071042
 30
0.0
 11
2259.745569117084
 21
3319.6830840071052
 31
0.0
  0
LINE
  5
FB2
  8
OUTLINE
 10
2259.745569117084
 20
3319.6830840071052
 30
0.0
 11
2269.3455691170848
 21
3310.0830840071039
 31
0.0
  0
LINE
  5
FB3
  8
OUTLINE
 10
2390.3455691170848
 20
3319.6830840071052
 30
0.0
 11
2380.745569117084
 21
3310.0830840071039
 31
0.0
  0
LINE
  5
FB4
  8
OUTLINE
 10
2390.3455691170848
 20
3319.6830840071061
 30
0.0
 11
2390.3455691170848
 21
3323.7830840071042
 31
0.0
  0
LINE
  5
FB5
  8
OUTLINE
 10
2311.0455691170841
 20
3713.483084007104
 30
0.0
 11
2269.3455691170848
 21
3713.483084007104
 31
0.0
  0
LINE
  5
FB6
  8
OUTLINE
 10
2259.745569117084
 20
3703.8830840071041
 30
0.0
 11
2259.745569117084
 21
3699.7830840071042
 31
0.0
  0
LINE
  5
FB7
  8
OUTLINE
 10
2259.745569117084
 20
3703.8830840071041
 30
0.0
 11
2269.3455691170848
 21
3713.483084007104
 31
0.0
  0
LINE
  5
FB8
  8
OUTLINE
 10
2390.3455691170848
 20
3703.8830840071041
 30
0.0
 11
2380.745569117084
 21
3713.483084007104
 31
0.0
  0
LINE
  5
FB9
  8
OUTLINE
 10
2380.745569117084
 20
3713.483084007104
 30
0.0
 11
2339.0455691170819
 21
3713.483084007104
 31
0.0
  0
LINE
  5
FBA
  8
OUTLINE
 10
2311.0455691170841
 20
3713.483084007104
 30
0.0
 11
2319.0455691170851
 21
3705.483084007104
 31
0.0
  0
LINE
  5
FBB
  8
OUTLINE
 10
2339.0455691170819
 20
3713.483084007104
 30
0.0
 11
2331.0455691170819
 21
3705.483084007104
 31
0.0
  0
LINE
  5
FBC
  8
OUTLINE
 10
2319.0455691170851
 20
3699.7830840071042
 30
0.0
 11
2319.0455691170851
 21
3705.483084007104
 31
0.0
  0
LINE
  5
FBD
  8
OUTLINE
 10
2331.0455691170819
 20
3699.7830840071042
 30
0.0
 11
2331.0455691170819
 21
3705.483084007104
 31
0.0
  0
LINE
  5
FBE
  8
OUTLINE
 10
2390.3455691170848
 20
3699.7830840071042
 30
0.0
 11
2390.3455691170848
 21
3703.8830840071041
 31
0.0
  0
INSERT
  5
FCE
  8
MTG-FEET
  2
LINES
 10
637.42319439946073
 20
2246.7294005091198
 30
0.0
  0
LINE
  5
FCF
  8
OUTLINE
 10
5413.229283568915
 20
3303.2830840071042
 30
0.0
 11
5413.229283568915
 21
3724.2830840071051
 31
0.0
  0
LINE
  5
FD2
  8
OUTLINE
 10
5413.229283568915
 20
3303.2830840071042
 30
0.0
 11
5411.2292835689168
 21
3303.2830840071042
 31
0.0
  0
LINE
  5
FD3
  8
OUTLINE
 10
5400.3292835689163
 20
3329.5084775519499
 30
0.0
 11
5388.2292835689168
 21
3329.5084775519499
 31
0.0
  0
LINE
  5
FD5
  8
OUTLINE
 10
5411.2292835689168
 20
3724.2830840071051
 30
0.0
 11
5413.229283568915
 21
3724.2830840071051
 31
0.0
  0
LINE
  5
FD6
  8
OUTLINE
 10
5400.3292835689163
 20
3692.983084007104
 30
0.0
 11
5388.2292835689168
 21
3692.983084007104
 31
0.0
  0
LINE
  5
FD8
  8
DIM
 10
5443.2292835689168
 20
3303.2830840071042
 30
0.0
 11
5791.747031683215
 21
3303.2830840071042
 31
0.0
  0
LINE
  5
FD9
  8
DIM
 10
5443.2292835689168
 20
3724.2830840071051
 30
0.0
 11
5791.747031683215
 21
3724.2830840071051
 31
0.0
  0
LINE
  5
FDA
  8
DIM
 10
5761.747031683215
 20
3348.2830840071042
 30
0.0
 11
5761.747031683215
 21
3443.7766050093101
 31
0.0
  0
LINE
  5
FDB
  8
DIM
 10
5761.747031683215
 20
3587.9560750248388
 30
0.0
 11
5761.747031683215
 21
3679.994749586197
 31
0.0
  0
SOLID
  5
FDC
  8
DIM
 10
5754.247031683215
 20
3348.2830840071042
 30
0.0
 11
5769.2470316832141
 21
3348.2830840071042
 31
0.0
 12
5761.747031683215
 22
3303.2830840071042
 32
0.0
 13
5761.747031683215
 23
3303.2830840071042
 33
0.0
  0
SOLID
  5
FDD
  8
DIM
 10
5754.247031683215
 20
3679.2830840071042
 30
0.0
 11
5769.2470316832141
 21
3679.2830840071042
 31
0.0
 12
5761.747031683215
 22
3724.2830840071051
 32
0.0
 13
5761.747031683215
 23
3724.2830840071051
 33
0.0
  0
TEXT
  5
FDE
  8
DIM
 10
5779.3190014356014
 20
3467.974816090396
 30
0.0
 40
36.0
  1
422
 50
90.0
  7
TITLE3
 72
     1
 11
5761.3190014356014
 21
3514.2605303761111
 31
0.0
 73
     2
  0
TEXT
  5
FDF
  8
TEXT
 10
4445.5737691718496
 20
165.0
 30
0.0
 40
45.0
  1
17.04.07
 41
0.8615384615384549
  7
TITLE3
 72
     5
 11
4685.5737691718477
 21
165.0
 31
0.0
  0
TEXT
  5
FE0
  8
OVERLAY-A3
 10
4272.345334441874
 20
166.24682079015139
 30
0.0
 40
36.0
  1
Date
  7
SIMPLEX
  0
TEXT
  5
FE1
  8
OVERLAY-A3
 10
5619.166788560402
 20
194.25495303511681
 30
0.0
 40
36.0
  1
Revision
 41
0.7812095035934883
  7
SIMPLEX
 72
     5
 11
5777.1943110015991
 21
194.25495303511681
 31
0.0
  0
LINE
  5
FE2
  8
OVERLAY-A3
 10
5601.7370249852393
 20
31.2637392724757
 30
0.0
 11
5601.7370249852393
 21
252.40298356282
 31
0.0
  0
LINE
  5
FE3
  8
OVERLAY-A3
 10
4229.0272941857229
 20
505.82662824683229
 30
0.0
 11
4229.0272941857229
 21
31.2637392724757
 31
0.0
  0
LINE
  5
FE4
  8
OVERLAY-A3
 10
5125.3705170196408
 20
31.2637392724757
 30
0.0
 11
5125.3705170196408
 21
252.40298356282
 31
0.0
  0
LINE
  5
FE5
  8
OVERLAY-A3
 10
5125.370517019639
 20
139.9688989041955
 30
0.0
 11
4229.0272941857229
 21
139.9688989041955
 31
0.0
  0
LINE
  5
FE6
  8
OVERLAY-A3
 10
5792.3631978567637
 20
252.40298356282
 30
0.0
 11
4229.0272941857229
 21
252.40298356282
 31
0.0
  0
LINE
  5
FE7
  8
OVERLAY-A3
 10
4229.0272941857229
 20
31.2637392724757
 30
0.0
 11
5791.9169370892359
 21
31.2637392724757
 31
0.0
  0
LINE
  5
FE8
  8
OVERLAY-A3
 10
5791.9169370892359
 20
31.2637392724757
 30
0.0
 11
5791.9169370892359
 21
505.82662824683229
 31
0.0
  0
LINE
  5
FE9
  8
OVERLAY-A3
 10
5791.9169370892359
 20
505.82662824683229
 30
0.0
 11
4229.0272941857229
 21
505.82662824683229
 31
0.0
  0
TEXT
  5
FEA
  8
OVERLAY-A3
 10
4266.7248286546628
 20
71.883732098036546
 30
0.0
 40
30.0
  1
Scale
 41
1.3701747965660029
  7
SIMPLEX
 72
     5
 11
4417.4440562769232
 21
71.883732098036546
 31
0.0
  0
TEXT
  5
FEB
  8
OVERLAY-A3
 10
5212.2886854011949
 20
193.3401472600643
 30
0.0
 40
30.0
  1
Drawing No.
  7
SIMPLEX
 72
     2
 11
5473.7172568297656
 21
193.3401472600643
 31
0.0
  0
LINE
  5
FEC
  8
OVERLAY-A3
 10
1671.499909257496
 20
0.0
 30
0.0
 11
5835.0
 21
0.0
 31
0.0
  0
LINE
  5
FED
  8
OVERLAY-A3
 10
5835.0
 20
0.0
 30
0.0
 11
5835.0
 21
4098.3245276957487
 31
0.0
  0
LINE
  5
FEE
  8
OVERLAY-A3
 10
5835.0
 20
4098.3245276957487
 30
0.0
 11
1671.499909257496
 21
4098.3245276957496
 31
0.0
  0
LINE
  5
FEF
  8
OVERLAY-A3
 10
1671.499909257496
 20
4098.3245276957496
 30
0.0
 11
1671.499909257496
 21
0.0
 31
0.0
  0
TEXT
  5
FF0
  8
TEXT
 10
4499.1433054549598
 20
74.210057023356939
 30
0.0
 40
45.0
  1
1:20
  7
TITLE3
  0
LINE
  5
FF2
  8
OUTLINE
 10
2955.0472302890898
 20
370.20819360355722
 30
0.0
 11
3093.0472302890898
 21
370.20819360355722
 31
0.0
  0
LINE
  5
FF3
  8
OUTLINE
 10
2955.0472302890898
 20
403.20819360355671
 30
0.0
 11
2955.0472302890898
 21
370.20819360355711
 31
0.0
  0
LINE
  5
FF4
  8
OUTLINE
 10
3093.0472302890898
 20
402.80819360355707
 30
0.0
 11
3093.0472302890898
 21
370.20819360355711
 31
0.0
  0
LINE
  5
FF5
  8
OUTLINE
 10
2255.0455691170841
 20
370.20819360355722
 30
0.0
 11
2393.0455691170851
 21
370.20819360355722
 31
0.0
  0
LINE
  5
FF6
  8
OUTLINE
 10
2255.0455691170841
 20
403.20819360355671
 30
0.0
 11
2255.0455691170841
 21
370.20819360355722
 31
0.0
  0
LINE
  5
FF7
  8
OUTLINE
 10
2393.0455691170851
 20
403.20819360355671
 30
0.0
 11
2393.0455691170851
 21
370.20819360355722
 31
0.0
  0
LINE
  5
FF8
  8
DIM
 10
5446.5250602091292
 20
3323.7830840071042
 30
0.0
 11
5630.3738389988994
 21
3323.7830840071042
 31
0.0
  0
LINE
  5
FF9
  8
DIM
 10
5446.5250602091292
 20
3698.7830840071042
 30
0.0
 11
5630.3738389988994
 21
3698.7830840071042
 31
0.0
  0
TEXT
  5
FFE
  8
DIM
 10
5582.1518024208563
 20
3371.0155802912882
 30
0.0
 40
36.0
  1
375 CTRS
 50
90.0
  7
TITLE3
  0
LINE
  5
FFF
  8
CLEAR
 10
1949.0463997030849
 20
3849.7830840071042
 30
0.0
 11
3689.3689005438459
 21
3849.7830840071028
 31
0.0
  0
LINE
  5
1000
  8
CLEAR
 10
2099.046399703087
 20
1878.0953343023721
 30
0.0
 11
3222.0463997030861
 21
1878.0953343023721
 31
0.0
  0
LINE
  5
1001
  8
CLEAR
 10
4031.6792505634771
 20
3323.7830840071042
 30
0.0
 11
4031.6792505634771
 21
3849.7830840071042
 31
0.0
  0
LINE
  5
1002
  8
CLEAR
 10
1949.0463997030849
 20
3323.7830840071042
 30
0.0
 11
1949.0463997030849
 21
3849.7830840071042
 31
0.0
  0
LINE
  5
1003
  8
CLEAR
 10
1949.0463997030849
 20
3323.7830840071042
 30
0.0
 11
2058.6370521852909
 21
3323.7830840071042
 31
0.0
  0
LINE
  5
1004
  8
CLEAR
 10
2099.046399703087
 20
1878.0953343023721
 30
0.0
 11
2099.046399703087
 21
2161.5212118603222
 31
0.0
  0
LINE
  5
1006
  8
CLEAR
 10
4031.6792505634771
 20
3323.7830840071042
 30
0.0
 11
3724.9408218020681
 21
3323.7830840071042
 31
0.0
  0
TEXT
  5
1007
  8
TEXT
 10
2800.8846009122012
 20
1352.4678241228301
 30
0.0
 40
60.0
  1
OSA182
  7
TITLE5
 72
     1
 11
2963.741743769343
 21
1352.4678241228301
 31
0.0
  0
TEXT
  5
1008
  8
TEXT
 10
2184.4715242477118
 20
3890.0315202279871
 30
0.0
 40
45.0
  1
150 min CLEARANCE
  7
TITLE3
  0
TEXT
  5
1009
  8
TEXT
 10
2242.8793323623258
 20
1922.5412447177221
 30
0.0
 40
45.0
  1
2000 min CLEARANCE
  7
TITLE3
  0
TEXT
  5
100A
  8
TEXT
 10
1845.5579247887511
 20
3494.1516550482188
 30
0.0
 40
45.0
  1
150 min
 50
90.0
  7
TITLE3
  0
TEXT
  5
100B
  8
TEXT
 10
1922.7007819316091
 20
3425.6826355018502
 30
0.0
 40
45.0
  1
CLEARANCE
 50
90.0
  7
TITLE3
  0
TEXT
  5
100C
  8
TEXT
 10
3916.0518295529082
 20
3446.5013622351771
 30
0.0
 40
45.0
  1
1000 min
 50
90.0
  7
TITLE3
  0
TEXT
  5
100D
  8
TEXT
 10
3993.1946866957651
 20
3395.8461265625988
 30
0.0
 40
45.0
  1
CLEARANCE
 50
90.0
  7
TITLE3
  0
TEXT
  5
100E
  8
TEXT
 10
4746.4541138624818
 20
3472.51798686557
 30
0.0
 40
75.0
  1
OSA182
  7
TITLE5
 72
     1
 11
4950.0255424339102
 21
3472.51798686557
 31
0.0
  0
TEXT
  5
100F
  8
TEXT
 10
2383.693847452681
 20
3475.4267133308808
 30
0.0
 40
75.0
  1
OSA182
  7
TITLE5
 72
     1
 11
2587.265276024109
 21
3475.4267133308808
 31
0.0
  0
LINE
  5
106C
  8
CLEAR
 10
3222.0463997030861
 20
1878.0953343023721
 30
0.0
 11
3222.0463997030852
 21
2177.8734038101452
 31
0.0
  0
LINE
  5
1083
  8
OUTLINE
 10
4391.0975848368516
 20
3323.7830840071042
 30
0.0
 11
4672.8635036235901
 21
3323.7830840071042
 31
0.0
  0
LINE
  5
1084
  8
OUTLINE
 10
4391.0975848368516
 20
3699.7830840071042
 30
0.0
 11
4672.384386382565
 21
3699.7830840071028
 31
0.0
  0
LINE
  5
1085
  8
OUTLINE
 10
5400.3292835689163
 20
3692.983084007104
 30
0.0
 11
5411.2292835689168
 21
3724.2830840071051
 31
0.0
  0
LINE
  5
1086
  8
OUTLINE
 10
5400.3292835689163
 20
3329.5084775519499
 30
0.0
 11
5411.2292835689168
 21
3303.2830840071042
 31
0.0
  0
TEXT
  5
10A0
  8
TEXT
 10
5115.8581734788086
 20
556.56898589035484
 30
0.0
 40
28.0
  1
available on request
  7
TITLE3
  0
TEXT
  5
10A1
  8
TEXT
 10
5115.8581734788086
 20
604.56898589035472
 30
0.0
 40
28.0
  1
Certified dimensions
  7
TITLE3
  0
TEXT
  5
10A2
  8
TEXT
 10
5115.8581734788086
 20
652.56898589035472
 30
0.0
 40
28.0
  1
without notice or obligation.
  7
TITLE3
  0
TEXT
  5
10A3
  8
TEXT
 10
5115.8581734788086
 20
700.56898589035472
 30
0.0
 40
28.0
  1
specifications at any time
  7
TITLE3
  0
TEXT
  5
10A4
  8
TEXT
 10
5115.8581734788086
 20
748.56898589035472
 30
0.0
 40
28.0
  1
the right to change 
  7
TITLE3
  0
TEXT
  5
10A5
  8
TEXT
 10
5115.8581734788086
 20
844.56898589035472
 30
0.0
 40
28.0
  1
NOTE
  7
TITLE3
  0
TEXT
  5
10A6
  8
TEXT
 10
5115.8581734788086
 20
796.56898589035472
 30
0.0
 40
28.0
  1
The manufacturer reserves
  7
TITLE3
  0
LINE
  5
10C2
  8
DIM
 10
5409.8098071798358
 20
3323.7830840071042
 30
0.0
 11
5419.3345320462213
 21
3323.7830840071042
 31
0.0
  0
LINE
  5
10C3
  8
DIM
 10
5409.8098071798358
 20
3698.7830840071042
 30
0.0
 11
5419.3345320462213
 21
3698.7830840071042
 31
0.0
  0
LINE
  5
10C5
  8
DIM
 10
5600.3738389988994
 20
3653.7830840071042
 30
0.0
 11
5600.3738389988994
 21
3368.7830840071042
 31
0.0
  0
SOLID
  5
10C6
  8
DIM
 10
5592.8738389989012
 20
3653.7830840071042
 30
0.0
 11
5607.8738389988976
 21
3653.7830840071042
 31
0.0
 12
5600.3738389988994
 22
3698.7830840071042
 32
0.0
 13
5600.3738389988994
 23
3698.7830840071042
 33
0.0
  0
SOLID
  5
10C8
  8
DIM
 10
5592.8738389989012
 20
3368.7830840071042
 30
0.0
 11
5607.8738389988976
 21
3368.7830840071042
 31
0.0
 12
5600.3738389988994
 22
3323.7830840071042
 32
0.0
 13
5600.3738389988994
 23
3323.7830840071042
 33
0.0
  0
LINE
  5
10C9
  8
DIM
 10
5600.3738389988994
 20
3769.2830840071051
 30
0.0
 11
5600.3738389988994
 21
3814.2830840071051
 31
0.0
  0
SOLID
  5
10CA
  8
DIM
 10
5592.8738389989012
 20
3769.2830840071051
 30
0.0
 11
5607.8738389988976
 21
3769.2830840071051
 31
0.0
 12
5600.3738389988994
 22
3724.2830840071051
 32
0.0
 13
5600.3738389988994
 23
3724.2830840071051
 33
0.0
  0
TEXT
  5
10CB
  8
DIM
 10
5580.2837019099879
 20
3803.9262046946969
 30
0.0
 40
36.0
  1
25.5
 50
90.0
  7
TITLE3
 72
     1
 11
5562.2837019099879
 21
3858.7833475518401
 31
0.0
 73
     2
  0
LINE
  5
10DA
  8
OUTLINE
 10
2967.3455691170848
 20
3310.0830840071039
 30
0.0
 11
3078.745569117084
 21
3310.0830840071039
 31
0.0
  0
LINE
  5
10DB
  8
OUTLINE
 10
2957.745569117084
 20
3323.7830840071042
 30
0.0
 11
2957.745569117084
 21
3319.6830840071052
 31
0.0
  0
LINE
  5
10DC
  8
OUTLINE
 10
2957.745569117084
 20
3319.6830840071052
 30
0.0
 11
2967.3455691170848
 21
3310.0830840071039
 31
0.0
  0
LINE
  5
10DD
  8
OUTLINE
 10
3088.3455691170848
 20
3319.6830840071052
 30
0.0
 11
3078.745569117084
 21
3310.0830840071039
 31
0.0
  0
LINE
  5
10DE
  8
OUTLINE
 10
3088.3455691170848
 20
3319.6830840071061
 30
0.0
 11
3088.3455691170848
 21
3323.7830840071042
 31
0.0
  0
LINE
  5
10DF
  8
OUTLINE
 10
3009.0455691170828
 20
3713.483084007104
 30
0.0
 11
2967.3455691170848
 21
3713.483084007104
 31
0.0
  0
LINE
  5
10E0
  8
OUTLINE
 10
2957.745569117084
 20
3703.8830840071041
 30
0.0
 11
2957.745569117084
 21
3699.7830840071042
 31
0.0
  0
LINE
  5
10E1
  8
OUTLINE
 10
2957.745569117084
 20
3703.8830840071041
 30
0.0
 11
2967.3455691170848
 21
3713.483084007104
 31
0.0
  0
LINE
  5
10E2
  8
OUTLINE
 10
3088.3455691170848
 20
3703.8830840071041
 30
0.0
 11
3078.745569117084
 21
3713.483084007104
 31
0.0
  0
LINE
  5
10E3
  8
OUTLINE
 10
3078.745569117084
 20
3713.483084007104
 30
0.0
 11
3037.0455691170819
 21
3713.483084007104
 31
0.0
  0
LINE
  5
10E4
  8
OUTLINE
 10
3009.0455691170828
 20
3713.483084007104
 30
0.0
 11
3017.0455691170841
 21
3705.483084007104
 31
0.0
  0
LINE
  5
10E5
  8
OUTLINE
 10
3037.0455691170819
 20
3713.483084007104
 30
0.0
 11
3029.0455691170819
 21
3705.483084007104
 31
0.0
  0
LINE
  5
10E6
  8
OUTLINE
 10
3017.0455691170841
 20
3699.7830840071042
 30
0.0
 11
3017.0455691170841
 21
3705.483084007104
 31
0.0
  0
LINE
  5
10E7
  8
OUTLINE
 10
3029.0455691170819
 20
3699.7830840071042
 30
0.0
 11
3029.0455691170819
 21
3705.483084007104
 31
0.0
  0
LINE
  5
10E8
  8
OUTLINE
 10
3088.3455691170848
 20
3699.7830840071042
 30
0.0
 11
3088.3455691170848
 21
3703.8830840071041
 31
0.0
  0
LINE
  5
10EC
  8
OUTLINE
 10
3203.6116183869422
 20
2172.3461401643531
 30
0.0
 11
3248.171617504961
 21
2185.7064756604891
 31
0.0
  0
LINE
  5
10EE
  8
OUTLINE
 10
3203.4507792899381
 20
2192.703401149809
 30
0.0
 11
3248.0107784079569
 21
2206.063736645945
 31
0.0
  0
LINE
  5
10EF
  8
OUTLINE
 10
2078.9219459536448
 20
2155.487337105144
 30
0.0
 11
2123.4819450716641
 21
2168.8476726012791
 31
0.0
  0
LINE
  5
10F0
  8
OUTLINE
 10
2074.4659593993401
 20
2173.3011306157632
 30
0.0
 11
2119.025958517359
 21
2186.6614661118979
 31
0.0
  0
LINE
  5
10F1
  8
CLEAR
 10
2099.046399703087
 20
2180.6710349156028
 30
0.0
 11
2099.046399703087
 21
3272.5677011479579
 31
0.0
  0
LINE
  5
10F2
  8
CLEAR
 10
3222.0463997030852
 20
2198.2788888606692
 30
0.0
 11
3222.0463997030861
 21
3272.5677011479579
 31
0.0
  0
LINE
  5
10FF
  8
OUTLINE
 10
3727.5354714622008
 20
3301.8083758872049
 30
0.0
 11
3722.0805686426979
 21
3348.007251644055
 31
0.0
  0
LINE
  5
1100
  8
OUTLINE
 10
3707.4569792970042
 20
3305.169639997212
 30
0.0
 11
3702.0020764775009
 21
3351.3685157540631
 31
0.0
  0
LINE
  5
1101
  8
OUTLINE
 10
3712.192408016399
 20
3823.1736291718889
 30
0.0
 11
3706.7375051968961
 21
3869.3725049287391
 31
0.0
  0
LINE
  5
1102
  8
OUTLINE
 10
3692.1139158512019
 20
3826.534893281897
 30
0.0
 11
3686.659013031699
 21
3872.7337690387481
 31
0.0
  0
LINE
  5
1103
  8
CLEAR
 10
3705.2592087550411
 20
3323.7830840071042
 30
0.0
 11
3261.1536621626569
 21
3323.7830840071042
 31
0.0
  0
LINE
  5
1104
  8
CLEAR
 10
3709.0505135908729
 20
3849.7830840071028
 30
0.0
 11
4031.6792505634771
 21
3849.7830840071042
 31
0.0
  0
CIRCLE
  5
110E
  8
OUTLINE
 10
2535.072803374353
 20
677.05137816974423
 30
0.0
 40
237.0
  0
CIRCLE
  5
1110
  8
OUTLINE
 10
2535.072803374353
 20
1211.2956955575819
 30
0.0
 40
237.0
  0
LINE
  5
1111
  8
OUTLINE
 10
4695.1397663307507
 20
3301.8083758872049
 30
0.0
 11
4689.6848635112483
 21
3348.007251644055
 31
0.0
  0
LINE
  5
1112
  8
OUTLINE
 10
4675.0612741655514
 20
3305.169639997212
 30
0.0
 11
4669.6063713460508
 21
3351.3685157540631
 31
0.0
  0
LINE
  5
1113
  8
OUTLINE
 10
4695.1397663307507
 20
3673.7506174589648
 30
0.0
 11
4689.6848635112483
 21
3719.949493215815
 31
0.0
  0
LINE
  5
1114
  8
OUTLINE
 10
4675.0612741655514
 20
3677.111881568972
 30
0.0
 11
4669.6063713460508
 21
3723.310757325823
 31
0.0
  0
LINE
  5
1115
  8
OUTLINE
 10
4692.545116670618
 20
3323.7830840071042
 30
0.0
 11
5388.2292835689168
 21
3323.7830840071042
 31
0.0
  0
LINE
  5
1116
  8
OUTLINE
 10
4692.0659994295929
 20
3699.7830840071028
 30
0.0
 11
5388.2292835689168
 21
3699.7830840071019
 31
0.0
  0
ENDSEC
  0
EOF
