  0
SECTION
  2
HEADER
  9
$ACADVER
  1
AC1009
  9
$INSBASE
 10
0.0
 20
0.0
 30
0.0
  9
$EXTMIN
 10
1430.412379601576
 20
-61.083031994852718
 30
-0.0015258207003583
  9
$EXTMAX
 10
3935.1200958321051
 20
2100.1971034619469
 30
0.0000000349246037
  9
$LIMMIN
 10
0.0
 20
0.0
  9
$LIMMAX
 10
3890.0
 20
2660.0
  9
$ORTHOMODE
 70
     1
  9
$REGENMODE
 70
     1
  9
$FILLMODE
 70
     1
  9
$QTEXTMODE
 70
     0
  9
$MIRRTEXT
 70
     0
  9
$DRAGMODE
 70
     2
  9
$LTSCALE
 40
25.0
  9
$OSMODE
 70
     0
  9
$ATTMODE
 70
     1
  9
$TEXTSIZE
 40
25.0
  9
$TRACEWID
 40
0.05
  9
$TEXTSTYLE
  7
SIMPLEX
  9
$CLAYER
  8
DIM
  9
$CELTYPE
  6
BYLAYER
  9
$CECOLOR
 62
   256
  9
$DIMSCALE
 40
1.0
  9
$DIMASZ
 40
30.0
  9
$DIMEXO
 40
20.0
  9
$DIMDLI
 40
0.38
  9
$DIMRND
 40
0.0
  9
$DIMDLE
 40
0.0
  9
$DIMEXE
 40
20.0
  9
$DIMTP
 40
0.0
  9
$DIMTM
 40
0.0
  9
$DIMTXT
 40
30.0
  9
$DIMCEN
 40
0.09
  9
$DIMTSZ
 40
0.0
  9
$DIMTOL
 70
     0
  9
$DIMLIM
 70
     0
  9
$DIMTIH
 70
     0
  9
$DIMTOH
 70
     0
  9
$DIMSE1
 70
     0
  9
$DIMSE2
 70
     0
  9
$DIMTAD
 70
     0
  9
$DIMZIN
 70
     0
  9
$DIMBLK
  1

  9
$DIMASO
 70
     0
  9
$DIMSHO
 70
     0
  9
$DIMPOST
  1

  9
$DIMAPOST
  1

  9
$DIMALT
 70
     0
  9
$DIMALTD
 70
     2
  9
$DIMALTF
 40
25.399999999999999
  9
$DIMLFAC
 40
1.0
  9
$DIMTOFL
 70
     0
  9
$DIMTVP
 40
0.0
  9
$DIMTIX
 70
     0
  9
$DIMSOXD
 70
     0
  9
$DIMSAH
 70
     0
  9
$DIMBLK1
  1

  9
$DIMBLK2
  1

  9
$DIMSTYLE
  2
STANDARD
  9
$DIMCLRD
 70
   256
  9
$DIMCLRE
 70
   256
  9
$DIMCLRT
 70
   256
  9
$DIMTFAC
 40
1.0
  9
$DIMGAP
 40
20.0
  9
$LUNITS
 70
     2
  9
$LUPREC
 70
     2
  9
$SKETCHINC
 40
0.1
  9
$FILLETRAD
 40
0.0
  9
$AUNITS
 70
     0
  9
$AUPREC
 70
     2
  9
$MENU
  1
\acad12\support\cnc
  9
$ELEVATION
 40
0.0
  9
$PELEVATION
 40
0.0
  9
$THICKNESS
 40
0.0
  9
$LIMCHECK
 70
     0
  9
$BLIPMODE
 70
     0
  9
$CHAMFERA
 40
0.0
  9
$CHAMFERB
 40
0.0
  9
$SKPOLY
 70
     0
  9
$TDCREATE
 40
2451409.6119530089
  9
$TDUPDATE
 40
2454504.3731554048
  9
$TDINDWG
 40
0.9309272801
  9
$TDUSRTIMER
 40
0.9309256481
  9
$USRTIMER
 70
     1
  9
$ANGBASE
 50
0.0
  9
$ANGDIR
 70
     0
  9
$PDMODE
 70
     2
  9
$PDSIZE
 40
10.0
  9
$PLINEWID
 40
0.0
  9
$COORDS
 70
     2
  9
$SPLFRAME
 70
     0
  9
$SPLINETYPE
 70
     6
  9
$SPLINESEGS
 70
     8
  9
$ATTDIA
 70
     0
  9
$ATTREQ
 70
     1
  9
$HANDLING
 70
     1
  9
$HANDSEED
  5
1F70
  9
$SURFTAB1
 70
     6
  9
$SURFTAB2
 70
     6
  9
$SURFTYPE
 70
     6
  9
$SURFU
 70
     6
  9
$SURFV
 70
     6
  9
$UCSNAME
  2

  9
$UCSORG
 10
0.0
 20
0.0
 30
0.0
  9
$UCSXDIR
 10
1.0
 20
0.0
 30
0.0
  9
$UCSYDIR
 10
0.0
 20
1.0
 30
0.0
  9
$PUCSNAME
  2

  9
$PUCSORG
 10
0.0
 20
0.0
 30
0.0
  9
$PUCSXDIR
 10
1.0
 20
0.0
 30
0.0
  9
$PUCSYDIR
 10
0.0
 20
1.0
 30
0.0
  9
$USERI1
 70
     0
  9
$USERI2
 70
     0
  9
$USERI3
 70
     0
  9
$USERI4
 70
     0
  9
$USERI5
 70
     0
  9
$USERR1
 40
0.0
  9
$USERR2
 40
0.0
  9
$USERR3
 40
0.0
  9
$USERR4
 40
0.0
  9
$USERR5
 40
0.0
  9
$WORLDVIEW
 70
     1
  9
$SHADEDGE
 70
     3
  9
$SHADEDIF
 70
    70
  9
$TILEMODE
 70
     1
  9
$MAXACTVP
 70
    16
  9
$PLIMCHECK
 70
     0
  9
$PEXTMIN
 10
1.0000000000000000E+020
 20
1.0000000000000000E+020
 30
1.0000000000000000E+020
  9
$PEXTMAX
 10
-1.0000000000000000E+020
 20
-1.0000000000000000E+020
 30
-1.0000000000000000E+020
  9
$PLIMMIN
 10
0.0
 20
0.0
  9
$PLIMMAX
 10
12.0
 20
9.0
  9
$UNITMODE
 70
     0
  9
$VISRETAIN
 70
     0
  9
$PLINEGEN
 70
     0
  9
$PSLTSCALE
 70
     0
  0
ENDSEC
  0
SECTION
  2
TABLES
  0
TABLE
  2
VPORT
 70
     1
  0
VPORT
  2
*ACTIVE
 70
     0
 10
0.0
 20
0.0
 11
1.0
 21
1.0
 12
2682.7662377168408
 22
1019.557035733547
 13
0.0
 23
0.0
 14
25.0
 24
25.0
 15
100.0
 25
100.0
 16
0.0
 26
0.0
 36
1.0
 17
0.0
 27
0.0
 37
0.0
 40
2174.3129804947289
 41
1.848088531187122
 42
50.0
 43
0.0
 44
0.0
 50
0.0
 51
0.0
 71
     0
 72
   100
 73
     1
 74
     0
 75
     0
 76
     0
 77
     0
 78
     0
  0
ENDTAB
  0
TABLE
  2
LTYPE
 70
    17
  0
LTYPE
  2
CONTINUOUS
 70
     0
  3
Solid line
 72
    65
 73
     0
 40
0.0
  0
LTYPE
  2
HIDDEN
 70
     0
  3
Hidden __ __ __ __ __ __ __ __ __ __ __ __ __ _
 72
    65
 73
     2
 40
0.375
 49
0.25
 49
-0.125
  0
LTYPE
  2
PHANTOM2
 70
     0
  3
Phantom (.5x) ___ _ _ ___ _ _ ___ _ _ ___ _ _
 72
    65
 73
     6
 40
1.25
 49
0.625
 49
-0.125
 49
0.125
 49
-0.125
 49
0.125
 49
-0.125
  0
LTYPE
  2
CENTER
 70
     0
  3
Center ____ _ ____ _ ____ _ ____ _ ____ _ ____
 72
    65
 73
     4
 40
2.0
 49
1.25
 49
-0.25
 49
0.25
 49
-0.25
  0
LTYPE
  2
AM_ISO02W050
 70
     0
  3
__ __ __ __ __ __ __ __ __ __ __ __ __ __ __
 72
    65
 73
     2
 40
7.5
 49
6.0
 49
-1.5
  0
LTYPE
  2
AM_ISO08W050
 70
     0
  3
____ . ____ . ____ . ____ . ____ . ____ . ____
 72
    65
 73
     4
 40
18.0
 49
12.0
 49
-1.5
 49
3.0
 49
-1.5
  0
LTYPE
  2
AM_ISO09W050
 70
     0
  3
_____ . . _____ . . _____ . . ____ .. ____
 72
    65
 73
     6
 40
22.5
 49
12.0
 49
-1.5
 49
3.0
 49
-1.5
 49
3.0
 49
-1.5
  0
LTYPE
  2
AMCONSTR
 70
     0
  3
_______________________
 72
    65
 73
     2
 40
9999.0
 49
9999.0
 49
0.0
  0
LTYPE
  2
AM_ISO08W050X2
 70
     0
  3
__ . __ . __ . __ . __ . __
 72
    65
 73
     4
 40
9.0
 49
6.0
 49
-0.75
 49
1.5
 49
-0.75
  0
LTYPE
  2
AM_ISO02W050X2
 70
     0
  3
 _ _ _ _ _ _ _ _ _ _ _ _
 72
    65
 73
     2
 40
3.75
 49
3.0
 49
-0.75
  0
LTYPE
  2
AMZIGZAG
 70
     0
  3
/\/-/\/-/\/-/\/-/\/-/\/
 72
    65
 73
     2
 40
11.0001
 49
0.0001
 49
-11.0
  0
LTYPE
  2
CENTER2
 70
     0
  3
Center (.5x) ___ _ ___ _ ___ _ ___ _ ___ _ ___
 72
    65
 73
     4
 40
1.125
 49
0.75
 49
-0.125
 49
0.125
 49
-0.125
  0
LTYPE
  2
HIDDEN2
 70
     0
  3
Hidden (.5x) _ _ _ _ _ _ _ _ _ _ _ _ _ _ _ _ _
 72
    65
 73
     2
 40
0.1875
 49
0.125
 49
-0.0625
  0
LTYPE
  2
AMZIGZAG2
 70
     0
  3
/\/-/\/-/\/-/\/-/\/-/\/
 72
    65
 73
     2
 40
0.4401
 49
0.0001
 49
-0.4400000000000003
  0
LTYPE
  2
ACANSTGB
 70
     0
  3
__ . . __ . .
 72
    65
 73
     6
 40
0.35433070866
 49
0.15748031496
 49
-0.03937007874
 49
0.03937007874
 49
-0.03937007874
 49
0.03937007874
 49
-0.03937007874
  0
LTYPE
  2
ACANSTGL
 70
     0
  3
_ _ _ _ _
 72
    65
 73
     2
 40
0.11811023622
 49
0.07874015748
 49
-0.03937007874
  0
ENDTAB
  0
TABLE
  2
LAYER
 70
     5
  0
LAYER
  2
0
 70
     0
 62
     7
  6
CONTINUOUS
  0
LAYER
  2
DIM
 70
     0
 62
     7
  6
CONTINUOUS
  0
LAYER
  2
TEXT
 70
     0
 62
   100
  6
CONTINUOUS
  0
LAYER
  2
OUTLINE
 70
     0
 62
     7
  6
CONTINUOUS
  0
LAYER
  2
OVERLAY-A3
 70
     0
 62
     7
  6
CONTINUOUS
  0
ENDTAB
  0
TABLE
  2
STYLE
 70
     8
  0
STYLE
  2
STANDARD
 70
     0
 40
0.0
 41
1.0
 50
0.0
 71
     0
 42
0.2
  3
txt
  4

  0
STYLE
  2
SIMPLEX
 70
     0
 40
30.0
 41
1.0
 50
0.0
 71
     0
 42
25.0
  3
SIMPLEX.shx
  4

  0
STYLE
  2
TITLE3
 70
     0
 40
25.0
 41
1.0
 50
0.0
 71
     0
 42
25.0
  3
SIMPLEX
  4

  0
STYLE
  2
TITLE5
 70
     0
 40
50.0
 41
1.0
 50
0.0
 71
     0
 42
50.0
  3
SIMPLEX
  4

  0
STYLE
  2

 70
     1
 40
0.0
 41
1.0
 50
0.0
 71
     0
 42
25.0
  3
genltshp.shx
  4

  0
STYLE
  2
ACANSTS
 70
     0
 40
1.0
 41
1.0
 50
0.0
 71
     0
 42
25.0
  3
romans.shx
  4

  0
STYLE
  2
ACANSGDT
 70
     0
 40
0.0
 41
1.0
 50
0.0
 71
     0
 42
25.0
  3
amgdt.shx
  4

  0
ENDTAB
  0
TABLE
  2
VIEW
 70
     0
  0
ENDTAB
  0
TABLE
  2
UCS
 70
     0
  0
ENDTAB
  0
TABLE
  2
APPID
 70
    10
  0
APPID
  2
ACAD
 70
     0
  0
APPID
  2
MCAD_NO_VIS
 70
     0
  0
APPID
  2
ACAD_TEMP_GRAPHIC
 70
     0
  0
APPID
  2
AD_DRAW
 70
     0
  0
APPID
  2
ACATTRIBSERVICES
 70
     0
  0
APPID
  2
DESIGNERASSEMBLIES
 70
     0
  0
APPID
  2
ACADM_DIM_EDIT
 70
     0
  0
APPID
  2
AMDT_DM_ADJ
 70
     0
  0
APPID
  2
ACAD_EXEMPT_FROM_CAD_STANDARDS
 70
     0
  0
APPID
  2
ACAD_PSEXT
 70
     0
  0
ENDTAB
  0
TABLE
  2
DIMSTYLE
 70
     9
  0
DIMSTYLE
  2
STANDARD
 70
     0
  3

  4

  5

  6

  7

 40
1.0
 41
0.18
 42
0.0625
 43
0.38
 44
0.18
 45
0.0
 46
0.0
 47
0.0
 48
0.0
140
0.18
141
0.09
142
0.0
143
25.399999999999999
144
1.0
145
0.0
146
1.0
147
0.09
 71
     0
 72
     0
 73
     1
 74
     1
 75
     0
 76
     0
 77
     0
 78
     0
170
     0
171
     2
172
     0
173
     0
174
     0
175
     0
176
     0
177
     0
178
     0
  0
DIMSTYLE
  2
AM_ANSI
 70
     0
  3

  4
mm
  5

  6

  7

 40
1.0
 41
0.1
 42
0.05
 43
0.5
 44
0.1
 45
0.0
 46
0.0
 47
0.1
 48
0.1
140
0.12
141
0.0
142
0.0
143
25.399999999999999
144
1.0
145
0.0
146
0.71
147
0.06
 71
     0
 72
     0
 73
     1
 74
     1
 75
     0
 76
     0
 77
     0
 78
     7
170
     0
171
     2
172
     0
173
     0
174
     0
175
     0
176
   256
177
   256
178
     2
  0
DIMSTYLE
  2
AM_ANSI$3
 70
     0
  3

  4
mm
  5

  6

  7

 40
1.0
 41
0.1
 42
0.05
 43
0.5
 44
0.1
 45
0.0
 46
0.0
 47
0.1
 48
0.1
140
0.12
141
0.0
142
0.0
143
25.399999999999999
144
1.0
145
0.0
146
0.71
147
0.06
 71
     0
 72
     0
 73
     1
 74
     1
 75
     0
 76
     0
 77
     0
 78
     7
170
     0
171
     2
172
     0
173
     0
174
     0
175
     0
176
   256
177
   256
178
     2
  0
DIMSTYLE
  2
AM_ANSI$4
 70
     0
  3

  4
mm
  5

  6

  7

 40
1.0
 41
0.1
 42
0.05
 43
0.5
 44
0.1
 45
0.0
 46
0.0
 47
0.1
 48
0.1
140
0.12
141
0.0
142
0.0
143
25.399999999999999
144
1.0
145
0.0
146
0.71
147
0.06
 71
     0
 72
     0
 73
     1
 74
     1
 75
     0
 76
     0
 77
     0
 78
     7
170
     0
171
     2
172
     0
173
     0
174
     0
175
     0
176
   256
177
   256
178
     2
  0
DIMSTYLE
  2
AM_ANSI$7
 70
     0
  3

  4
mm
  5

  6

  7

 40
1.0
 41
0.1
 42
0.05
 43
0.5
 44
0.1
 45
0.0
 46
0.0
 47
0.1
 48
0.1
140
0.24
141
0.0
142
0.0
143
25.399999999999999
144
1.0
145
0.0
146
0.71
147
0.06
 71
     0
 72
     0
 73
     1
 74
     1
 75
     0
 76
     0
 77
     0
 78
     7
170
     0
171
     2
172
     0
173
     0
174
     0
175
     0
176
   256
177
   256
178
     2
  0
DIMSTYLE
  2
AM_ANSI$SF
 70
     0
  3

  4
mm
  5

  6

  7

 40
1.0
 41
0.1
 42
0.05
 43
0.5
 44
0.1
 45
0.0
 46
0.0
 47
0.1
 48
0.1
140
0.12
141
0.0
142
0.0
143
25.399999999999999
144
1.0
145
0.0
146
0.71
147
0.06
 71
     0
 72
     0
 73
     1
 74
     1
 75
     1
 76
     1
 77
     0
 78
     7
170
     0
171
     2
172
     0
173
     0
174
     0
175
     0
176
   256
177
   256
178
     2
  0
DIMSTYLE
  2
AM_ANSI$SH
 70
     0
  3

  4
mm
  5

  6

  7

 40
1.0
 41
0.1
 42
0.05
 43
0.5
 44
0.1
 45
0.0
 46
0.0
 47
0.1
 48
0.1
140
0.12
141
0.0
142
0.0
143
25.399999999999999
144
1.0
145
0.0
146
0.71
147
0.06
 71
     0
 72
     0
 73
     1
 74
     1
 75
     1
 76
     1
 77
     0
 78
     7
170
     0
171
     2
172
     0
173
     1
174
     0
175
     0
176
   256
177
   256
178
     2
  0
ENDTAB
  0
ENDSEC
  0
SECTION
  2
BLOCKS
  0
BLOCK
  8
0
  2
$MODEL_SPACE
 70
     0
 10
0.0
 20
0.0
 30
0.0
  3
$MODEL_SPACE
  1

  0
ENDBLK
  5
1EEE
  8
0
  0
BLOCK
 67
     1
  8
0
  2
$PAPER_SPACE
 70
     0
 10
0.0
 20
0.0
 30
0.0
  3
$PAPER_SPACE
  1

  0
ENDBLK
  5
1EEA
 67
     1
  8
0
  0
BLOCK
  8
0
  2
NEW_BLOCK
 70
     0
 10
0.0
 20
0.0
 30
0.0
  3
NEW_BLOCK
  1

  0
TEXT
  5
B67
  8
TEXT
 10
27.285946821803002
 20
25.27142175952417
 30
0.0
 40
40.0
  1
available on request
  7
TITLE3
  0
TEXT
  5
B68
  8
TEXT
 10
27.285946821803002
 20
93.842850330952714
 30
0.0
 40
40.0
  1
Certified dimensions
  7
TITLE3
  0
TEXT
  5
B69
  8
TEXT
 10
27.285946821803002
 20
162.4142789023812
 30
0.0
 40
40.0
  1
without notice or obligation.
  7
TITLE3
  0
TEXT
  5
B6A
  8
TEXT
 10
27.285946821803002
 20
230.9857074738097
 30
0.0
 40
40.0
  1
specifications at any time
  7
TITLE3
  0
TEXT
  5
B6B
  8
TEXT
 10
27.285946821803002
 20
299.55713604523839
 30
0.0
 40
40.0
  1
the right to change 
  7
TITLE3
  0
TEXT
  5
B6C
  8
TEXT
 10
27.285946821803002
 20
436.69999318809488
 30
0.0
 40
40.0
  1
NOTE
  7
TITLE3
  0
TEXT
  5
B6D
  8
TEXT
 10
27.285946821803002
 20
368.12856461666678
 30
0.0
 40
40.0
  1
The manufacturer reserves
  7
TITLE3
  0
ENDBLK
  5
B6E
  8
0
  0
BLOCK
  8
0
  2
GENAXEH
 70
     0
 10
0.0
 20
0.0
 30
0.0
  3
GENAXEH
  1

  0
LINE
  5
D72
  8
0
 10
-1.0
 20
0.0
 30
0.0
 11
1.0
 21
0.0
 31
0.0
  0
ENDBLK
  5
D74
  8
0
  0
ENDSEC
  0
SECTION
  2
ENTITIES
  0
TEXT
  5
B6F
  8
TEXT
 10
2989.386358571262
 20
210.50014060605099
 30
0.0
 40
50.0
  1
temperzone HWP 117
  7
TITLE5
 72
     1
 11
3389.386358571262
 21
210.50014060605099
 31
0.0
  0
TEXT
  5
B70
  8
TEXT
 10
3475.0
 20
9.0
 30
0.0
 40
30.0
  1
HWP117
 41
1.796460176991151
  7
TITLE3
 72
     5
 11
3765.0
 21
9.0
 31
0.0
  0
TEXT
  5
B72
  8
OVERLAY-A3
 10
2892.2885441441222
 20
49.831213860100902
 30
0.0
 40
24.0
  1
Date
  7
SIMPLEX
  0
TEXT
  5
B73
  8
OVERLAY-A3
 10
3791.1111923736021
 20
68.503302023411209
 30
0.0
 40
24.0
  1
Revision
 41
0.7812095035934776
  7
SIMPLEX
 72
     5
 11
3896.4628740010648
 21
68.503302023411209
 31
0.0
  0
LINE
  5
B74
  8
OVERLAY-A3
 10
3779.4913499901609
 20
-40.157507151682857
 30
0.0
 11
3779.4913499901609
 21
107.2686557085465
 31
0.0
  0
LINE
  5
B75
  8
OVERLAY-A3
 10
2864.3515294571471
 20
276.34263345436813
 30
0.0
 11
2864.3515294571471
 21
-40.157507151682857
 31
0.0
  0
LINE
  5
B76
  8
OVERLAY-A3
 10
3461.9136780130939
 20
-40.157507151682857
 30
0.0
 11
3461.9136780130939
 21
107.2686557085465
 31
0.0
  0
LINE
  5
B77
  8
OVERLAY-A3
 10
3461.9136780130939
 20
32.312599269463767
 30
0.0
 11
2864.3515294571471
 21
32.312599269463767
 31
0.0
  0
LINE
  5
B78
  8
OVERLAY-A3
 10
3906.5754652378419
 20
107.2686557085465
 30
0.0
 11
2864.3515294571471
 21
107.2686557085465
 31
0.0
  0
LINE
  5
B79
  8
OVERLAY-A3
 10
2864.3515294571471
 20
-40.157507151682857
 30
0.0
 11
3906.277958059492
 21
-40.157507151682857
 31
0.0
  0
LINE
  5
B7A
  8
OVERLAY-A3
 10
3906.277958059492
 20
-40.157507151682857
 30
0.0
 11
3906.277958059492
 21
276.34263345436813
 31
0.0
  0
LINE
  5
B7B
  8
OVERLAY-A3
 10
3906.277958059492
 20
276.34263345436813
 30
0.0
 11
2864.3515294571471
 21
276.34263345436813
 31
0.0
  0
TEXT
  5
B7C
  8
OVERLAY-A3
 10
2889.4832191031091
 20
-13.07751193464232
 30
0.0
 40
20.0
  1
Scale
 41
1.370174796565985
  7
SIMPLEX
 72
     5
 11
2989.9627041846152
 21
-13.07751193464232
 31
0.0
  0
TEXT
  5
B7D
  8
OVERLAY-A3
 10
3519.8591236007978
 20
67.893431506709703
 30
0.0
 40
20.0
  1
Drawing No.
  7
SIMPLEX
 72
     2
 11
3694.1448378865121
 21
67.893431506709703
 31
0.0
  0
LINE
  5
B7E
  8
OVERLAY-A3
 10
1430.578375694022
 20
-60.72824687478078
 30
0.0
 11
3935.0000000001569
 21
-61.0
 31
0.0
  0
LINE
  5
B7F
  8
OVERLAY-A3
 10
3935.0000000001569
 20
-61.0
 30
0.0
 11
3935.0000000001569
 21
2100.1421540734068
 31
0.0
  0
LINE
  5
B80
  8
OVERLAY-A3
 10
3935.0000000001569
 20
2100.1421540734068
 30
0.0
 11
1430.578375694022
 21
2100.1421540734068
 31
0.0
  0
LINE
  5
B81
  8
OVERLAY-A3
 10
1430.578375694022
 20
2100.1421540734068
 30
0.0
 11
1430.578375694022
 21
-60.72824687478078
 31
0.0
  0
TEXT
  5
C1A
  8
TEXT
 10
2995.7035006619162
 20
49.0
 30
0.0
 40
25.0
  1
05-02-08
 41
0.8096385542168652
  7
TITLE3
 72
     5
 11
3155.7035006619149
 21
49.0
 31
0.0
  0
TEXT
  5
C49
  8
TEXT
 10
3046.04344477519
 20
-13.501387267190699
 30
0.0
 40
25.0
  1
1:10
  7
TITLE3
  0
INSERT
  5
C59
  8
TEXT
  2
NEW_BLOCK
 10
1470.557764683153
 20
-29.72834059049493
 30
0.0
 41
0.6999999999999889
 42
0.7
 43
0.7
  0
LINE
  5
D9E
  8
OUTLINE
 10
2789.67639425588
 20
816.78307750230863
 30
0.0
 11
1634.076394255876
 21
816.78307750230863
 31
0.0
  0
LINE
  5
DAF
  8
OUTLINE
 10
2789.67639425588
 20
816.78307750230863
 30
0.0
 11
2789.67639425588
 21
808.78307750230931
 31
0.0
  0
LINE
  5
DC3
  8
OUTLINE
 10
1634.076394255876
 20
816.78307750230863
 30
0.0
 11
1634.076394255876
 21
808.78307750230681
 31
0.0
  0
LINE
  5
DD7
  8
OUTLINE
 10
1655.0763942558769
 20
816.78307750230863
 30
0.0
 11
1655.0763942558769
 21
403.78307750230857
 31
0.0
  0
LINE
  5
DDA
  8
OUTLINE
 10
2768.6763942558769
 20
816.78307750230863
 30
0.0
 11
2768.6763942558769
 21
745.78307750230863
 31
0.0
  0
LINE
  5
DDB
  8
OUTLINE
 10
2789.67639425588
 20
403.78307750230857
 30
0.0
 11
1634.076394255876
 21
403.78307750230857
 31
0.0
  0
LINE
  5
DDC
  8
OUTLINE
 10
2789.67639425588
 20
403.78307750230857
 30
0.0
 11
2789.67639425588
 21
411.783077502308
 31
0.0
  0
LINE
  5
DDD
  8
OUTLINE
 10
1634.076394255876
 20
403.78307750230857
 30
0.0
 11
1634.076394255876
 21
411.78307750231039
 31
0.0
  0
LINE
  5
DFA
  8
OUTLINE
 10
2253.4183942558798
 20
574.78307750230886
 30
0.0
 11
1853.4163942558771
 21
574.78307750230886
 31
0.0
  0
LINE
  5
DFD
  8
OUTLINE
 10
2770.3513942558811
 20
430.78307750230852
 30
0.0
 11
2470.67639425588
 21
430.78307750230852
 31
0.0
  0
LINE
  5
DFF
  8
DIM
 10
2770.3513942558789
 20
708.78307750230863
 30
0.0
 11
2770.3513942558811
 21
430.78307750230852
 31
0.0
  0
LINE
  5
E00
  8
OUTLINE
 10
2768.6763942558769
 20
422.78307750230852
 30
0.0
 11
2768.6763942558769
 21
403.78307750230857
 31
0.0
  0
LINE
  5
E1B
  8
DIM
 10
1655.0763942558769
 20
403.78307750230857
 30
0.0
 11
1655.0763942558769
 21
375.78307750230857
 31
0.0
  0
LINE
  5
E1C
  8
DIM
 10
2768.6763942558769
 20
403.78307750230857
 30
0.0
 11
2768.6763942558769
 21
392.78307750230857
 31
0.0
  0
LINE
  5
E1D
  8
DIM
 10
2768.6763942558769
 20
392.78307750230857
 30
0.0
 11
1655.0763942558769
 21
375.78307750230857
 31
0.0
  0
LINE
  5
E22
  8
OUTLINE
 10
2789.67639425588
 20
403.78307750230857
 30
0.0
 11
2789.67639425588
 21
395.7830775023088
 31
0.0
  0
LINE
  5
E23
  8
OUTLINE
 10
1634.076394255876
 20
403.78307750230857
 30
0.0
 11
1634.076394255876
 21
395.78307750230653
 31
0.0
  0
LINE
  5
E3D
  8
OUTLINE
 10
1655.0763942558769
 20
397.28307750230857
 30
0.0
 11
1630.076394255876
 21
397.28307750230857
 31
0.0
  0
LINE
  5
E3E
  8
OUTLINE
 10
1655.0763942558769
 20
378.28307750230857
 30
0.0
 11
1630.076394255876
 21
378.28307750230857
 31
0.0
  0
LINE
  5
E3F
  8
DIM
 10
1630.076394255876
 20
397.28307750230857
 30
0.0
 11
1630.076394255876
 21
378.28307750230857
 31
0.0
  0
LINE
  5
E59
  8
OUTLINE
 10
1655.0763942558769
 20
704.78307750230863
 30
0.0
 11
1589.0763942558769
 21
704.78307750230863
 31
0.0
  0
LINE
  5
E5A
  8
OUTLINE
 10
1593.576394255876
 20
704.78307750230863
 30
0.0
 11
1624.5763942558781
 21
704.78307750230863
 31
0.0
  0
LINE
  5
E5B
  8
OUTLINE
 10
1617.076394255876
 20
697.78307750230863
 30
0.0
 11
1597.0763942558769
 21
697.78307750230863
 31
0.0
  0
LINE
  5
E5C
  8
OUTLINE
 10
1589.0763942558769
 20
716.78307750230863
 30
0.0
 11
1589.0763942558769
 21
704.78307750230863
 31
0.0
  0
LINE
  5
E61
  8
OUTLINE
 10
1655.0763942558769
 20
775.78307750230863
 30
0.0
 11
1655.0763942558769
 21
715.78307750230886
 31
0.0
  0
LINE
  5
E66
  8
OUTLINE
 10
1655.0763942558769
 20
778.7830775023084
 30
0.0
 11
1643.076394255876
 21
778.7830775023084
 31
0.0
  0
LINE
  5
E67
  8
OUTLINE
 10
1643.076394255876
 20
716.78307750230863
 30
0.0
 11
1589.0763942558769
 21
716.78307750230863
 31
0.0
  0
LINE
  5
E68
  8
OUTLINE
 10
1643.076394255876
 20
778.7830775023084
 30
0.0
 11
1643.076394255876
 21
716.78307750230863
 31
0.0
  0
LINE
  5
E6E
  8
DIM
 10
1595.076394255876
 20
704.78307750230863
 30
0.0
 11
1597.0763942558769
 21
697.78307750230863
 31
0.0
  0
LINE
  5
E6F
  8
DIM
 10
1619.0763942558769
 20
704.78307750230863
 30
0.0
 11
1617.076394255876
 21
697.78307750230863
 31
0.0
  0
LINE
  5
E73
  8
OUTLINE
 10
2768.6763942558769
 20
779.78307750230863
 30
0.0
 11
2780.6763942558769
 21
779.78307750230863
 31
0.0
  0
LINE
  5
E75
  8
OUTLINE
 10
2806.6763942558769
 20
697.78307750230886
 30
0.0
 11
2826.6763942558769
 21
697.78307750230886
 31
0.0
  0
LINE
  5
E76
  8
OUTLINE
 10
2834.6763942558791
 20
716.78307750230886
 30
0.0
 11
2834.6763942558791
 21
704.78307750230886
 31
0.0
  0
LINE
  5
E77
  8
OUTLINE
 10
2768.6763942558769
 20
775.78307750230863
 30
0.0
 11
2768.6763942558769
 21
745.78307750230886
 31
0.0
  0
LINE
  5
E79
  8
DIM
 10
2828.6763942558769
 20
704.78307750230886
 30
0.0
 11
2826.6763942558769
 21
697.78307750230886
 31
0.0
  0
LINE
  5
E7A
  8
DIM
 10
2804.6763942558769
 20
704.78307750230886
 30
0.0
 11
2806.6763942558769
 21
697.78307750230886
 31
0.0
  0
LINE
  5
E93
  8
OUTLINE
 10
3786.9101823869082
 20
816.78307750230863
 30
0.0
 11
3222.7101823869111
 21
816.78307750230863
 31
0.0
  0
LINE
  5
E94
  8
OUTLINE
 10
3222.7101823869111
 20
816.78307750230863
 30
0.0
 11
3222.7101823869111
 21
808.78307750230681
 31
0.0
  0
LINE
  5
E95
  8
OUTLINE
 10
3786.9101823869082
 20
816.78307750230863
 30
0.0
 11
3786.9101823869109
 21
808.78307750230681
 31
0.0
  0
LINE
  5
E96
  8
OUTLINE
 10
3786.9101823869082
 20
403.78307750230857
 30
0.0
 11
3222.7101823869111
 21
403.78307750230857
 31
0.0
  0
LINE
  5
E97
  8
OUTLINE
 10
3222.7101823869111
 20
403.78307750230857
 30
0.0
 11
3222.7101823869111
 21
411.78307750231039
 31
0.0
  0
LINE
  5
E98
  8
OUTLINE
 10
3786.9101823869082
 20
403.78307750230857
 30
0.0
 11
3786.9101823869109
 21
411.78307750231039
 31
0.0
  0
LINE
  5
E99
  8
OUTLINE
 10
3243.5101823869109
 20
816.78307750230863
 30
0.0
 11
3243.5101823869109
 21
778.78307750230863
 31
0.0
  0
LINE
  5
E9A
  8
OUTLINE
 10
3766.110182386908
 20
816.78307750230726
 30
0.0
 11
3766.1101823869099
 21
778.78307750230863
 31
0.0
  0
LINE
  5
E9D
  8
OUTLINE
 10
3134.4101823869119
 20
779.78307750230863
 30
0.0
 11
3134.4101823869109
 21
430.78307750230852
 31
0.0
  0
LINE
  5
E9F
  8
OUTLINE
 10
3134.4101823869119
 20
795.78307750230863
 30
0.0
 11
3134.4101823869119
 21
779.78307750230863
 31
0.0
  0
LINE
  5
EBC
  8
DIM
 10
3238.8101823869119
 20
704.78307750230886
 30
0.0
 11
3285.810182386911
 21
704.78307750230863
 31
0.0
  0
LINE
  5
EBD
  8
DIM
 10
3238.8101823869119
 20
778.78307750230863
 30
0.0
 11
3285.810182386911
 21
778.78307750230863
 31
0.0
  0
LINE
  5
EBE
  8
OUTLINE
 10
3238.8101823869119
 20
778.78307750230863
 30
0.0
 11
3238.8101823869119
 21
704.78307750230886
 31
0.0
  0
LINE
  5
EBF
  8
OUTLINE
 10
3285.810182386911
 20
778.78307750230931
 30
0.0
 11
3285.810182386911
 21
704.78307750230931
 31
0.0
  0
LINE
  5
EC0
  8
OUTLINE
 10
3243.5101823869081
 20
704.78307750230886
 30
0.0
 11
3243.5101823869081
 21
375.78307750230857
 31
0.0
  0
LINE
  5
EC2
  8
OUTLINE
 10
3252.3101823869101
 20
697.78307750230886
 30
0.0
 11
3272.310182386911
 21
697.78307750230886
 31
0.0
  0
LINE
  5
EC3
  8
DIM
 10
3274.3101823869092
 20
704.78307750230886
 30
0.0
 11
3272.310182386911
 21
697.78307750230886
 31
0.0
  0
LINE
  5
EC4
  8
DIM
 10
3250.310182386911
 20
704.78307750230886
 30
0.0
 11
3252.3101823869101
 21
697.78307750230886
 31
0.0
  0
LINE
  5
EC5
  8
OUTLINE
 10
3770.8101823869079
 20
778.78307750230863
 30
0.0
 11
3770.810182386906
 21
704.78307750230886
 31
0.0
  0
LINE
  5
EC6
  8
OUTLINE
 10
3723.8101823869079
 20
778.78307750230931
 30
0.0
 11
3723.8101823869079
 21
704.78307750230931
 31
0.0
  0
LINE
  5
EC7
  8
DIM
 10
3770.810182386906
 20
716.78307750230886
 30
0.0
 11
3768.3101823869069
 21
716.78307750230886
 31
0.0
  0
LINE
  5
EC8
  8
DIM
 10
3770.810182386906
 20
704.78307750230886
 30
0.0
 11
3723.8101823869079
 21
704.78307750230863
 31
0.0
  0
LINE
  5
EC9
  8
DIM
 10
3770.8101823869079
 20
778.78307750230863
 30
0.0
 11
3723.8101823869079
 21
778.78307750230863
 31
0.0
  0
LINE
  5
ECA
  8
OUTLINE
 10
3757.3101823869079
 20
697.78307750230886
 30
0.0
 11
3737.310182386906
 21
697.78307750230886
 31
0.0
  0
LINE
  5
ECB
  8
DIM
 10
3735.3101823869079
 20
704.78307750230886
 30
0.0
 11
3737.310182386906
 21
697.78307750230886
 31
0.0
  0
LINE
  5
ECC
  8
DIM
 10
3759.3101823869079
 20
704.78307750230886
 30
0.0
 11
3757.3101823869079
 21
697.78307750230886
 31
0.0
  0
LINE
  5
ECD
  8
OUTLINE
 10
3766.1101823869139
 20
704.78307750230886
 30
0.0
 11
3766.1101823869271
 21
375.78307750230852
 31
0.0
  0
LINE
  5
ECE
  8
DIM
 10
3241.3101823869092
 20
707.28307750230886
 30
0.0
 11
3283.310182386911
 21
707.28307750230886
 31
0.0
  0
LINE
  5
ECF
  8
OUTLINE
 10
3241.3101823869092
 20
778.78307750230863
 30
0.0
 11
3241.3101823869092
 21
707.28307750230886
 31
0.0
  0
LINE
  5
ED0
  8
OUTLINE
 10
3283.310182386911
 20
778.78307750230931
 30
0.0
 11
3283.310182386911
 21
707.28307750230886
 31
0.0
  0
LINE
  5
ED1
  8
OUTLINE
 10
3726.3101823869079
 20
778.78307750230931
 30
0.0
 11
3726.3101823869051
 21
707.28307750230852
 31
0.0
  0
LINE
  5
ED2
  8
DIM
 10
3768.3101823869069
 20
707.28307750230852
 30
0.0
 11
3726.3101823869051
 21
707.28307750230852
 31
0.0
  0
LINE
  5
ED3
  8
OUTLINE
 10
3768.3101823869079
 20
778.78307750230863
 30
0.0
 11
3768.3101823869069
 21
707.28307750230852
 31
0.0
  0
LINE
  5
ED4
  8
DIM
 10
3726.3101823869051
 20
716.78307750230863
 30
0.0
 11
3723.8101823869079
 21
716.78307750230863
 31
0.0
  0
LINE
  5
ED5
  8
DIM
 10
3238.8101823869119
 20
716.78307750230886
 30
0.0
 11
3241.3101823869092
 21
716.78307750230886
 31
0.0
  0
LINE
  5
ED6
  8
DIM
 10
3283.310182386911
 20
716.78307750230886
 30
0.0
 11
3285.810182386911
 21
716.78307750230886
 31
0.0
  0
LINE
  5
EEF
  8
OUTLINE
 10
3786.9101823869082
 20
403.78307750230857
 30
0.0
 11
3786.9101823869109
 21
395.78307750230653
 31
0.0
  0
LINE
  5
EF0
  8
DIM
 10
3243.5101823869081
 20
388.78307750230857
 30
0.0
 11
3766.1101823869271
 21
388.78307750230852
 31
0.0
  0
LINE
  5
EF1
  8
DIM
 10
3243.5101823869081
 20
375.78307750230857
 30
0.0
 11
3766.1101823869271
 21
375.78307750230852
 31
0.0
  0
LINE
  5
EF2
  8
OUTLINE
 10
3222.7101823869111
 20
403.78307750230857
 30
0.0
 11
3222.7101823869079
 21
395.78307750230653
 31
0.0
  0
LINE
  5
F0D
  8
OUTLINE
 10
3828.1101823869112
 20
801.78307750230852
 30
0.0
 11
3828.110182386924
 21
431.78307750230869
 31
0.0
  0
LINE
  5
F44
  8
DIM
 10
1607.0763942558769
 20
692.78307750230863
 30
0.0
 11
1607.0763942558769
 21
709.78307750230863
 31
0.0
  0
LINE
  5
F47
  8
DIM
 10
2816.6763942558769
 20
692.78307750230886
 30
0.0
 11
2816.6763942558769
 21
709.78307750230886
 31
0.0
  0
LINE
  5
F48
  8
DIM
 10
3262.3101823869119
 20
692.78307750230886
 30
0.0
 11
3262.3101823869119
 21
709.78307750230886
 31
0.0
  0
LINE
  5
F49
  8
DIM
 10
3747.3101823869079
 20
692.78307750230886
 30
0.0
 11
3747.3101823869079
 21
709.78307750230886
 31
0.0
  0
TEXT
  5
F62
  8
TEXT
 62
     7
 10
1925.371785189534
 20
667.32085907201406
 30
0.0
 40
50.0
  1
HWP117
  7
TITLE3
  0
TEXT
  5
F63
  8
TEXT
 62
     7
 10
3379.066311855267
 20
562.89339347563305
 30
0.0
 40
50.0
  1
HWP117
  7
TITLE3
  0
LINE
  5
F64
  8
DIM
 10
3685.9983728009479
 20
607.93276928260639
 30
0.0
 11
3717.3344271291589
 21
588.88210504816277
 31
0.0
  0
LINE
  5
F65
  8
DIM
 10
3685.9983728009479
 20
607.93276928260639
 30
0.0
 11
3717.3344271291589
 21
626.98343351704546
 31
0.0
  0
LINE
  5
F66
  8
DIM
 10
3753.9916956008601
 20
600.71476008391789
 30
0.0
 11
3753.9916956008601
 21
615.15077848129386
 31
0.0
  0
LINE
  5
F67
  8
DIM
 10
3717.3344271291589
 20
600.71476008391789
 30
0.0
 11
3753.9916956008601
 21
600.71476008391789
 31
0.0
  0
LINE
  5
F68
  8
DIM
 10
3717.3344271291589
 20
588.88210504816277
 30
0.0
 11
3717.3344271291589
 21
600.71476008391789
 31
0.0
  0
LINE
  5
F69
  8
DIM
 10
3717.3344271291589
 20
615.15077848129386
 30
0.0
 11
3753.9916956008601
 21
615.15077848129386
 31
0.0
  0
LINE
  5
F6A
  8
DIM
 10
3717.3344271291589
 20
626.98343351704546
 30
0.0
 11
3717.3344271291589
 21
615.15077848129386
 31
0.0
  0
LINE
  5
F6D
  8
DIM
 10
3252.712369842548
 20
604.28307750230863
 30
0.0
 11
3284.0484241707591
 21
585.23241326786513
 31
0.0
  0
LINE
  5
F6E
  8
DIM
 10
3252.712369842548
 20
604.28307750230863
 30
0.0
 11
3284.0484241707591
 21
623.33374173674724
 31
0.0
  0
LINE
  5
F6F
  8
DIM
 10
3320.7056926424561
 20
597.06506830362025
 30
0.0
 11
3320.7056926424561
 21
611.50108670099576
 31
0.0
  0
LINE
  5
F70
  8
DIM
 10
3284.0484241707591
 20
597.06506830362025
 30
0.0
 11
3320.7056926424561
 21
597.06506830362025
 31
0.0
  0
LINE
  5
F71
  8
DIM
 10
3284.0484241707591
 20
585.23241326786513
 30
0.0
 11
3284.0484241707591
 21
597.06506830362025
 31
0.0
  0
LINE
  5
F72
  8
DIM
 10
3284.0484241707591
 20
611.50108670099576
 30
0.0
 11
3320.7056926424561
 21
611.50108670099576
 31
0.0
  0
LINE
  5
F73
  8
DIM
 10
3284.0484241707591
 20
623.33374173674724
 30
0.0
 11
3284.0484241707591
 21
611.50108670099576
 31
0.0
  0
LINE
  5
F93
  8
OUTLINE
 10
2768.6763942558769
 20
1383.790735559124
 30
0.0
 11
2834.6763942558791
 21
1383.790735559124
 31
0.0
  0
LINE
  5
F94
  8
OUTLINE
 10
2768.6763942558769
 20
1386.290735559124
 30
0.0
 11
2834.6763942558791
 21
1386.290735559124
 31
0.0
  0
LINE
  5
F95
  8
OUTLINE
 10
2789.6763942558769
 20
1430.790735559124
 30
0.0
 11
2834.6763942558791
 21
1430.790735559124
 31
0.0
  0
LINE
  5
F96
  8
OUTLINE
 10
2789.6763942558769
 20
1428.290735559124
 30
0.0
 11
2834.6763942558791
 21
1428.290735559124
 31
0.0
  0
LINE
  5
FC3
  8
DIM
 10
1634.076394255876
 20
1392.0907355591239
 30
0.0
 11
1634.076394255876
 21
1902.290735559121
 31
0.0
  0
LINE
  5
FC4
  8
DIM
 10
2789.6763942558769
 20
1392.0257220155181
 30
0.0
 11
2789.67639425588
 21
1902.290735559121
 31
0.0
  0
LINE
  5
FC5
  8
DIM
 10
2768.6763942558769
 20
1923.090737333958
 30
0.0
 11
1655.0763942558769
 21
1923.090737333958
 31
0.0
  0
LINE
  5
FC6
  8
DIM
 10
2768.6763942558769
 20
1371.290735559123
 30
0.0
 11
1655.0763942558769
 21
1371.290735559123
 31
0.0
  0
LINE
  5
FC7
  8
DIM
 10
1655.0763942558769
 20
1371.290735559123
 30
0.0
 11
1655.0763942558769
 21
1923.090737333958
 31
0.0
  0
LINE
  5
FC8
  8
DIM
 10
2768.6763942558769
 20
1371.290735559123
 30
0.0
 11
2768.6763942558769
 21
1914.4907355591231
 31
0.0
  0
LINE
  5
FC9
  8
DIM
 10
2789.67639425588
 20
1902.290735559121
 30
0.0
 11
1634.076394255876
 21
1902.290735559121
 31
0.0
  0
LINE
  5
FCA
  8
DIM
 10
2789.6763942558769
 20
1392.0257220155181
 30
0.0
 11
1634.076394255876
 21
1392.0907355591239
 31
0.0
  0
LINE
  5
FCC
  8
OUTLINE
 10
1853.226315616067
 20
1371.290735559123
 30
0.0
 11
1853.226315616067
 21
1282.9907355591249
 31
0.0
  0
LINE
  5
FCF
  8
OUTLINE
 10
2470.67639425588
 20
1371.290735559123
 30
0.0
 11
2470.67639425588
 21
1282.990735559124
 31
0.0
  0
LINE
  5
FD1
  8
OUTLINE
 10
1853.226315616067
 20
1282.9907355591249
 30
0.0
 11
2253.4411204655689
 21
1282.990735559124
 31
0.0
  0
ARC
  5
FF6
  8
DIM
 10
1645.072288051158
 20
1872.340737333958
 30
0.0
 40
4.75
 50
0.0
 51
180.0
  0
ARC
  5
FF7
  8
DIM
 10
1645.072288051158
 20
1861.840737333958
 30
0.0
 40
4.75
 50
180.0
 51
0.0
  0
LINE
  5
FF8
  8
DIM
 10
1640.322288051158
 20
1872.340737333958
 30
0.0
 11
1640.322288051158
 21
1861.840737333958
 31
0.0
  0
LINE
  5
FF9
  8
DIM
 10
1649.8222880511571
 20
1872.340737333958
 30
0.0
 11
1649.8222880511571
 21
1861.840737333958
 31
0.0
  0
ARC
  5
FFA
  8
DIM
 10
1645.0763942558769
 20
1432.3407355591239
 30
0.0
 40
4.75
 50
0.0
 51
180.0
  0
ARC
  5
FFB
  8
DIM
 10
1645.0763942558769
 20
1421.8407355591239
 30
0.0
 40
4.75
 50
180.0
 51
0.0
  0
LINE
  5
FFC
  8
DIM
 10
1640.326394255876
 20
1432.3407355591239
 30
0.0
 11
1640.326394255876
 21
1421.8407355591239
 31
0.0
  0
LINE
  5
FFD
  8
DIM
 10
1649.8263942558749
 20
1432.3407355591239
 30
0.0
 11
1649.8263942558749
 21
1421.8407355591239
 31
0.0
  0
ARC
  5
FFE
  8
DIM
 10
2778.672288051162
 20
1872.340737333958
 30
0.0
 40
4.75
 50
0.0
 51
180.0
  0
ARC
  5
FFF
  8
DIM
 10
2778.672288051162
 20
1861.840737333958
 30
0.0
 40
4.75
 50
180.0
 51
0.0
  0
LINE
  5
1000
  8
DIM
 10
2783.422288051162
 20
1872.340737333958
 30
0.0
 11
2783.422288051162
 21
1861.840737333958
 31
0.0
  0
LINE
  5
1001
  8
DIM
 10
2773.9222880511602
 20
1872.340737333958
 30
0.0
 11
2773.9222880511602
 21
1861.840737333958
 31
0.0
  0
ARC
  5
1002
  8
DIM
 10
2778.6763942558791
 20
1432.3407355591239
 30
0.0
 40
4.75
 50
0.0
 51
180.0
  0
ARC
  5
1003
  8
DIM
 10
2778.6763942558791
 20
1421.8407355591239
 30
0.0
 40
4.75
 50
180.0
 51
0.0
  0
LINE
  5
1004
  8
DIM
 10
2783.4263942558791
 20
1432.3407355591239
 30
0.0
 11
2783.4263942558791
 21
1421.8407355591239
 31
0.0
  0
LINE
  5
1005
  8
DIM
 10
2773.9263942558769
 20
1432.3407355591239
 30
0.0
 11
2773.9263942558769
 21
1421.8407355591239
 31
0.0
  0
LINE
  5
101E
  8
DIM
 10
2834.6763942558791
 20
1383.790735559124
 30
0.0
 11
2834.6763942558791
 21
1430.790735559124
 31
0.0
  0
CIRCLE
  5
1021
  8
DIM
 10
2816.6763942558769
 20
1407.290735559124
 30
0.0
 40
12.0
  0
CIRCLE
  5
1022
  8
DIM
 10
2816.6763942558769
 20
1407.290735559124
 30
0.0
 40
10.0
  0
LINE
  5
1023
  8
OUTLINE
 10
1655.0763942558769
 20
1383.790735559124
 30
0.0
 11
1589.0763942558769
 21
1383.790735559124
 31
0.0
  0
LINE
  5
1024
  8
OUTLINE
 10
1655.0763942558781
 20
1386.290735559124
 30
0.0
 11
1589.0763942558781
 21
1386.290735559124
 31
0.0
  0
LINE
  5
1025
  8
OUTLINE
 10
1634.076394255876
 20
1430.790735559124
 30
0.0
 11
1589.0763942558781
 21
1430.790735559124
 31
0.0
  0
LINE
  5
1026
  8
OUTLINE
 10
1634.076394255876
 20
1428.290735559124
 30
0.0
 11
1589.0763942558769
 21
1428.290735559124
 31
0.0
  0
LINE
  5
1027
  8
DIM
 10
1589.0763942558781
 20
1383.790735559124
 30
0.0
 11
1589.0763942558781
 21
1430.790735559124
 31
0.0
  0
CIRCLE
  5
1028
  8
DIM
 10
1607.0763942558781
 20
1407.290735559124
 30
0.0
 40
12.0
  0
CIRCLE
  5
1029
  8
DIM
 10
1607.0763942558781
 20
1407.290735559124
 30
0.0
 40
10.0
  0
LINE
  5
102A
  8
OUTLINE
 10
2768.6763942558769
 20
1910.790735559123
 30
0.0
 11
2834.6763942558791
 21
1910.790735559121
 31
0.0
  0
LINE
  5
102B
  8
OUTLINE
 10
2768.6763942558769
 20
1908.290735559123
 30
0.0
 11
2834.6763942558791
 21
1908.290735559121
 31
0.0
  0
LINE
  5
102C
  8
OUTLINE
 10
2789.6763942558769
 20
1863.790735559121
 30
0.0
 11
2834.6763942558791
 21
1863.790735559121
 31
0.0
  0
LINE
  5
102D
  8
OUTLINE
 10
2789.6763942558769
 20
1866.290735559121
 30
0.0
 11
2834.6763942558791
 21
1866.290735559121
 31
0.0
  0
LINE
  5
102E
  8
DIM
 10
2834.6763942558791
 20
1910.790735559121
 30
0.0
 11
2834.6763942558791
 21
1863.790735559121
 31
0.0
  0
CIRCLE
  5
102F
  8
DIM
 10
2816.6763942558769
 20
1887.2907355591219
 30
0.0
 40
12.0
  0
CIRCLE
  5
1030
  8
DIM
 10
2816.6763942558769
 20
1887.2907355591219
 30
0.0
 40
10.0
  0
LINE
  5
1031
  8
OUTLINE
 10
1655.076394255876
 20
1910.790735559123
 30
0.0
 11
1589.076394255876
 21
1910.790735559121
 31
0.0
  0
LINE
  5
1032
  8
OUTLINE
 10
1655.0763942558769
 20
1908.290735559123
 30
0.0
 11
1589.0763942558769
 21
1908.290735559121
 31
0.0
  0
LINE
  5
1033
  8
OUTLINE
 10
1634.076394255876
 20
1863.790735559121
 30
0.0
 11
1589.0763942558769
 21
1863.790735559121
 31
0.0
  0
LINE
  5
1034
  8
OUTLINE
 10
1634.076394255876
 20
1866.290735559121
 30
0.0
 11
1589.076394255876
 21
1866.290735559121
 31
0.0
  0
LINE
  5
1035
  8
DIM
 10
1589.0763942558769
 20
1910.790735559121
 30
0.0
 11
1589.0763942558769
 21
1863.790735559121
 31
0.0
  0
CIRCLE
  5
1036
  8
DIM
 10
1607.0763942558769
 20
1887.2907355591219
 30
0.0
 40
12.0
  0
CIRCLE
  5
1037
  8
DIM
 10
1607.0763942558769
 20
1887.2907355591219
 30
0.0
 40
10.0
  0
TEXT
  5
1038
  8
TEXT
 62
     7
 10
2067.873964433214
 20
1624.107649685021
 30
0.0
 40
50.0
  1
HWP117
  7
TITLE3
  0
LINE
  5
1051
  8
DIM
 10
2177.7763942558772
 20
1803.0600056787009
 30
0.0
 11
2196.8270584903198
 21
1834.396060006912
 31
0.0
  0
LINE
  5
1052
  8
DIM
 10
2177.7763942558772
 20
1803.0600056787009
 30
0.0
 11
2158.7257300214369
 21
1834.396060006912
 31
0.0
  0
LINE
  5
1053
  8
DIM
 10
2184.9944034545651
 20
1871.05332847861
 30
0.0
 11
2170.5583850571888
 21
1871.05332847861
 31
0.0
  0
LINE
  5
1054
  8
DIM
 10
2184.9944034545651
 20
1834.396060006912
 30
0.0
 11
2184.9944034545651
 21
1871.05332847861
 31
0.0
  0
LINE
  5
1055
  8
DIM
 10
2196.8270584903198
 20
1834.396060006912
 30
0.0
 11
2184.9944034545651
 21
1834.396060006912
 31
0.0
  0
LINE
  5
1056
  8
DIM
 10
2170.5583850571888
 20
1834.396060006912
 30
0.0
 11
2170.5583850571888
 21
1871.05332847861
 31
0.0
  0
LINE
  5
1057
  8
DIM
 10
2158.7257300214369
 20
1834.396060006912
 30
0.0
 11
2170.5583850571888
 21
1834.396060006912
 31
0.0
  0
LINE
  5
1058
  8
DIM
 10
2189.5763942558769
 20
1415.90634538479
 30
0.0
 11
2208.62705849032
 21
1447.2423997130011
 31
0.0
  0
LINE
  5
1059
  8
DIM
 10
2189.5763942558769
 20
1415.90634538479
 30
0.0
 11
2170.525730021438
 21
1447.2423997130011
 31
0.0
  0
LINE
  5
105A
  8
DIM
 10
2196.7944034545649
 20
1483.8996681846991
 30
0.0
 11
2182.358385057189
 21
1483.8996681846991
 31
0.0
  0
LINE
  5
105B
  8
DIM
 10
2196.7944034545649
 20
1447.2423997130011
 30
0.0
 11
2196.7944034545649
 21
1483.8996681846991
 31
0.0
  0
LINE
  5
105C
  8
DIM
 10
2208.62705849032
 20
1447.2423997130011
 30
0.0
 11
2196.7944034545649
 21
1447.2423997130011
 31
0.0
  0
LINE
  5
105D
  8
DIM
 10
2182.358385057189
 20
1447.2423997130011
 30
0.0
 11
2182.358385057189
 21
1483.8996681846991
 31
0.0
  0
LINE
  5
105E
  8
DIM
 10
2170.525730021438
 20
1447.2423997130011
 30
0.0
 11
2182.358385057189
 21
1447.2423997130011
 31
0.0
  0
LINE
  5
1079
  8
DIM
 10
1675.076394255876
 20
1202.7502760910099
 30
0.0
 11
1940.0763942558769
 21
1202.7502760910099
 31
0.0
  0
LINE
  5
107A
  8
DIM
 10
2748.6763942558791
 20
1202.7502760910099
 30
0.0
 11
2438.6763942558769
 21
1202.7502760910099
 31
0.0
  0
SOLID
  5
107B
  8
DIM
 10
1675.076394255876
 20
1207.7502760910111
 30
0.0
 11
1675.076394255876
 21
1197.7502760910099
 31
0.0
 12
1645.0763942558769
 22
1202.7502760910099
 32
0.0
 13
1645.0763942558769
 23
1202.7502760910099
 33
0.0
  0
SOLID
  5
107C
  8
DIM
 10
2748.6763942558791
 20
1207.7502760910111
 30
0.0
 11
2748.6763942558791
 21
1197.7502760910099
 31
0.0
 12
2778.6763942558791
 22
1202.7502760910099
 32
0.0
 13
2778.6763942558791
 23
1202.7502760910099
 33
0.0
  0
LINE
  5
107E
  8
DIM
 10
1607.0763942558769
 20
1389.236485995121
 30
0.0
 11
1607.0763942558769
 21
1120.7273561509239
 31
0.0
  0
LINE
  5
107F
  8
DIM
 10
2816.6763942558769
 20
1389.783102970302
 30
0.0
 11
2816.6763942558769
 21
1120.7273561509239
 31
0.0
  0
LINE
  5
1080
  8
DIM
 10
2786.6763942558769
 20
1140.7273561509239
 30
0.0
 11
2661.8754055210502
 21
1140.7273561509239
 31
0.0
  0
LINE
  5
1081
  8
DIM
 10
1637.0763942558781
 20
1140.7273561509239
 30
0.0
 11
1781.8754055210491
 21
1140.7273561509239
 31
0.0
  0
SOLID
  5
1082
  8
DIM
 10
2786.6763942558769
 20
1145.7273561509239
 30
0.0
 11
2786.6763942558769
 21
1135.7273561509239
 31
0.0
 12
2816.6763942558769
 22
1140.7273561509239
 32
0.0
 13
2816.6763942558769
 23
1140.7273561509239
 33
0.0
  0
SOLID
  5
1083
  8
DIM
 10
1637.0763942558781
 20
1145.7273561509239
 30
0.0
 11
1637.0763942558781
 21
1135.7273561509239
 31
0.0
 12
1607.0763942558769
 22
1140.7273561509239
 32
0.0
 13
1607.0763942558769
 23
1140.7273561509239
 33
0.0
  0
LINE
  5
1086
  8
DIM
 10
1634.076394255876
 20
1913.690735559122
 30
0.0
 11
1634.076394255876
 21
2016.0238483064429
 31
0.0
  0
LINE
  5
1087
  8
DIM
 10
1695.0763942558769
 20
1996.0238483064429
 30
0.0
 11
1725.076394255876
 21
1996.0238483064429
 31
0.0
  0
LINE
  5
1088
  8
DIM
 10
1604.0763942558769
 20
1996.0238483064429
 30
0.0
 11
1574.0763942558769
 21
1996.0238483064429
 31
0.0
  0
SOLID
  5
1089
  8
DIM
 10
1723.0040717882041
 20
2001.0238483064429
 30
0.0
 11
1723.0040717882041
 21
1991.0238483064429
 31
0.0
 12
1693.0040717882041
 22
1996.0238483064429
 32
0.0
 13
1693.0040717882041
 23
1996.0238483064429
 33
0.0
  0
SOLID
  5
108A
  8
DIM
 10
1604.0763942558769
 20
2001.0238483064429
 30
0.0
 11
1604.0763942558769
 21
1991.0238483064429
 31
0.0
 12
1634.076394255876
 22
1996.0238483064429
 32
0.0
 13
1634.076394255876
 23
1996.0238483064429
 33
0.0
  0
LINE
  5
108C
  8
DIM
 10
1693.0040717882041
 20
1973.890735559122
 30
0.0
 11
1693.0040717882041
 21
2015.7781206860291
 31
0.0
  0
LINE
  5
108D
  8
DIM
 10
2382.881891385216
 20
1973.8907355591209
 30
0.0
 11
2382.8818913852169
 21
2015.7781206860291
 31
0.0
  0
LINE
  5
108E
  8
DIM
 10
1695.0763942558769
 20
1995.7781206860291
 30
0.0
 11
1976.2763942558761
 21
1995.7781206860291
 31
0.0
  0
LINE
  5
108F
  8
DIM
 10
2352.8818913852169
 20
1995.7781206860291
 30
0.0
 11
2080.8014584965572
 21
1995.7781206860291
 31
0.0
  0
SOLID
  5
1091
  8
DIM
 10
2352.8818913852169
 20
2000.7781206860291
 30
0.0
 11
2352.8818913852169
 21
1990.7781206860291
 31
0.0
 12
2382.8818913852169
 22
1995.7781206860291
 32
0.0
 13
2382.8818913852169
 23
1995.7781206860291
 33
0.0
  0
LINE
  5
1094
  8
DIM
 10
1634.076394255876
 20
885.78307750230886
 30
0.0
 11
1634.076394255876
 21
928.62060687402288
 31
0.0
  0
LINE
  5
1096
  8
DIM
 10
1604.0763942558769
 20
859.62060687402266
 30
0.0
 11
1574.0763942558769
 21
859.62060687402266
 31
0.0
  0
SOLID
  5
1098
  8
DIM
 10
1604.0763942558769
 20
864.62060687402254
 30
0.0
 11
1604.0763942558769
 21
854.62060687402311
 31
0.0
 12
1634.076394255876
 22
859.62060687402266
 32
0.0
 13
1634.076394255876
 23
859.62060687402266
 33
0.0
  0
LINE
  5
109A
  8
DIM
 10
1853.416394255876
 20
841.78307750230863
 30
0.0
 11
1853.416394255876
 21
928.53877973191595
 31
0.0
  0
LINE
  5
109B
  8
DIM
 10
2253.4183942558798
 20
841.7830775023084
 30
0.0
 11
2253.4183942558798
 21
928.53877973191595
 31
0.0
  0
LINE
  5
109D
  8
DIM
 10
2223.4183942558811
 20
908.53877973191663
 30
0.0
 11
2113.6058110210288
 21
908.53877973191663
 31
0.0
  0
SOLID
  5
109E
  8
DIM
 10
1883.416394255876
 20
913.53877973191607
 30
0.0
 11
1883.416394255876
 21
903.53877973191595
 31
0.0
 12
1853.416394255876
 22
908.53877973191663
 32
0.0
 13
1853.416394255876
 23
908.53877973191663
 33
0.0
  0
SOLID
  5
109F
  8
DIM
 10
2223.4183942558811
 20
913.53877973191607
 30
0.0
 11
2223.4183942558811
 21
903.53877973191595
 31
0.0
 12
2253.4183942558798
 22
908.53877973191663
 32
0.0
 13
2253.4183942558798
 23
908.53877973191663
 33
0.0
  0
LINE
  5
10A1
  8
DIM
 10
1634.076394255876
 20
827.51693438737664
 30
0.0
 11
1634.076394255876
 21
992.44540194757417
 31
0.0
  0
LINE
  5
10A2
  8
DIM
 10
2789.67639425588
 20
829.04920842285094
 30
0.0
 11
2789.67639425588
 21
992.44540194757417
 31
0.0
  0
LINE
  5
10A3
  8
DIM
 10
1664.076394255876
 20
972.44540194757406
 30
0.0
 11
2069.3763942558771
 21
972.44540194757406
 31
0.0
  0
LINE
  5
10A4
  8
DIM
 10
2759.6763942558791
 20
972.44540194757406
 30
0.0
 11
2309.376394255878
 21
972.44540194757406
 31
0.0
  0
SOLID
  5
10A5
  8
DIM
 10
1664.076394255876
 20
977.44540194757417
 30
0.0
 11
1664.076394255876
 21
967.44540194757417
 31
0.0
 12
1634.076394255876
 22
972.44540194757406
 32
0.0
 13
1634.076394255876
 23
972.44540194757406
 33
0.0
  0
SOLID
  5
10A6
  8
DIM
 10
2759.6763942558791
 20
977.44540194757417
 30
0.0
 11
2759.6763942558791
 21
967.44540194757417
 31
0.0
 12
2789.67639425588
 22
972.44540194757406
 32
0.0
 13
2789.67639425588
 23
972.44540194757406
 33
0.0
  0
LINE
  5
10A8
  8
DIM
 10
1614.076394255876
 20
816.78307750230863
 30
0.0
 11
1496.711091623167
 21
816.78307750230863
 31
0.0
  0
LINE
  5
10A9
  8
DIM
 10
1635.0763942558769
 20
375.78307750230857
 30
0.0
 11
1496.711091623167
 21
375.78307750230857
 31
0.0
  0
LINE
  5
10AA
  8
DIM
 10
1516.711091623167
 20
786.78307750230863
 30
0.0
 11
1516.711091623167
 21
725.92184840802031
 31
0.0
  0
LINE
  5
10AB
  8
DIM
 10
1516.711091623167
 20
405.78307750230852
 30
0.0
 11
1516.711091623167
 21
512.78584608159053
 31
0.0
  0
SOLID
  5
10AC
  8
DIM
 10
1511.711091623167
 20
786.78307750230863
 30
0.0
 11
1521.711091623167
 21
786.78307750230863
 31
0.0
 12
1516.711091623167
 22
816.78307750230863
 32
0.0
 13
1516.711091623167
 23
816.78307750230863
 33
0.0
  0
SOLID
  5
10AD
  8
DIM
 10
1511.711091623167
 20
405.78307750230852
 30
0.0
 11
1521.711091623167
 21
405.78307750230852
 31
0.0
 12
1516.711091623167
 22
375.78307750230857
 32
0.0
 13
1516.711091623167
 23
375.78307750230857
 33
0.0
  0
LINE
  5
10AF
  8
DIM
 10
2809.6763942558769
 20
816.78307750230863
 30
0.0
 11
2950.1655178475498
 21
816.78307750230863
 31
0.0
  0
LINE
  5
10B0
  8
DIM
 10
2788.6763942558769
 20
388.78307750230857
 30
0.0
 11
2950.1655178475498
 21
388.78307750230857
 31
0.0
  0
LINE
  5
10B1
  8
DIM
 10
2930.1655178475498
 20
786.78307750230863
 30
0.0
 11
2930.1655178475498
 21
703.28307750230886
 31
0.0
  0
LINE
  5
10B2
  8
DIM
 10
2930.1655178475498
 20
418.78307750230852
 30
0.0
 11
2930.1655178475498
 21
588.28307750230874
 31
0.0
  0
SOLID
  5
10B3
  8
DIM
 10
2925.1655178475512
 20
786.78307750230863
 30
0.0
 11
2935.1655178475512
 21
786.78307750230863
 31
0.0
 12
2930.1655178475498
 22
816.78307750230863
 32
0.0
 13
2930.1655178475498
 23
816.78307750230863
 33
0.0
  0
SOLID
  5
10B4
  8
DIM
 10
2925.1655178475512
 20
418.78307750230852
 30
0.0
 11
2935.1655178475512
 21
418.78307750230852
 31
0.0
 12
2930.1655178475498
 22
388.78307750230857
 32
0.0
 13
2930.1655178475498
 23
388.78307750230857
 33
0.0
  0
LINE
  5
10B6
  8
DIM
 10
2854.6763942558769
 20
704.77943544851314
 30
0.0
 11
2890.3053354073272
 21
704.77943544851314
 31
0.0
  0
LINE
  5
10B7
  8
DIM
 10
2809.6763942558769
 20
816.78307750230863
 30
0.0
 11
2890.3053354073272
 21
816.78307750230863
 31
0.0
  0
LINE
  5
10B8
  8
DIM
 10
2870.3053354073272
 20
735.78307750230863
 30
0.0
 11
2870.3053354073272
 21
786.78307750230863
 31
0.0
  0
SOLID
  5
10BA
  8
DIM
 10
2865.3053354073272
 20
734.77943544851303
 30
0.0
 11
2875.3053354073281
 21
734.77943544851303
 31
0.0
 12
2870.3053354073272
 22
704.77943544851314
 32
0.0
 13
2870.3053354073272
 23
704.77943544851314
 33
0.0
  0
SOLID
  5
10BB
  8
DIM
 10
2865.3053354073272
 20
786.78307750230863
 30
0.0
 11
2875.3053354073281
 21
786.78307750230863
 31
0.0
 12
2870.3053354073272
 22
816.78307750230863
 32
0.0
 13
2870.3053354073272
 23
816.78307750230863
 33
0.0
  0
LINE
  5
1100
  8
DIM
 10
3179.0101823869122
 20
816.78307750230863
 30
0.0
 11
3071.9972662228579
 21
816.78307750230863
 31
0.0
  0
LINE
  5
1101
  8
DIM
 10
3091.9972662228579
 20
791.78307750230863
 30
0.0
 11
3091.9972662228579
 21
761.78307750230863
 31
0.0
  0
LINE
  5
1102
  8
DIM
 10
3091.9972662228579
 20
846.78307750230863
 30
0.0
 11
3091.9972662228579
 21
876.78307750230852
 31
0.0
  0
SOLID
  5
1104
  8
DIM
 10
3086.9972662228588
 20
846.78307750230863
 30
0.0
 11
3096.9972662228588
 21
846.78307750230863
 31
0.0
 12
3091.9972662228579
 22
816.78307750230863
 32
0.0
 13
3091.9972662228579
 23
816.78307750230863
 33
0.0
  0
LINE
  5
1106
  8
DIM
 10
3119.2901823869088
 20
795.78307750230795
 30
0.0
 11
3071.981924010312
 21
795.78307750230795
 31
0.0
  0
LINE
  5
1107
  8
DIM
 10
3119.5317467414789
 20
574.75307750230877
 30
0.0
 11
3072.2234883648821
 21
574.75307750230877
 31
0.0
  0
LINE
  5
1108
  8
DIM
 10
3091.9819240103111
 20
765.78307750230806
 30
0.0
 11
3091.9819240103111
 21
678.28307750230852
 31
0.0
  0
SOLID
  5
110A
  8
DIM
 10
3086.981924010312
 20
765.78307750230806
 30
0.0
 11
3096.981924010312
 21
765.78307750230806
 31
0.0
 12
3091.9819240103111
 22
795.78307750230795
 32
0.0
 13
3091.9819240103111
 23
795.78307750230795
 33
0.0
  0
LINE
  5
110E
  8
DIM
 10
3806.9101823869109
 20
816.78307750230863
 30
0.0
 11
3886.0235724551771
 21
816.78307750230863
 31
0.0
  0
LINE
  5
110F
  8
DIM
 10
3866.0235724551758
 20
771.78307750230863
 30
0.0
 11
3866.0235724551758
 21
669.86407614016741
 31
0.0
  0
LINE
  5
1110
  8
DIM
 10
3866.0235724551758
 20
846.78307750230863
 30
0.0
 11
3866.0235724551758
 21
876.78307750230852
 31
0.0
  0
SOLID
  5
1112
  8
DIM
 10
3861.0235724551771
 20
846.78307750230863
 30
0.0
 11
3871.0235724551758
 21
846.78307750230863
 31
0.0
 12
3866.0235724551758
 22
816.78307750230863
 32
0.0
 13
3866.0235724551758
 23
816.78307750230863
 33
0.0
  0
LINE
  5
1114
  8
DIM
 10
3848.1101823869112
 20
801.78307750230852
 30
0.0
 11
3886.0235724551771
 21
801.78307750230852
 31
0.0
  0
LINE
  5
1115
  8
DIM
 10
3848.110182386923
 20
431.96260605543972
 30
0.0
 11
3886.0235724551771
 21
431.96260605543949
 31
0.0
  0
SOLID
  5
1118
  8
DIM
 10
3861.0235724551771
 20
771.78307750230863
 30
0.0
 11
3871.0235724551758
 21
771.78307750230863
 31
0.0
 12
3866.0235724551758
 22
801.78307750230852
 32
0.0
 13
3866.0235724551758
 23
801.78307750230852
 33
0.0
  0
LINE
  5
11BC
  8
DIM
 10
2836.6763942558769
 20
1407.1907355591241
 30
0.0
 11
3004.4617922506932
 21
1407.1907355591241
 31
0.0
  0
LINE
  5
11BD
  8
DIM
 10
2984.4617922506932
 20
1857.290735559121
 30
0.0
 11
2984.4617922506932
 21
1690.3373345340419
 31
0.0
  0
LINE
  5
11BE
  8
DIM
 10
2984.4617922506932
 20
1444.490735559124
 30
0.0
 11
2984.4617922506932
 21
1577.760715585782
 31
0.0
  0
SOLID
  5
11BF
  8
DIM
 10
2979.4617922506932
 20
1857.290735559121
 30
0.0
 11
2989.4617922506932
 21
1857.290735559121
 31
0.0
 12
2984.4617922506932
 22
1887.2907355591219
 32
0.0
 13
2984.4617922506932
 23
1887.2907355591219
 33
0.0
  0
SOLID
  5
11C0
  8
DIM
 10
2979.4617922506932
 20
1444.490735559124
 30
0.0
 11
2989.4617922506932
 21
1444.490735559124
 31
0.0
 12
2984.4617922506932
 22
1407.1907355591241
 32
0.0
 13
2984.4617922506932
 23
1407.1907355591241
 33
0.0
  0
LINE
  5
11C3
  8
DIM
 10
2804.1263942558771
 20
1427.0907355591239
 30
0.0
 11
2932.5966279507579
 21
1427.0907355591239
 31
0.0
  0
LINE
  5
11C4
  8
DIM
 10
2912.5966279507579
 20
1837.0907373339589
 30
0.0
 11
2912.5966279507579
 21
1693.793352316857
 31
0.0
  0
LINE
  5
11C5
  8
DIM
 10
2912.5966279507579
 20
1457.0907355591239
 30
0.0
 11
2912.5966279507579
 21
1579.054697802967
 31
0.0
  0
SOLID
  5
11C6
  8
DIM
 10
2907.5966279507579
 20
1837.0907373339589
 30
0.0
 11
2917.5966279507579
 21
1837.0907373339589
 31
0.0
 12
2912.5966279507579
 22
1867.090737333956
 32
0.0
 13
2912.5966279507579
 23
1867.090737333956
 33
0.0
  0
SOLID
  5
11C7
  8
DIM
 10
2907.5966279507579
 20
1457.0907355591239
 30
0.0
 11
2917.5966279507579
 21
1457.0907355591239
 31
0.0
 12
2912.5966279507579
 22
1427.0907355591239
 32
0.0
 13
2912.5966279507579
 23
1427.0907355591239
 33
0.0
  0
CIRCLE
  5
11CD
  8
DIM
 10
3698.9101823869082
 20
761.78307750230863
 30
0.0
 40
10.25
  0
CIRCLE
  5
11CE
  8
DIM
 10
3698.9101823869082
 20
686.78307750230863
 30
0.0
 40
10.25
  0
LINE
  5
11CF
  8
DIM
 10
3697.9101823869091
 20
836.78307750230886
 30
0.0
 11
3697.9101823869091
 21
898.87767562589374
 31
0.0
  0
LINE
  5
11D1
  8
DIM
 10
3727.91018238691
 20
878.87767562589374
 30
0.0
 11
3756.9101823869091
 21
878.87767562589374
 31
0.0
  0
SOLID
  5
11D3
  8
DIM
 10
3727.91018238691
 20
883.87767562589374
 30
0.0
 11
3727.91018238691
 21
873.87767562589374
 31
0.0
 12
3697.9101823869091
 22
878.87767562589374
 32
0.0
 13
3697.9101823869091
 23
878.87767562589374
 33
0.0
  0
SOLID
  5
11D4
  8
DIM
 10
3756.9101823869091
 20
883.87767562589374
 30
0.0
 11
3756.9101823869091
 21
873.87767562589374
 31
0.0
 12
3786.9101823869082
 22
878.87767562589374
 32
0.0
 13
3786.9101823869082
 23
878.87767562589374
 33
0.0
  0
LINE
  5
11D6
  8
DIM
 10
3605.8105365268971
 20
761.78307750230863
 30
0.0
 11
3676.146612427639
 21
761.78307750230863
 31
0.0
  0
LINE
  5
11D7
  8
DIM
 10
3605.8105365268971
 20
686.78307750230863
 30
0.0
 11
3676.146612427639
 21
686.78307750230852
 31
0.0
  0
LINE
  5
11DE
  8
DIM
 10
3641.900492602821
 20
686.78307750230715
 30
0.0
 11
3641.900492602821
 21
816.78307750230863
 31
0.0
  0
LINE
  5
11E5
  8
DIM
 10
3636.712453459465
 20
811.59503835895293
 30
0.0
 11
3641.900492602821
 21
816.78307750230863
 31
0.0
  0
LINE
  5
11E6
  8
DIM
 10
3641.900492602821
 20
816.78307750230863
 30
0.0
 11
3647.0885317461739
 21
811.59503835895259
 31
0.0
  0
LINE
  5
11E7
  8
DIM
 10
3636.712453459465
 20
756.59503835895293
 30
0.0
 11
3647.0885317461739
 21
766.97111664566398
 31
0.0
  0
LINE
  5
11E8
  8
DIM
 10
3636.712453459465
 20
766.97111664566398
 30
0.0
 11
3647.0885317461739
 21
756.59503835895293
 31
0.0
  0
LINE
  5
11E9
  8
DIM
 10
3641.900492602821
 20
686.78307750230886
 30
0.0
 11
3647.0885317461739
 21
691.97111664566398
 31
0.0
  0
LINE
  5
11EA
  8
DIM
 10
3636.712453459465
 20
691.97111664566387
 30
0.0
 11
3641.9004926028201
 21
686.78307750230863
 31
0.0
  0
LINE
  5
11EB
  8
DIM
 10
1654.0763942558769
 20
1953.8907355591209
 30
0.0
 11
1496.698602351978
 21
1953.8907355591209
 31
0.0
  0
LINE
  5
11EC
  8
DIM
 10
1665.0115254863761
 20
1282.990735559124
 30
0.0
 11
1496.698602351978
 21
1282.990735559124
 31
0.0
  0
LINE
  5
11ED
  8
DIM
 10
1516.6986023519789
 20
1925.6907355591211
 30
0.0
 11
1516.6986023519789
 21
1737.230735559122
 31
0.0
  0
LINE
  5
11EE
  8
DIM
 10
1516.698602351978
 20
1312.990735559124
 30
0.0
 11
1516.698602351978
 21
1497.230735559122
 31
0.0
  0
SOLID
  5
11EF
  8
DIM
 10
1511.6986023519789
 20
1925.6907355591211
 30
0.0
 11
1521.698602351978
 21
1925.6907355591211
 31
0.0
 12
1516.6986023519789
 22
1953.8907355591209
 32
0.0
 13
1516.6986023519789
 23
1953.8907355591209
 33
0.0
  0
SOLID
  5
11F0
  8
DIM
 10
1511.698602351978
 20
1312.990735559124
 30
0.0
 11
1521.698602351978
 21
1312.990735559124
 31
0.0
 12
1516.698602351978
 22
1282.990735559124
 32
0.0
 13
1516.698602351978
 23
1282.990735559124
 33
0.0
  0
LINE
  5
1464
  8
DIM
 10
2836.6763942558769
 20
1887.2907355591219
 30
0.0
 11
3004.2307652224681
 21
1887.2907355591219
 31
0.0
  0
SOLID
  5
1468
  8
DIM
 10
2979.2307652224681
 20
1857.290735559121
 30
0.0
 11
2989.2307652224681
 21
1857.290735559121
 31
0.0
 12
2984.230765222469
 22
1887.2907355591219
 32
0.0
 13
2984.230765222469
 23
1887.2907355591219
 33
0.0
  0
LINE
  5
146B
  8
DIM
 10
2804.1263942558771
 20
1867.090737333956
 30
0.0
 11
2932.5981340099311
 21
1867.090737333956
 31
0.0
  0
LINE
  5
146D
  8
DIM
 10
2912.5981340099311
 20
1837.0907373339589
 30
0.0
 11
2912.5981340099311
 21
1807.090737333958
 31
0.0
  0
SOLID
  5
146F
  8
DIM
 10
2907.5981340099311
 20
1837.0907373339589
 30
0.0
 11
2917.5981340099311
 21
1837.0907373339589
 31
0.0
 12
2912.5981340099311
 22
1867.090737333956
 32
0.0
 13
2912.5981340099311
 23
1867.090737333956
 33
0.0
  0
TEXT
  5
1774
  8
DIM
 10
1529.6518303126811
 20
1517.2307355591231
 30
0.0
 40
30.0
  1
670 O/A
 50
90.0
  0
TEXT
  5
1775
  8
DIM
 10
3577.7233398529711
 20
823.00224996903034
 30
0.0
 40
30.0
  1
55
  0
TEXT
  5
1776
  8
DIM
 10
3577.4837029642072
 20
711.27994158949934
 30
0.0
 40
30.0
  1
75
  0
TEXT
  5
1777
  8
DIM
 10
3640.7534816433849
 20
862.56002327843873
 30
0.0
 40
30.0
  1
88
  0
TEXT
  5
1778
  8
DIM
 10
2927.596627950757
 20
1599.9478326407791
 30
0.0
 40
30.0
  1
440
 50
90.0
  0
TEXT
  5
1779
  8
DIM
 10
2999.4617922506932
 20
1597.4478326407791
 30
0.0
 40
30.0
  1
480
 50
90.0
  0
TEXT
  5
177A
  8
DIM
 10
3880.6502284304488
 20
578.2853446057195
 30
0.0
 40
30.0
  1
370
 50
90.0
  0
TEXT
  5
177B
  8
DIM
 10
3881.0235724551758
 20
896.78307750230931
 30
0.0
 40
30.0
  1
15
 50
90.0
  0
TEXT
  5
177C
  8
DIM
 10
3106.469311793333
 20
468.50397437797062
 30
0.0
 40
30.0
  1
221
 50
90.0
  0
TEXT
  5
177D
  8
DIM
 10
3106.9972662228588
 20
896.78307750230897
 30
0.0
 40
30.0
  1
21
 50
90.0
  0
TEXT
  5
177E
  8
DIM
 10
2885.3053354073272
 20
613.47602166950162
 30
0.0
 40
30.0
  1
112
 50
90.0
  0
TEXT
  5
177F
  8
DIM
 10
2945.1655178475489
 20
608.28307750230931
 30
0.0
 40
30.0
  1
424
 50
90.0
  0
TEXT
  5
1780
  8
DIM
 10
1527.662116134049
 20
526.2715877498207
 30
0.0
 40
30.0
  1
441 O/A
 50
90.0
  0
TEXT
  5
1781
  8
DIM
 10
2089.3763942558771
 20
957.44540194757406
 30
0.0
 40
30.0
  1
1159 O/A
  0
TEXT
  5
1782
  8
DIM
 10
2017.0763942558769
 20
893.53877973191618
 30
0.0
 40
30.0
  1
400
  0
TEXT
  5
1783
  8
DIM
 10
1486.4661058559379
 20
846.10216493170856
 30
0.0
 40
30.0
  1
219
  0
TEXT
  5
1784
  8
DIM
 10
1996.276394255877
 20
1980.7781206860291
 30
0.0
 40
30.0
  1
690
  0
TEXT
  5
1785
  8
DIM
 10
1513.3945932521769
 20
1981.023848306442
 30
0.0
 40
30.0
  1
59
  0
TEXT
  5
1786
  8
DIM
 10
1789.376394255876
 20
1125.7273561509239
 30
0.0
 40
30.0
  1
1210 OPTIONAL SPRING MTG CTRS
  0
TEXT
  5
1787
  8
DIM
 10
1959.376394255876
 20
1187.7502760910099
 30
0.0
 40
30.0
  1
1134 HANGING CTRS
  0
LINE
  5
17A7
  8
DIM
 10
2834.6763942558791
 20
716.78307750230886
 30
0.0
 11
2780.6763942558782
 21
716.78307750230886
 31
0.0
  0
LINE
  5
17A8
  8
DIM
 10
2834.6763942558791
 20
704.78307750230886
 30
0.0
 11
2770.3513942558789
 21
704.78307750230863
 31
0.0
  0
LINE
  5
17B2
  8
OUTLINE
 10
3828.1101823869112
 20
801.78307750230852
 30
0.0
 11
3766.1101823869099
 21
801.78307750230852
 31
0.0
  0
LINE
  5
1A26
  8
DIM
 10
2809.6763942558769
 20
1923.096522454372
 30
0.0
 11
3004.2307652224681
 21
1923.096522454372
 31
0.0
  0
LINE
  5
1A27
  8
DIM
 10
2984.230765222469
 20
1953.096522454372
 30
0.0
 11
2984.230765222469
 21
1962.096522454372
 31
0.0
  0
SOLID
  5
1A28
  8
DIM
 10
2979.2307652224681
 20
1953.096522454372
 30
0.0
 11
2989.2307652224681
 21
1953.096522454372
 31
0.0
 12
2984.230765222469
 22
1923.096522454372
 32
0.0
 13
2984.230765222469
 23
1923.096522454372
 33
0.0
  0
TEXT
  5
1A29
  8
DIM
 10
2999.2307652224681
 20
1982.096522454372
 30
0.0
 40
30.0
  1
36
 50
90.0
  0
LINE
  5
1A2A
  8
DIM
 10
2809.6763942558769
 20
1923.096522454372
 30
0.0
 11
2932.5981340099311
 21
1923.096522454372
 31
0.0
  0
LINE
  5
1A2B
  8
DIM
 10
2912.5981340099311
 20
1953.096522454372
 30
0.0
 11
2912.5981340099311
 21
1962.096522454372
 31
0.0
  0
SOLID
  5
1A2C
  8
DIM
 10
2907.5981340099311
 20
1953.096522454372
 30
0.0
 11
2917.5981340099311
 21
1953.096522454372
 31
0.0
 12
2912.5981340099311
 22
1923.096522454372
 32
0.0
 13
2912.5981340099311
 23
1923.096522454372
 33
0.0
  0
TEXT
  5
1A2D
  8
DIM
 10
2927.5981340099311
 20
1982.096522454372
 30
0.0
 40
30.0
  1
56
 50
90.0
  0
LINE
  5
1B5D
  8
DIM
 10
1645.0763942558769
 20
1405.4407355591241
 30
0.0
 11
1645.0763942558769
 21
1182.7502760910099
 31
0.0
  0
LINE
  5
1B60
  8
DIM
 10
2778.6763942558791
 20
1405.4407355591241
 30
0.0
 11
2778.6763942558791
 21
1182.7502760910099
 31
0.0
  0
LINE
  5
1B61
  8
OUTLINE
 10
2778.6763942558791
 20
821.78307750230863
 30
0.0
 11
2778.6763942558791
 21
811.78307750230886
 31
0.0
  0
LINE
  5
1B62
  8
OUTLINE
 10
1645.0763942558769
 20
821.78307750230863
 30
0.0
 11
1645.0763942558769
 21
811.78307750230886
 31
0.0
  0
LINE
  5
1DA4
  8
OUTLINE
 10
2470.67639425588
 20
1282.990735559124
 30
0.0
 11
2770.3513942558789
 21
1282.990735559124
 31
0.0
  0
LINE
  5
1DA7
  8
DIM
 10
2834.6763942558791
 20
1383.790735559124
 30
0.0
 11
2770.3513942558789
 21
1383.790735559124
 31
0.0
  0
LINE
  5
1DA8
  8
DIM
 10
2770.3514525449232
 20
1392.0268092281699
 30
0.0
 11
2770.3513942558789
 21
1282.990735559124
 31
0.0
  0
LINE
  5
1DAD
  8
DIM
 10
2253.4411204655689
 20
1282.990735559124
 30
0.0
 11
2253.4411204655689
 21
1371.290735559123
 31
0.0
  0
LINE
  5
1DD4
  8
DIM
 10
2768.6763942558769
 20
1867.090737333958
 30
0.0
 11
2768.6763942558769
 21
1923.090737333958
 31
0.0
  0
LINE
  5
1DD8
  8
DIM
 10
1693.076394255876
 20
1953.890735559122
 30
0.0
 11
2383.076394255876
 21
1953.890735559145
 31
0.0
  0
LINE
  5
1DDB
  8
DIM
 10
2780.6763942558769
 20
779.78307750230863
 30
0.0
 11
2780.6763942558769
 21
716.78307750230886
 31
0.0
  0
LINE
  5
1DDC
  8
DIM
 10
2780.6763942558769
 20
563.78307750230863
 30
0.0
 11
2770.3513942558811
 21
563.7830775023084
 31
0.0
  0
LINE
  5
1DDD
  8
DIM
 10
2470.67639425588
 20
708.78307750230863
 30
0.0
 11
2470.67639425588
 21
430.78307750230852
 31
0.0
  0
LINE
  5
1DDE
  8
DIM
 10
2253.4183942558798
 20
795.78307750230886
 30
0.0
 11
2253.4183942558798
 21
574.78307750230886
 31
0.0
  0
LINE
  5
1DDF
  8
DIM
 10
1853.4163942558771
 20
795.78307750230863
 30
0.0
 11
1853.4163942558771
 21
574.78307750230886
 31
0.0
  0
LINE
  5
1DE0
  8
DIM
 10
1883.416394255876
 20
908.53877973191595
 30
0.0
 11
1996.6577272308109
 21
908.53877973191595
 31
0.0
  0
LINE
  5
1DE1
  8
DIM
 10
1634.076394255876
 20
816.78307750230863
 30
0.0
 11
1853.076394255876
 21
816.78307750230863
 31
0.0
  0
LINE
  5
1DE3
  8
DIM
 10
1853.416394255876
 20
795.78307750230863
 30
0.0
 11
2253.4183942558798
 21
795.78307750230863
 31
0.0
  0
LINE
  5
1DE4
  8
DIM
 10
2768.6763942558769
 20
816.78307750230863
 30
0.0
 11
2768.6763942558769
 21
708.78307750230863
 31
0.0
  0
LINE
  5
1DEA
  8
DIM
 10
2768.6763942558769
 20
430.78307750230852
 30
0.0
 11
2768.6763942558769
 21
392.78307750230857
 31
0.0
  0
LINE
  5
1DEB
  8
DIM
 10
3134.4101823869119
 20
708.78307750230863
 30
0.0
 11
3238.810182386911
 21
708.78991209284129
 31
0.0
  0
LINE
  5
1DEC
  8
DIM
 10
3134.41018238691
 20
430.78307750230852
 30
0.0
 11
3243.5101823869081
 21
430.78307750230852
 31
0.0
  0
LINE
  5
1DED
  8
DIM
  6
HIDDEN
 10
3134.41018238691
 20
574.75307750230877
 30
0.0
 11
3243.5101823869081
 21
574.75307750230877
 31
0.0
  0
LINE
  5
1DEE
  8
DIM
 10
3134.4101823869119
 20
795.78307750230863
 30
0.0
 11
3243.5101823869109
 21
795.72150092881645
 31
0.0
  0
SOLID
  5
1E05
  8
DIM
 10
3086.981924010312
 20
604.753077502309
 30
0.0
 11
3096.981924010312
 21
604.753077502309
 31
0.0
 12
3091.9819240103111
 22
574.75307750230877
 32
0.0
 13
3091.9819240103111
 23
574.75307750230877
 33
0.0
  0
LINE
  5
1E06
  8
DIM
 10
3091.981924010312
 20
578.78307750230897
 30
0.0
 11
3091.981924010312
 21
681.67145084090339
 31
0.0
  0
LINE
  5
1E16
  8
DIM
 10
3786.9101823869082
 20
816.78307750230863
 30
0.0
 11
3698.9101823869082
 21
816.78307750230863
 31
0.0
  0
LINE
  5
1E1F
  8
DIM
 10
3786.9101823869082
 20
836.78307750230886
 30
0.0
 11
3786.9101823869082
 21
898.87767562589374
 31
0.0
  0
LINE
  5
1E39
  8
DIM
 10
3866.0235724551781
 20
462.07793474863041
 30
0.0
 11
3866.0235724551781
 21
562.01721618164891
 31
0.0
  0
LINE
  5
1E6E
  8
DIM
 10
2780.6763942558769
 20
704.78307750230886
 30
0.0
 11
2780.6763942558769
 21
563.78307750230863
 31
0.0
  0
LINE
  5
1E9E
  8
DIM
 10
1693.076394255876
 20
1953.8907355591209
 30
0.0
 11
1693.076394255876
 21
1923.090737333958
 31
0.0
  0
LINE
  5
1E9F
  8
DIM
 10
2383.076394255876
 20
1953.890735559145
 30
0.0
 11
2383.076394255876
 21
1923.090737333958
 31
0.0
  0
LINE
  5
1EA0
  8
DIM
 10
2383.076394255876
 20
1923.090737333958
 30
0.0
 11
2383.076394255876
 21
1926.726997428274
 31
0.0
  0
LINE
  5
1F30
  8
DIM
 10
2770.3513942558789
 20
708.78307750230863
 30
0.0
 11
2470.67639425588
 21
708.78307750230863
 31
0.0
  0
LINE
  5
1F53
  8
DIM
 10
3134.4101823869119
 20
795.78307750230863
 30
0.0
 11
3134.4101823869119
 21
795.78307750230863
 31
0.0
  0
LINE
  5
1F55
  8
DIM
 10
3828.110182386924
 20
431.78307750230869
 30
0.0
 11
3766.110182386924
 21
431.78307750230618
 31
0.0
  0
SOLID
  5
1F5B
  8
DIM
 10
3860.808731029133
 20
461.87984154676082
 30
0.0
 11
3870.8087310291321
 21
461.87984154676082
 31
0.0
 12
3865.8087310291298
 22
431.87984154676082
 32
0.0
 13
3865.8087310291298
 23
431.87984154676082
 33
0.0
  0
ENDSEC
  0
EOF
