  0
SECTION
  2
HEADER
  9
$ACADVER
  1
AC1009
  9
$INSBASE
 10
0.0
 20
0.0
 30
0.0
  9
$EXTMIN
 10
133.98938649699991
 20
81.153831379338939
 30
-0.0000000349181948
  9
$EXTMAX
 10
3691.0498161495289
 20
2538.2648427090771
 30
0.0000000814935747
  9
$LIMMIN
 10
0.0
 20
0.0
  9
$LIMMAX
 10
3890.0
 20
2660.0
  9
$ORTHOMODE
 70
     1
  9
$REGENMODE
 70
     1
  9
$FILLMODE
 70
     1
  9
$QTEXTMODE
 70
     0
  9
$MIRRTEXT
 70
     0
  9
$DRAGMODE
 70
     2
  9
$LTSCALE
 40
60.0
  9
$OSMODE
 70
     0
  9
$ATTMODE
 70
     1
  9
$TEXTSIZE
 40
30.0
  9
$TRACEWID
 40
0.05
  9
$TEXTSTYLE
  7
TITLE3
  9
$CLAYER
  8
DIM
  9
$CELTYPE
  6
CONTINUOUS
  9
$CECOLOR
 62
   256
  9
$DIMSCALE
 40
1.0
  9
$DIMASZ
 40
30.0
  9
$DIMEXO
 40
10.0
  9
$DIMDLI
 40
0.38
  9
$DIMRND
 40
0.0
  9
$DIMDLE
 40
0.0
  9
$DIMEXE
 40
0.18
  9
$DIMTP
 40
0.0
  9
$DIMTM
 40
0.0
  9
$DIMTXT
 40
30.0
  9
$DIMCEN
 40
0.09
  9
$DIMTSZ
 40
0.0
  9
$DIMTOL
 70
     0
  9
$DIMLIM
 70
     0
  9
$DIMTIH
 70
     0
  9
$DIMTOH
 70
     0
  9
$DIMSE1
 70
     0
  9
$DIMSE2
 70
     0
  9
$DIMTAD
 70
     0
  9
$DIMZIN
 70
     0
  9
$DIMBLK
  1

  9
$DIMASO
 70
     0
  9
$DIMSHO
 70
     0
  9
$DIMPOST
  1

  9
$DIMAPOST
  1

  9
$DIMALT
 70
     0
  9
$DIMALTD
 70
     2
  9
$DIMALTF
 40
25.399999999999999
  9
$DIMLFAC
 40
1.0
  9
$DIMTOFL
 70
     0
  9
$DIMTVP
 40
0.0
  9
$DIMTIX
 70
     0
  9
$DIMSOXD
 70
     0
  9
$DIMSAH
 70
     0
  9
$DIMBLK1
  1

  9
$DIMBLK2
  1

  9
$DIMSTYLE
  2
COPY_OF_COPY_OF_STANDARD
  9
$DIMCLRD
 70
     0
  9
$DIMCLRE
 70
     0
  9
$DIMCLRT
 70
     0
  9
$DIMTFAC
 40
1.0
  9
$DIMGAP
 40
5.0
  9
$LUNITS
 70
     2
  9
$LUPREC
 70
     2
  9
$SKETCHINC
 40
0.1
  9
$FILLETRAD
 40
0.0
  9
$AUNITS
 70
     0
  9
$AUPREC
 70
     2
  9
$MENU
  1
CNC
  9
$ELEVATION
 40
0.0
  9
$PELEVATION
 40
0.0
  9
$THICKNESS
 40
0.0
  9
$LIMCHECK
 70
     0
  9
$BLIPMODE
 70
     0
  9
$CHAMFERA
 40
0.0
  9
$CHAMFERB
 40
0.0
  9
$SKPOLY
 70
     0
  9
$TDCREATE
 40
2450694.550174769
  9
$TDUPDATE
 40
2454596.6659087851
  9
$TDINDWG
 40
2.5254886111000001
  9
$TDUSRTIMER
 40
2.5254867939999999
  9
$USRTIMER
 70
     1
  9
$ANGBASE
 50
0.0
  9
$ANGDIR
 70
     0
  9
$PDMODE
 70
     2
  9
$PDSIZE
 40
10.0
  9
$PLINEWID
 40
0.0
  9
$COORDS
 70
     1
  9
$SPLFRAME
 70
     0
  9
$SPLINETYPE
 70
     6
  9
$SPLINESEGS
 70
     8
  9
$ATTDIA
 70
     0
  9
$ATTREQ
 70
     1
  9
$HANDLING
 70
     1
  9
$HANDSEED
  5
A3E4
  9
$SURFTAB1
 70
     6
  9
$SURFTAB2
 70
     6
  9
$SURFTYPE
 70
     6
  9
$SURFU
 70
     6
  9
$SURFV
 70
     6
  9
$UCSNAME
  2

  9
$UCSORG
 10
0.0
 20
0.0
 30
0.0
  9
$UCSXDIR
 10
1.0
 20
0.0
 30
0.0
  9
$UCSYDIR
 10
0.0
 20
1.0
 30
0.0
  9
$PUCSNAME
  2

  9
$PUCSORG
 10
0.0
 20
0.0
 30
0.0
  9
$PUCSXDIR
 10
1.0
 20
0.0
 30
0.0
  9
$PUCSYDIR
 10
0.0
 20
1.0
 30
0.0
  9
$USERI1
 70
     0
  9
$USERI2
 70
     0
  9
$USERI3
 70
     0
  9
$USERI4
 70
     0
  9
$USERI5
 70
     0
  9
$USERR1
 40
0.0
  9
$USERR2
 40
0.0
  9
$USERR3
 40
0.0
  9
$USERR4
 40
0.0
  9
$USERR5
 40
0.0
  9
$WORLDVIEW
 70
     1
  9
$SHADEDGE
 70
     3
  9
$SHADEDIF
 70
    70
  9
$TILEMODE
 70
     1
  9
$MAXACTVP
 70
    16
  9
$PLIMCHECK
 70
     0
  9
$PEXTMIN
 10
1.0000000000000000E+020
 20
1.0000000000000000E+020
 30
1.0000000000000000E+020
  9
$PEXTMAX
 10
-1.0000000000000000E+020
 20
-1.0000000000000000E+020
 30
-1.0000000000000000E+020
  9
$PLIMMIN
 10
0.0
 20
0.0
  9
$PLIMMAX
 10
12.0
 20
9.0
  9
$UNITMODE
 70
     0
  9
$VISRETAIN
 70
     0
  9
$PLINEGEN
 70
     0
  9
$PSLTSCALE
 70
     0
  0
ENDSEC
  0
SECTION
  2
TABLES
  0
TABLE
  2
VPORT
 70
     1
  0
VPORT
  2
*ACTIVE
 70
     0
 10
0.0
 20
0.0
 11
1.0
 21
1.0
 12
1912.5196013232639
 22
1309.709337044208
 13
0.0
 23
0.0
 14
25.0
 24
25.0
 15
100.0
 25
100.0
 16
0.0
 26
0.0
 36
1.0
 17
0.0
 27
0.0
 37
0.0
 40
2479.4145908576929
 41
1.6348484848484841
 42
50.0
 43
0.0
 44
0.0
 50
0.0
 51
0.0
 71
     0
 72
   100
 73
     1
 74
     0
 75
     0
 76
     0
 77
     0
 78
     0
  0
ENDTAB
  0
TABLE
  2
LTYPE
 70
     3
  0
LTYPE
  2
CONTINUOUS
 70
     0
  3
Solid line
 72
    65
 73
     0
 40
0.0
  0
LTYPE
  2
HIDDEN
 70
     0
  3
__ __ __ __ __ __ __ __ __ __ __ __ __ __ __ __
 72
    65
 73
     2
 40
0.375
 49
0.25
 49
-0.125
  0
ENDTAB
  0
TABLE
  2
LAYER
 70
     6
  0
LAYER
  2
0
 70
     0
 62
     7
  6
CONTINUOUS
  0
LAYER
  2
DIM
 70
     0
 62
     2
  6
CONTINUOUS
  0
LAYER
  2
OUTLINE
 70
     0
 62
     7
  6
CONTINUOUS
  0
LAYER
  2
OVERLAY-A3
 70
     0
 62
     7
  6
CONTINUOUS
  0
LAYER
  2
TEXT
 70
     0
 62
     3
  6
CONTINUOUS
  0
LAYER
  2
SPRING
 70
     0
 62
     7
  6
HIDDEN
  0
ENDTAB
  0
TABLE
  2
STYLE
 70
    12
  0
STYLE
  2
STANDARD
 70
     0
 40
0.0
 41
1.0
 50
0.0
 71
     0
 42
0.2
  3
txt
  4

  0
STYLE
  2
ANNOTATIVE
 70
     0
 40
0.0
 41
1.0
 50
0.0
 71
     0
 42
0.2
  3
txt
  4

  0
STYLE
  2
TITLE3
 70
     0
 40
30.0
 41
1.0
 50
0.0
 71
     0
 42
30.0
  3
SIMPLEX
  4

  0
STYLE
  2
SIMPLEX
 70
     0
 40
40.0
 41
1.0
 50
0.0
 71
     0
 42
25.0
  3
SIMPLEX
  4

  0
STYLE
  2
TITLE5
 70
     0
 40
50.0
 41
1.0
 50
0.0
 71
     0
 42
50.0
  3
SIMPLEX.shx
  4

  0
ENDTAB
  0
TABLE
  2
VIEW
 70
     0
  0
ENDTAB
  0
TABLE
  2
UCS
 70
     0
  0
ENDTAB
  0
TABLE
  2
APPID
 70
    19
  0
APPID
  2
ACAD
 70
     0
  0
APPID
  2
ACADANNOTATIVE
 70
     0
  0
APPID
  2
ACAD_MLEADERVER
 70
     0
  0
APPID
  2
ACAD_PSEXT
 70
     0
  0
APPID
  2
ACAD_DSTYLE_DIMJAG
 70
     0
  0
APPID
  2
ACAD_DSTYLE_DIMBREAK
 70
     0
  0
APPID
  2
ACAD_DSTYLE_DIMTALN
 70
     0
  0
APPID
  2
ACADANNOPO
 70
     0
  0
APPID
  2
ACAD_EXEMPT_FROM_CAD_STANDARDS
 70
     0
  0
APPID
  2
ACAD_DSTYLE_DIMRADIAL_EXTENSION
 70
     0
  0
APPID
  2
ACAECLAYERSTANDARD
 70
     0
  0
APPID
  2
MCAD_NO_VIS
 70
     0
  0
APPID
  2
ACAD_TEMP_GRAPHIC
 70
     0
  0
APPID
  2
AD_DRAW
 70
     0
  0
APPID
  2
ACATTRIBSERVICES
 70
     0
  0
APPID
  2
DESIGNERASSEMBLIES
 70
     0
  0
APPID
  2
ACADM_DIM_EDIT
 70
     0
  0
APPID
  2
AMDT_DM_ADJ
 70
     0
  0
APPID
  2
CONTENTBLOCKICON
 70
     0
  0
ENDTAB
  0
TABLE
  2
DIMSTYLE
 70
    11
  0
DIMSTYLE
  2
STANDARD
 70
     0
  3

  4

  5

  6

  7

 40
1.0
 41
30.0
 42
10.0
 43
0.38
 44
0.18
 45
0.0
 46
0.0
 47
0.0
 48
0.0
140
30.0
141
0.09
142
0.0
143
25.399999999999999
144
1.0
145
0.0
146
1.0
147
5.0
 71
     0
 72
     0
 73
     0
 74
     0
 75
     0
 76
     0
 77
     0
 78
     0
170
     0
171
     2
172
     0
173
     0
174
     0
175
     0
176
     0
177
     0
178
     0
  0
DIMSTYLE
  2
ANNOTATIVE
 70
     0
  3

  4

  5

  6

  7

 40
1.0
 41
0.18
 42
0.0625
 43
0.38
 44
0.18
 45
0.0
 46
0.0
 47
0.0
 48
0.0
140
0.18
141
0.09
142
0.0
143
25.399999999999999
144
1.0
145
0.0
146
1.0
147
0.09
 71
     0
 72
     0
 73
     1
 74
     1
 75
     0
 76
     0
 77
     0
 78
     0
170
     0
171
     2
172
     0
173
     0
174
     0
175
     0
176
     0
177
     0
178
     0
  0
DIMSTYLE
  2
COPY_OF_COPY_OF_STANDARD
 70
     0
  3

  4

  5

  6

  7

 40
1.0
 41
30.0
 42
10.0
 43
0.38
 44
0.18
 45
0.0
 46
0.0
 47
0.0
 48
0.0
140
30.0
141
0.09
142
0.0
143
25.399999999999999
144
1.0
145
0.0
146
1.0
147
5.0
 71
     0
 72
     0
 73
     0
 74
     0
 75
     0
 76
     0
 77
     0
 78
     0
170
     0
171
     2
172
     0
173
     0
174
     0
175
     0
176
     0
177
     0
178
     0
  0
ENDTAB
  0
ENDSEC
  0
SECTION
  2
BLOCKS
  0
BLOCK
  8
0
  2
$MODEL_SPACE
 70
     0
 10
0.0
 20
0.0
 30
0.0
  3
$MODEL_SPACE
  1

  0
ENDBLK
  5
A2B9
  8
0
  0
BLOCK
 67
     1
  8
0
  2
$PAPER_SPACE
 70
     0
 10
0.0
 20
0.0
 30
0.0
  3
$PAPER_SPACE
  1

  0
ENDBLK
  5
A2B5
 67
     1
  8
0
  0
BLOCK
  8
0
  2
*U2
 70
     1
 10
0.0
 20
0.0
 30
0.0
  3
*U2
  1

  0
TEXT
  5
66CF
  8
DIM
  6
CONTINUOUS
 10
3770.0078620352001
 20
909.78111772631485
 30
0.0
 40
30.0
  1
365
 50
90.0
  7
TITLE3
  0
ENDBLK
  5
66D1
  8
0
  0
BLOCK
  8
0
  2
*U3
 70
     1
 10
0.0
 20
0.0
 30
0.0
  3
*U3
  1

  0
TEXT
  5
66DB
  8
DIM
  6
CONTINUOUS
 10
3079.889004996091
 20
1316.3282976824121
 30
0.0
 40
30.0
  1
107
  7
TITLE3
  0
ENDBLK
  5
66DD
  8
0
  0
BLOCK
  8
0
  2
*U4
 70
     1
 10
0.0
 20
0.0
 30
0.0
  3
*U4
  1

  0
TEXT
  5
66DF
  8
DIM
  6
CONTINUOUS
 10
3187.2709630743479
 20
1314.3841670587519
 30
0.0
 40
30.0
  1
75
  7
TITLE3
  0
ENDBLK
  5
66E1
  8
0
  0
BLOCK
  8
0
  2
*U5
 70
     1
 10
0.0
 20
0.0
 30
0.0
  3
*U5
  1

  0
TEXT
  5
6A58
  8
DIM
  6
CONTINUOUS
 62
    50
 10
1072.779065527377
 20
1083.318387013466
 30
0.0
 40
30.0
  1
185
 50
90.0
  7
TITLE3
  0
ENDBLK
  5
6A5A
  8
0
  0
BLOCK
  8
0
  2
NEW_BLOCK
 70
     0
 10
0.0
 20
0.0
 30
0.0
  3
NEW_BLOCK
  1

  0
TEXT
  5
7FFE
  8
TEXT
 10
27.285946821803002
 20
25.27142175952417
 30
0.0
 40
40.0
  1
available on request
  7
TITLE3
  0
TEXT
  5
7FFF
  8
TEXT
 10
27.285946821803002
 20
93.842850330952714
 30
0.0
 40
40.0
  1
Certified dimensions
  7
TITLE3
  0
TEXT
  5
8000
  8
TEXT
 10
27.285946821803002
 20
162.4142789023812
 30
0.0
 40
40.0
  1
without notice or obligation.
  7
TITLE3
  0
TEXT
  5
8001
  8
TEXT
 10
27.285946821803002
 20
230.9857074738097
 30
0.0
 40
40.0
  1
specifications at any time
  7
TITLE3
  0
TEXT
  5
8002
  8
TEXT
 10
27.285946821803002
 20
299.55713604523839
 30
0.0
 40
40.0
  1
the right to change 
  7
TITLE3
  0
TEXT
  5
8003
  8
TEXT
 10
27.285946821803002
 20
436.69999318809488
 30
0.0
 40
40.0
  1
NOTE
  7
TITLE3
  0
TEXT
  5
8004
  8
TEXT
 10
27.285946821803002
 20
368.12856461666678
 30
0.0
 40
40.0
  1
The manufacturer reserves
  7
TITLE3
  0
ENDBLK
  5
8005
  8
0
  0
BLOCK
  8
0
  2
*U7
 70
     1
 10
0.0
 20
0.0
 30
0.0
  3
*U7
  1

  0
TEXT
  5
80F4
  8
DIM
  6
CONTINUOUS
 10
666.72168929733471
 20
1803.438256288021
 30
0.0
 40
30.0
  1
700 O/A
 50
90.0
  0
ENDBLK
  5
80F6
  8
0
  0
BLOCK
  8
0
  2
*U8
 70
     1
 10
0.0
 20
0.0
 30
0.0
  3
*U8
  1

  0
TEXT
  5
86E7
  8
DIM
  6
CONTINUOUS
 10
2442.5569462165331
 20
1895.866827716593
 30
0.0
 40
30.0
  1
485
 50
90.0
  7
TITLE3
  0
ENDBLK
  5
86E9
  8
0
  0
BLOCK
  8
0
  2
*U9
 70
     1
 10
0.0
 20
0.0
 30
0.0
  3
*U9
  1

  0
TEXT
  5
86EB
  8
DIM
  6
CONTINUOUS
 10
2525.0091238054129
 20
1896.5811134308781
 30
0.0
 40
30.0
  1
586
 50
90.0
  7
TITLE3
  0
ENDBLK
  5
86ED
  8
0
  0
BLOCK
  8
0
  2
*U10
 70
     1
 10
0.0
 20
0.0
 30
0.0
  3
*U10
  1

  0
TEXT
  5
894B
  8
DIM
  6
CONTINUOUS
 10
736.229176306775
 20
2365.9551132244051
 30
0.0
 40
30.0
  1
38
  0
ENDBLK
  5
894D
  8
0
  0
BLOCK
  8
0
  2
A$C70722A8B
 70
     0
 10
0.0
 20
0.0
 30
0.0
  3
A$C70722A8B
  1

  0
TEXT
  5
8C35
  8
OVERLAY-A3
 10
-1013.9894139153701
 20
-226.51141959426729
 30
0.0
 40
24.0
  1
Date
  7
SIMPLEX
  0
TEXT
  5
8C36
  8
OVERLAY-A3
 10
-115.16676568589079
 20
-207.839331430957
 30
0.0
 40
24.0
  1
Revision
 41
0.7812095035934736
  7
SIMPLEX
 72
     5
 11
-9.8150840584280559
 21
-207.839331430957
 31
0.0
  0
LINE
  5
8C37
  8
OVERLAY-A3
 10
-126.7866080693306
 20
-316.50014060605122
 30
0.0
 11
-126.7866080693306
 21
-169.07397774582171
 31
0.0
  0
LINE
  5
8C38
  8
OVERLAY-A3
 10
-1041.926428602344
 20
0.0
 30
0.0
 11
-1041.926428602344
 21
-316.50014060605122
 31
0.0
  0
LINE
  5
8C39
  8
OVERLAY-A3
 10
-444.36428004639828
 20
-316.50014060605122
 30
0.0
 11
-444.36428004639828
 21
-169.07397774582171
 31
0.0
  0
LINE
  5
8C3A
  8
OVERLAY-A3
 10
-444.36428004639828
 20
-244.03003418490439
 30
0.0
 11
-1041.926428602344
 21
-244.03003418490439
 31
0.0
  0
LINE
  5
8C3B
  8
OVERLAY-A3
 10
0.2975071783494059
 20
-169.07397774582171
 30
0.0
 11
-1041.926428602344
 21
-169.07397774582171
 31
0.0
  0
LINE
  5
8C3C
  8
OVERLAY-A3
 10
-1041.926428602344
 20
-316.50014060605122
 30
0.0
 11
0.0
 21
-316.50014060605122
 31
0.0
  0
LINE
  5
8C3D
  8
OVERLAY-A3
 10
0.0
 20
0.0
 30
0.0
 11
-1041.926428602344
 21
0.0
 31
0.0
  0
TEXT
  5
8C3E
  8
OVERLAY-A3
 10
-1016.794738956382
 20
-289.42014538901049
 30
0.0
 40
20.0
  1
Scale
 41
1.370174796565961
  7
SIMPLEX
 72
     5
 11
-916.31525387487795
 21
-289.42014538901049
 31
0.0
  0
TEXT
  5
8C3F
  8
OVERLAY-A3
 10
-386.41883445869428
 20
-208.44920194765839
 30
0.0
 40
20.0
  1
Drawing No.
  7
SIMPLEX
 72
     2
 11
-212.13312017298
 21
-208.44920194765839
 31
0.0
  0
LINE
  5
8C40
  8
OVERLAY-A3
  6
CONTINUOUS
 10
0.0
 20
0.0
 30
0.0
 11
0.0
 21
-316.50014060605122
 31
0.0
  0
ENDBLK
  5
8C42
  8
0
  0
BLOCK
  8
0
  2
*U12
 70
     1
 10
0.0
 20
0.0
 30
0.0
  3
*U12
  1

  0
TEXT
  5
A066
  8
DIM
  6
CONTINUOUS
 10
1152.5225782649329
 20
2450.7786342481249
 30
0.0
 40
30.0
  1
1242
  7
TITLE3
  0
ENDBLK
  5
A068
  8
0
  0
BLOCK
  8
0
  2
*U13
 70
     1
 10
0.0
 20
0.0
 30
0.0
  3
*U13
  1

  0
TEXT
  5
A06A
  8
DIM
  6
CONTINUOUS
 10
1120.200225336009
 20
1660.847572621519
 30
0.0
 40
30.0
  1
860
  7
TITLE3
  0
ENDBLK
  5
A06C
  8
0
  0
BLOCK
  8
0
  2
*U14
 70
     1
 10
0.0
 20
0.0
 30
0.0
  3
*U14
  1

  0
TEXT
  5
A06E
  8
DIM
  6
CONTINUOUS
 10
1300.7716539074379
 20
1554.9246803860699
 30
0.0
 40
30.0
  1
1668
  7
TITLE3
  0
ENDBLK
  5
A070
  8
0
  0
BLOCK
  8
0
  2
*U15
 70
     1
 10
0.0
 20
0.0
 30
0.0
  3
*U15
  1

  0
TEXT
  5
A0A1
  8
DIM
  6
CONTINUOUS
 10
2683.617597708509
 20
1078.9609660994649
 30
0.0
 40
30.0
  1
117
 50
90.0
  7
TITLE3
  0
ENDBLK
  5
A0A3
  8
0
  0
BLOCK
  8
0
  2
*U24
 70
     1
 10
0.0
 20
0.0
 30
0.0
  3
*U24
  1

  0
TEXT
  5
A3E1
  8
DIM
  6
CONTINUOUS
 10
514.70813118868466
 20
1628.5488200462
 30
0.0
 40
30.0
  1
320
  0
ENDBLK
  5
A3E3
  8
0
  0
ENDSEC
  0
SECTION
  2
ENTITIES
  0
LINE
  5
B97
  8
DIM
 10
1368.294140874988
 20
2291.3921706162741
 30
0.0
 11
1368.294140874988
 21
2311.2363494090769
 31
0.0
  0
LINE
  5
B98
  8
DIM
 10
1384.6306920581701
 20
2291.3921706162741
 30
0.0
 11
1368.294140874988
 21
2291.3921706162741
 31
0.0
  0
LINE
  5
B99
  8
DIM
 10
1360.6957449758361
 20
2254.5353788908492
 30
0.0
 11
1384.6306920581701
 21
2291.3921706162741
 31
0.0
  0
LINE
  5
B9A
  8
DIM
 10
1353.097349076681
 20
2311.2363494090769
 30
0.0
 11
1368.294140874988
 21
2311.2363494090769
 31
0.0
  0
LINE
  5
B9B
  8
DIM
 10
1353.097349076681
 20
2291.3921706162741
 30
0.0
 11
1353.097349076681
 21
2311.2363494090769
 31
0.0
  0
LINE
  5
B9C
  8
DIM
 10
1336.7607978935009
 20
2291.3921706162741
 30
0.0
 11
1353.097349076681
 21
2291.3921706162741
 31
0.0
  0
LINE
  5
B9D
  8
DIM
 10
1360.6957449758361
 20
2254.5353788908492
 30
0.0
 11
1336.7607978935009
 21
2291.3921706162741
 31
0.0
  0
LINE
  5
18EF
  8
DIM
 10
802.72158328531964
 20
2291.3921706162741
 30
0.0
 11
802.72158328531964
 21
2311.2363494090769
 31
0.0
  0
LINE
  5
18F0
  8
DIM
 10
819.05813446850016
 20
2291.3921706162741
 30
0.0
 11
802.72158328531964
 21
2291.3921706162741
 31
0.0
  0
LINE
  5
18F1
  8
DIM
 10
795.12318738616625
 20
2254.5353788908492
 30
0.0
 11
819.05813446850016
 21
2291.3921706162741
 31
0.0
  0
LINE
  5
18F2
  8
DIM
 10
787.52479148701161
 20
2311.2363494090769
 30
0.0
 11
802.72158328531964
 21
2311.2363494090769
 31
0.0
  0
LINE
  5
18F3
  8
DIM
 10
787.52479148701161
 20
2291.3921706162741
 30
0.0
 11
787.52479148701161
 21
2311.2363494090769
 31
0.0
  0
LINE
  5
18F4
  8
DIM
 10
771.18824030383155
 20
2291.3921706162741
 30
0.0
 11
787.52479148701161
 21
2291.3921706162741
 31
0.0
  0
LINE
  5
18F5
  8
DIM
 10
795.12318738616625
 20
2254.5353788908492
 30
0.0
 11
771.18824030383155
 21
2291.3921706162741
 31
0.0
  0
LINE
  5
1F8D
  8
DIM
 10
3606.0061362466672
 20
897.72818422685145
 30
0.0
 11
3625.8503150394722
 21
897.72818422685145
 31
0.0
  0
LINE
  5
1F8E
  8
DIM
 10
3606.0061362466672
 20
881.39163304366923
 30
0.0
 11
3606.0061362466672
 21
897.72818422685145
 31
0.0
  0
LINE
  5
1F8F
  8
DIM
 10
3569.1493445212418
 20
905.32658012600405
 30
0.0
 11
3606.0061362466672
 21
881.39163304366923
 31
0.0
  0
LINE
  5
1F90
  8
DIM
 10
3625.8503150394722
 20
912.92497602515868
 30
0.0
 11
3625.8503150394722
 21
897.72818422685145
 31
0.0
  0
LINE
  5
1F91
  8
DIM
 10
3606.0061362466672
 20
912.92497602515868
 30
0.0
 11
3625.8503150394722
 21
912.92497602515868
 31
0.0
  0
LINE
  5
1F92
  8
DIM
 10
3606.0061362466672
 20
929.26152720833829
 30
0.0
 11
3606.0061362466672
 21
912.92497602515868
 31
0.0
  0
LINE
  5
1F93
  8
DIM
 10
3569.1493445212418
 20
905.32658012600405
 30
0.0
 11
3606.0061362466672
 21
929.26152720833829
 31
0.0
  0
LINE
  5
1FBA
  8
DIM
 10
3447.4843302132781
 20
1062.418108956608
 30
0.0
 11
3520.5689015380999
 21
1062.418108956608
 31
0.0
  0
LINE
  5
1FBB
  8
DIM
 10
3447.4843302132758
 20
697.61810895660722
 30
0.0
 11
3520.5689015380981
 21
697.61810895660722
 31
0.0
  0
LINE
  5
1FBC
  8
DIM
 10
3520.3889015381001
 20
1032.4181089566071
 30
0.0
 11
3520.3889015381001
 21
923.5895375280362
 31
0.0
  0
LINE
  5
1FBD
  8
DIM
 10
3520.3889015381001
 20
727.61810895660733
 30
0.0
 11
3520.3889015381001
 21
836.44668038517796
 31
0.0
  0
SOLID
  5
1FBE
  8
DIM
 10
3515.388901538101
 20
1032.4181089566071
 30
0.0
 11
3525.3889015380992
 21
1032.4181089566071
 31
0.0
 12
3520.3889015381001
 22
1062.418108956608
 32
0.0
 13
3520.3889015381001
 23
1062.418108956608
 33
0.0
  0
SOLID
  5
1FBF
  8
DIM
 10
3515.388901538101
 20
727.61810895660733
 30
0.0
 11
3525.3889015380992
 21
727.61810895660733
 31
0.0
 12
3520.3889015381001
 22
697.61810895660722
 32
0.0
 13
3520.3889015381001
 23
697.61810895660722
 33
0.0
  0
INSERT
  5
1FC0
  8
DIM
  6
CONTINUOUS
  2
*U2
 10
-234.61896049710049
 20
-68.334437341135285
 30
0.0
  0
LINE
  5
1FC1
  8
DIM
 10
3423.4843302132772
 20
1170.3181089566069
 30
0.0
 11
3520.8915078185528
 21
1170.3181089566069
 31
0.0
  0
LINE
  5
1FC2
  8
DIM
 10
3447.4843302132781
 20
1062.418108956608
 30
0.0
 11
3520.8915078185528
 21
1062.418108956608
 31
0.0
  0
LINE
  5
1FC3
  8
DIM
 10
3520.7115078185529
 20
1200.3181089566069
 30
0.0
 11
3520.7115078185529
 21
1230.318108956606
 31
0.0
  0
LINE
  5
1FC4
  8
DIM
 10
3520.7115078185529
 20
1032.4181089566071
 30
0.0
 11
3520.7115078185529
 21
1002.418108956608
 31
0.0
  0
SOLID
  5
1FC5
  8
DIM
 10
3515.7115078185529
 20
1200.3181089566069
 30
0.0
 11
3525.711507818552
 21
1200.3181089566069
 31
0.0
 12
3520.7115078185529
 22
1170.3181089566069
 32
0.0
 13
3520.7115078185529
 23
1170.3181089566069
 33
0.0
  0
SOLID
  5
1FC6
  8
DIM
 10
3515.7115078185529
 20
1032.4181089566071
 30
0.0
 11
3525.711507818552
 21
1032.4181089566071
 31
0.0
 12
3520.7115078185529
 22
1062.418108956608
 32
0.0
 13
3520.7115078185529
 23
1062.418108956608
 33
0.0
  0
LINE
  5
1FD6
  8
DIM
 10
2725.4843302132772
 20
828.73156029160646
 30
0.0
 11
2666.8652569320561
 21
828.73156029160646
 31
0.0
  0
LINE
  5
1FD8
  8
DIM
 10
2667.0452569320551
 20
858.73156029160668
 30
0.0
 11
2667.0452569320551
 21
1053.318108956606
 31
0.0
  0
SOLID
  5
1FDA
  8
DIM
 10
2662.0452569320551
 20
858.73156029160668
 30
0.0
 11
2672.0452569320551
 21
858.73156029160668
 31
0.0
 12
2667.0452569320551
 22
828.73156029160646
 32
0.0
 13
2667.0452569320551
 23
828.73156029160646
 33
0.0
  0
SOLID
  5
1FDB
  8
DIM
 10
2662.0452569320551
 20
1023.318108956606
 30
0.0
 11
2672.0452569320551
 21
1023.318108956606
 31
0.0
 12
2667.0452569320551
 22
1053.318108956606
 32
0.0
 13
2667.0452569320551
 23
1053.318108956606
 33
0.0
  0
LINE
  5
2040
  8
DIM
 10
2795.0006297435611
 20
920.97937678765311
 30
0.0
 11
2814.8448085363661
 21
920.97937678765311
 31
0.0
  0
LINE
  5
2041
  8
DIM
 10
2795.0006297435611
 20
904.64282560447225
 30
0.0
 11
2795.0006297435611
 21
920.97937678765311
 31
0.0
  0
LINE
  5
2042
  8
DIM
 10
2758.1438380181371
 20
928.57777268680616
 30
0.0
 11
2795.0006297435611
 21
904.64282560447225
 31
0.0
  0
LINE
  5
2043
  8
DIM
 10
2814.8448085363661
 20
936.17616858596034
 30
0.0
 11
2814.8448085363661
 21
920.97937678765311
 31
0.0
  0
LINE
  5
2044
  8
DIM
 10
2795.0006297435611
 20
936.17616858596034
 30
0.0
 11
2814.8448085363661
 21
936.17616858596034
 31
0.0
  0
LINE
  5
2045
  8
DIM
 10
2795.0006297435611
 20
952.51271976914074
 30
0.0
 11
2795.0006297435611
 21
936.17616858596034
 31
0.0
  0
LINE
  5
2046
  8
DIM
 10
2758.1438380181371
 20
928.57777268680616
 30
0.0
 11
2795.0006297435611
 21
952.51271976914074
 31
0.0
  0
LINE
  5
211B
  8
DIM
 10
2827.4843302132772
 20
1180.318108956606
 30
0.0
 11
2827.4843302132772
 21
1231.229729717616
 31
0.0
  0
LINE
  5
211C
  8
DIM
 10
2934.4843302132758
 20
1102.318108956606
 30
0.0
 11
2934.4843302132758
 21
1231.229729717616
 31
0.0
  0
LINE
  5
211D
  8
DIM
 10
2857.4843302132758
 20
1231.0497297176159
 30
0.0
 11
2934.4843302132758
 21
1231.0497297176159
 31
0.0
  0
LINE
  5
211E
  8
DIM
 10
3039.4843302132772
 20
1231.0497297176159
 30
0.0
 11
3069.4843302132758
 21
1231.0497297176159
 31
0.0
  0
SOLID
  5
211F
  8
DIM
 10
2857.4843302132758
 20
1236.0497297176159
 30
0.0
 11
2857.4843302132758
 21
1226.049729717615
 31
0.0
 12
2827.4843302132772
 22
1231.0497297176159
 32
0.0
 13
2827.4843302132772
 23
1231.0497297176159
 33
0.0
  0
SOLID
  5
2120
  8
DIM
 10
3039.4843302132772
 20
1236.0497297176159
 30
0.0
 11
3039.4843302132772
 21
1226.049729717615
 31
0.0
 12
3009.4843302132758
 22
1231.0497297176159
 32
0.0
 13
3009.4843302132758
 23
1231.0497297176159
 33
0.0
  0
INSERT
  5
2121
  8
DIM
  6
CONTINUOUS
  2
*U3
 10
-234.61896049710049
 20
-68.334437341135285
 30
0.0
  0
LINE
  5
2122
  8
DIM
 10
2934.4843302132758
 20
1102.318108956606
 30
0.0
 11
2934.4843302132758
 21
1231.229729717616
 31
0.0
  0
LINE
  5
2123
  8
DIM
 10
3009.4843302132758
 20
1102.318108956606
 30
0.0
 11
3009.4843302132758
 21
1231.229729717616
 31
0.0
  0
LINE
  5
2124
  8
DIM
 10
3039.4843302132772
 20
1231.0497297176159
 30
0.0
 11
3054.4843302132758
 21
1231.0497297176159
 31
0.0
  0
INSERT
  5
2125
  8
DIM
  6
CONTINUOUS
  2
*U4
 10
-234.61896049710049
 20
-68.334437341135285
 30
0.0
  0
SOLID
  5
2126
  8
DIM
 10
3039.4843302132772
 20
1236.0497297176159
 30
0.0
 11
3039.4843302132772
 21
1226.049729717615
 31
0.0
 12
3009.4843302132758
 22
1231.0497297176159
 32
0.0
 13
3009.4843302132758
 23
1231.0497297176159
 33
0.0
  0
SOLID
  5
2128
  8
DIM
 10
2904.4843302132772
 20
1236.0497297176159
 30
0.0
 11
2904.4843302132772
 21
1226.049729717615
 31
0.0
 12
2934.4843302132758
 22
1231.0497297176159
 32
0.0
 13
2934.4843302132758
 23
1231.0497297176159
 33
0.0
  0
SOLID
  5
2129
  8
DIM
 10
2904.4843302132772
 20
1236.0497297176159
 30
0.0
 11
2904.4843302132772
 21
1226.049729717615
 31
0.0
 12
2934.4843302132758
 22
1231.0497297176159
 32
0.0
 13
2934.4843302132758
 23
1231.0497297176159
 33
0.0
  0
POINT
  5
46FE
  8
SPRING
  6
CONTINUOUS
 10
419.20813118868148
 20
1006.818108956607
 30
0.0
 50
180.0
  0
LINE
  5
46FF
  8
SPRING
  6
CONTINUOUS
 10
411.20813118868119
 20
1046.8181089566069
 30
0.0
 11
411.20813118868119
 21
986.81810895660783
 31
0.0
  0
LINE
  5
4700
  8
SPRING
  6
CONTINUOUS
 10
419.20813118868148
 20
1046.8181089566069
 30
0.0
 11
411.20813118868119
 21
1046.8181089566069
 31
0.0
  0
POINT
  5
4701
  8
SPRING
  6
CONTINUOUS
 10
419.20813118868148
 20
1036.818108956606
 30
0.0
 50
180.0
  0
ARC
  5
4702
  8
SPRING
  6
CONTINUOUS
 10
389.70813118868142
 20
973.81810895660794
 30
0.0
 40
3.0
 50
0.0
 51
90.0
  0
LINE
  5
4703
  8
SPRING
  6
CONTINUOUS
 10
374.20813118867989
 20
976.81810895660794
 30
0.0
 11
374.20813118867989
 21
969.81810895660635
 31
0.0
  0
ARC
  5
4704
  8
SPRING
  6
CONTINUOUS
 10
358.70813118868102
 20
973.81810895660794
 30
0.0
 40
3.0
 50
90.0
 51
180.0
  0
ARC
  5
4705
  8
SPRING
  6
CONTINUOUS
 10
409.20813118868159
 20
986.81810895660783
 30
0.0
 40
10.0
 50
270.0
 51
0.0
  0
LINE
  5
4706
  8
SPRING
  6
CONTINUOUS
 10
354.20813118868108
 20
984.81810895660794
 30
0.0
 11
354.20813118868108
 21
976.81810895660794
 31
0.0
  0
LINE
  5
4707
  8
SPRING
  6
CONTINUOUS
 10
409.20813118868159
 20
984.81810895660794
 30
0.0
 11
354.20813118868108
 21
984.81810895660794
 31
0.0
  0
LINE
  5
4708
  8
SPRING
  6
CONTINUOUS
 10
409.20813118868159
 20
976.81810895660794
 30
0.0
 11
354.20813118868108
 21
976.81810895660794
 31
0.0
  0
LINE
  5
4709
  8
SPRING
  6
CONTINUOUS
 10
358.70813118868102
 20
976.81810895660794
 30
0.0
 11
389.70813118868142
 21
976.81810895660794
 31
0.0
  0
ARC
  5
470A
  8
SPRING
  6
CONTINUOUS
 10
409.20813118868159
 20
986.81810895660783
 30
0.0
 40
2.0
 50
270.0
 51
0.0
  0
LINE
  5
470B
  8
SPRING
  6
CONTINUOUS
 10
392.70813118868108
 20
973.81810895660794
 30
0.0
 11
392.70813118868108
 21
969.81810895660635
 31
0.0
  0
LINE
  5
470C
  8
SPRING
  6
CONTINUOUS
 10
355.7081311886808
 20
973.81810895660794
 30
0.0
 11
355.7081311886808
 21
969.81810895660635
 31
0.0
  0
LINE
  5
470D
  8
SPRING
  6
CONTINUOUS
 10
392.70813118868108
 20
969.81810895660635
 30
0.0
 11
355.7081311886808
 21
969.81810895660635
 31
0.0
  0
LINE
  5
470E
  8
SPRING
  6
CONTINUOUS
 10
419.20813118868148
 20
986.81810895660783
 30
0.0
 11
419.20813118868148
 21
994.55785609658494
 31
0.0
  0
POINT
  5
471A
  8
SPRING
  6
CONTINUOUS
 10
2183.2081311886809
 20
1006.818108956607
 30
0.0
  0
LINE
  5
471B
  8
SPRING
  6
CONTINUOUS
 10
2191.20813118868
 20
1046.8181089566069
 30
0.0
 11
2191.20813118868
 21
986.81810895660783
 31
0.0
  0
LINE
  5
471C
  8
SPRING
  6
CONTINUOUS
 10
2183.2081311886809
 20
1046.8181089566069
 30
0.0
 11
2183.2081311886809
 21
986.81810895660783
 31
0.0
  0
LINE
  5
471D
  8
SPRING
  6
CONTINUOUS
 10
2183.2081311886809
 20
1046.8181089566069
 30
0.0
 11
2191.20813118868
 21
1046.8181089566069
 31
0.0
  0
POINT
  5
471E
  8
SPRING
  6
CONTINUOUS
 10
2183.2081311886809
 20
1036.818108956606
 30
0.0
  0
ARC
  5
471F
  8
SPRING
  6
CONTINUOUS
 10
2212.70813118868
 20
973.81810895660794
 30
0.0
 40
3.0
 50
90.0
 51
180.0
  0
LINE
  5
4720
  8
SPRING
  6
CONTINUOUS
 10
2228.2081311886809
 20
976.81810895660794
 30
0.0
 11
2228.2081311886809
 21
969.81810895660635
 31
0.0
  0
ARC
  5
4721
  8
SPRING
  6
CONTINUOUS
 10
2243.70813118868
 20
973.81810895660794
 30
0.0
 40
3.0
 50
0.0
 51
90.0
  0
ARC
  5
4722
  8
SPRING
  6
CONTINUOUS
 10
2193.2081311886818
 20
986.81810895660783
 30
0.0
 40
10.0
 50
180.0
 51
270.0
  0
LINE
  5
4723
  8
SPRING
  6
CONTINUOUS
 10
2248.2081311886809
 20
984.81810895660794
 30
0.0
 11
2248.2081311886809
 21
976.81810895660794
 31
0.0
  0
LINE
  5
4724
  8
SPRING
  6
CONTINUOUS
 10
2193.2081311886818
 20
984.81810895660794
 30
0.0
 11
2248.2081311886809
 21
984.81810895660794
 31
0.0
  0
LINE
  5
4725
  8
SPRING
  6
CONTINUOUS
 10
2193.2081311886818
 20
976.81810895660794
 30
0.0
 11
2248.2081311886809
 21
976.81810895660794
 31
0.0
  0
LINE
  5
4726
  8
SPRING
  6
CONTINUOUS
 10
2243.70813118868
 20
976.81810895660794
 30
0.0
 11
2212.70813118868
 21
976.81810895660794
 31
0.0
  0
ARC
  5
4727
  8
SPRING
  6
CONTINUOUS
 10
2193.2081311886818
 20
986.81810895660783
 30
0.0
 40
2.0
 50
180.0
 51
270.0
  0
LINE
  5
4728
  8
SPRING
  6
CONTINUOUS
 10
2209.70813118868
 20
973.81810895660794
 30
0.0
 11
2209.70813118868
 21
969.81810895660635
 31
0.0
  0
LINE
  5
4729
  8
SPRING
  6
CONTINUOUS
 10
2246.7081311886818
 20
973.81810895660794
 30
0.0
 11
2246.7081311886818
 21
969.81810895660635
 31
0.0
  0
LINE
  5
472A
  8
SPRING
  6
CONTINUOUS
 10
2209.70813118868
 20
969.81810895660635
 30
0.0
 11
2246.7081311886818
 21
969.81810895660635
 31
0.0
  0
ARC
  5
473E
  8
OUTLINE
 10
405.7081311886833
 20
2305.8977594309849
 30
0.0
 40
4.75
 50
180.0
 51
0.0
  0
ARC
  5
473F
  8
OUTLINE
 10
405.7081311886833
 20
2316.3977594309849
 30
0.0
 40
4.75
 50
0.0
 51
180.0
  0
LINE
  5
4740
  8
OUTLINE
 10
400.95813118868421
 20
2316.3977594309849
 30
0.0
 11
400.95813118868421
 21
2305.8977594309849
 31
0.0
  0
LINE
  5
4741
  8
OUTLINE
 10
410.45813118868432
 20
2316.3977594309849
 30
0.0
 11
410.45813118868432
 21
2305.8977594309849
 31
0.0
  0
ARC
  5
4743
  8
OUTLINE
 10
405.7081311886833
 20
1831.397759430984
 30
0.0
 40
4.75
 50
0.0
 51
180.0
  0
ARC
  5
4744
  8
OUTLINE
 10
405.7081311886833
 20
1820.8977594309849
 30
0.0
 40
4.75
 50
180.0
 51
0.0
  0
LINE
  5
4745
  8
OUTLINE
 10
400.95813118868421
 20
1820.8977594309849
 30
0.0
 11
400.95813118868421
 21
1831.397759430984
 31
0.0
  0
LINE
  5
4746
  8
OUTLINE
 10
410.45813118868432
 20
1820.8977594309849
 30
0.0
 11
410.45813118868432
 21
1831.397759430984
 31
0.0
  0
ARC
  5
4760
  8
OUTLINE
 10
2196.7081311886832
 20
1831.397759430984
 30
0.0
 40
4.75
 50
0.0
 51
180.0
  0
ARC
  5
4761
  8
OUTLINE
 10
2196.7081311886832
 20
1820.8977594309849
 30
0.0
 40
4.75
 50
180.0
 51
0.0
  0
LINE
  5
4762
  8
OUTLINE
 10
2201.4581311886832
 20
1820.8977594309849
 30
0.0
 11
2201.4581311886832
 21
1831.397759430984
 31
0.0
  0
LINE
  5
4763
  8
OUTLINE
 10
2191.9581311886832
 20
1820.8977594309849
 30
0.0
 11
2191.9581311886832
 21
1831.397759430984
 31
0.0
  0
ARC
  5
4765
  8
OUTLINE
 10
2196.7081311886832
 20
2305.8977594309849
 30
0.0
 40
4.75
 50
180.0
 51
0.0
  0
ARC
  5
4766
  8
OUTLINE
 10
2196.7081311886832
 20
2316.3977594309849
 30
0.0
 40
4.75
 50
0.0
 51
180.0
  0
LINE
  5
4767
  8
OUTLINE
 10
2201.4581311886832
 20
2316.3977594309849
 30
0.0
 11
2201.4581311886832
 21
2305.8977594309849
 31
0.0
  0
LINE
  5
4768
  8
OUTLINE
 10
2191.9581311886832
 20
2316.3977594309849
 30
0.0
 11
2191.9581311886832
 21
2305.8977594309849
 31
0.0
  0
LINE
  5
4799
  8
SPRING
  6
CONTINUOUS
 10
353.20813118868108
 20
1802.1477594309861
 30
0.0
 11
353.20813118868108
 21
1852.1477594309861
 31
0.0
  0
LINE
  5
479A
  8
SPRING
  6
CONTINUOUS
 10
353.20813118868108
 20
1804.6477594309861
 30
0.0
 11
418.20813118868159
 21
1804.6477594309861
 31
0.0
  0
LINE
  5
479B
  8
SPRING
  6
CONTINUOUS
 10
353.20813118868108
 20
1802.1477594309861
 30
0.0
 11
418.20813118868159
 21
1802.1477594309861
 31
0.0
  0
LINE
  5
479C
  8
SPRING
  6
CONTINUOUS
 10
353.20813118868108
 20
1852.1477594309861
 30
0.0
 11
392.2081311886817
 21
1852.1477594309861
 31
0.0
  0
LINE
  5
479D
  8
SPRING
  6
CONTINUOUS
 10
353.20813118868108
 20
1849.6477594309861
 30
0.0
 11
392.2081311886817
 21
1849.6477594309861
 31
0.0
  0
CIRCLE
  5
479E
  8
SPRING
  6
CONTINUOUS
 10
373.20813118868159
 20
1827.1477594309861
 30
0.0
 40
9.5
  0
LINE
  5
47A8
  8
SPRING
  6
CONTINUOUS
 10
353.20813118868108
 20
2287.1477594309872
 30
0.0
 11
353.20813118868108
 21
2337.1477594309881
 31
0.0
  0
CIRCLE
  5
47A9
  8
SPRING
  6
CONTINUOUS
 10
373.20813118868159
 20
2312.1477594309881
 30
0.0
 40
9.5
  0
LINE
  5
47AA
  8
SPRING
  6
CONTINUOUS
 10
353.20813118868108
 20
2289.6477594309872
 30
0.0
 11
392.2081311886817
 21
2289.6477594309872
 31
0.0
  0
LINE
  5
47AB
  8
SPRING
  6
CONTINUOUS
 10
353.20813118868108
 20
2287.1477594309872
 30
0.0
 11
392.2081311886817
 21
2287.1477594309872
 31
0.0
  0
LINE
  5
47AC
  8
SPRING
  6
CONTINUOUS
 10
353.20813118868108
 20
2337.1477594309881
 30
0.0
 11
418.20813118868159
 21
2337.1477594309881
 31
0.0
  0
LINE
  5
47AD
  8
SPRING
  6
CONTINUOUS
 10
353.20813118868108
 20
2334.6477594309881
 30
0.0
 11
418.20813118868159
 21
2334.6477594309881
 31
0.0
  0
LINE
  5
47B6
  8
SPRING
  6
CONTINUOUS
 10
2249.2081311886832
 20
1802.1477594309861
 30
0.0
 11
2249.2081311886832
 21
1852.1477594309861
 31
0.0
  0
LINE
  5
47B7
  8
SPRING
  6
CONTINUOUS
 10
2249.2081311886832
 20
1804.6477594309861
 30
0.0
 11
2210.2081311886832
 21
1804.6477594309861
 31
0.0
  0
LINE
  5
47B8
  8
SPRING
  6
CONTINUOUS
 10
2249.2081311886832
 20
1802.1477594309861
 30
0.0
 11
2181.2081311886841
 21
1802.1477594309861
 31
0.0
  0
LINE
  5
47B9
  8
SPRING
  6
CONTINUOUS
 10
2249.2081311886832
 20
1852.1477594309861
 30
0.0
 11
2210.2081311886832
 21
1852.1477594309861
 31
0.0
  0
LINE
  5
47BA
  8
SPRING
  6
CONTINUOUS
 10
2249.2081311886832
 20
1849.6477594309861
 30
0.0
 11
2210.2081311886832
 21
1849.6477594309861
 31
0.0
  0
CIRCLE
  5
47BB
  8
SPRING
  6
CONTINUOUS
 10
2229.2081311886818
 20
1827.1477594309861
 30
0.0
 40
9.5
  0
LINE
  5
47C4
  8
SPRING
  6
CONTINUOUS
 10
2249.2081311886832
 20
2287.1477594309872
 30
0.0
 11
2249.2081311886832
 21
2337.1477594309881
 31
0.0
  0
CIRCLE
  5
47C5
  8
SPRING
  6
CONTINUOUS
 10
2229.2081311886818
 20
2312.1477594309881
 30
0.0
 40
9.5
  0
LINE
  5
47C6
  8
SPRING
  6
CONTINUOUS
 10
2249.2081311886832
 20
2289.6477594309872
 30
0.0
 11
2210.2081311886832
 21
2289.6477594309872
 31
0.0
  0
LINE
  5
47C7
  8
SPRING
  6
CONTINUOUS
 10
2249.2081311886832
 20
2287.1477594309872
 30
0.0
 11
2210.2081311886832
 21
2287.1477594309872
 31
0.0
  0
LINE
  5
47C8
  8
SPRING
  6
CONTINUOUS
 10
2249.2081311886832
 20
2337.1477594309881
 30
0.0
 11
2181.2081311886841
 21
2337.1477594309881
 31
0.0
  0
LINE
  5
47C9
  8
SPRING
  6
CONTINUOUS
 10
2249.2081311886832
 20
2334.6477594309881
 30
0.0
 11
2210.2081311886832
 21
2334.6477594309881
 31
0.0
  0
LINE
  5
4826
  8
DIM
 62
    52
 10
407.7081311886833
 20
1170.3181089566069
 30
0.0
 11
407.7081311886833
 21
1254.3097692768461
 31
0.0
  0
LINE
  5
4827
  8
DIM
 62
    52
 10
2198.708131188685
 20
1170.3181089566069
 30
0.0
 11
2198.708131188685
 21
1254.3097692768461
 31
0.0
  0
LINE
  5
4828
  8
DIM
 62
    52
 10
437.70813118868392
 20
1234.3097692768461
 30
0.0
 11
1021.779559760114
 21
1234.3097692768461
 31
0.0
  0
LINE
  5
4829
  8
DIM
 62
    52
 10
2168.7081311886841
 20
1234.3097692768461
 30
0.0
 11
1434.6367026172541
 21
1234.3097692768461
 31
0.0
  0
SOLID
  5
482A
  8
DIM
 62
    52
 10
437.70813118868392
 20
1239.3097692768461
 30
0.0
 11
437.70813118868392
 21
1229.3097692768461
 31
0.0
 12
407.7081311886833
 22
1234.3097692768461
 32
0.0
 13
407.7081311886833
 23
1234.3097692768461
 33
0.0
  0
SOLID
  5
482B
  8
DIM
 62
    52
 10
2168.7081311886841
 20
1239.3097692768461
 30
0.0
 11
2168.7081311886841
 21
1229.3097692768461
 31
0.0
 12
2198.708131188685
 22
1234.3097692768461
 32
0.0
 13
2198.708131188685
 23
1234.3097692768461
 33
0.0
  0
LINE
  5
482D
  8
DIM
 62
    52
 10
375.20813118868159
 20
980.25066125787487
 30
0.0
 11
375.20813118868159
 21
1343.13798664304
 31
0.0
  0
LINE
  5
482E
  8
DIM
 62
    52
 10
2231.2081311886841
 20
980.25066125787487
 30
0.0
 11
2231.2081311886841
 21
1343.13798664304
 31
0.0
  0
LINE
  5
482F
  8
DIM
 62
    52
 10
405.20813118868108
 20
1323.1379866430379
 30
0.0
 11
816.38857210701099
 21
1323.1379866430379
 31
0.0
  0
LINE
  5
4830
  8
DIM
 62
    52
 10
2201.208131188685
 20
1323.1379866430379
 30
0.0
 11
1811.5822255151679
 21
1323.1379866430379
 31
0.0
  0
SOLID
  5
4831
  8
DIM
 62
    52
 10
405.20813118868108
 20
1328.1379866430379
 30
0.0
 11
405.20813118868108
 21
1318.1379866430379
 31
0.0
 12
375.20813118868159
 22
1323.1379866430379
 32
0.0
 13
375.20813118868159
 23
1323.1379866430379
 33
0.0
  0
SOLID
  5
4832
  8
DIM
 62
    52
 10
2201.208131188685
 20
1328.1379866430379
 30
0.0
 11
2201.208131188685
 21
1318.1379866430379
 31
0.0
 12
2231.2081311886841
 22
1323.1379866430379
 32
0.0
 13
2231.2081311886841
 23
1323.1379866430379
 33
0.0
  0
LINE
  5
483C
  8
DIM
 62
    52
 10
712.20813118868534
 20
1659.4751770566629
 30
0.0
 11
712.20813118868534
 21
1619.962075860597
 31
0.0
  0
LINE
  5
4842
  8
DIM
 62
    52
 10
712.20813118868534
 20
1659.475177056665
 30
0.0
 11
712.20813118868534
 21
1619.962075860597
 31
0.0
  0
LINE
  5
4854
  8
DIM
 62
    52
 10
374.20813118868392
 20
1170.3181089566069
 30
0.0
 11
292.42171209275762
 21
1170.3181089566069
 31
0.0
  0
LINE
  5
4855
  8
DIM
 62
    52
 10
334.2081311886808
 20
984.81810895660794
 30
0.0
 11
292.42171209275762
 21
984.81810895660794
 31
0.0
  0
LINE
  5
4856
  8
DIM
 62
    52
 10
312.42171209275767
 20
1200.3181089566069
 30
0.0
 11
312.42171209275767
 21
1230.318108956606
 31
0.0
  0
LINE
  5
4857
  8
DIM
 62
    52
 10
312.42171209275767
 20
954.81810895660749
 30
0.0
 11
312.42171209275767
 21
924.81810895660738
 31
0.0
  0
SOLID
  5
4858
  8
DIM
 62
    52
 10
307.42171209275779
 20
1200.3181089566069
 30
0.0
 11
317.42171209275762
 21
1200.3181089566069
 31
0.0
 12
312.42171209275767
 22
1170.3181089566069
 32
0.0
 13
312.42171209275767
 23
1170.3181089566069
 33
0.0
  0
SOLID
  5
4859
  8
DIM
 62
    52
 10
307.42171209275779
 20
954.81810895660749
 30
0.0
 11
317.42171209275762
 21
954.81810895660749
 31
0.0
 12
312.42171209275767
 22
984.81810895660794
 32
0.0
 13
312.42171209275767
 23
984.81810895660794
 33
0.0
  0
INSERT
  5
485A
  8
DIM
  6
CONTINUOUS
  2
*U5
 10
-745.35735343462193
 20
-40.951407700275468
 30
0.0
  0
LINE
  5
4B62
  8
DIM
  6
CONTINUOUS
 62
    52
 10
2251.208131188685
 20
1827.1477594309861
 30
0.0
 11
2370.4623336588152
 21
1827.1477594309861
 31
0.0
  0
LINE
  5
4B63
  8
DIM
  6
CONTINUOUS
 62
    52
 10
2251.208131188685
 20
2312.1477594309881
 30
0.0
 11
2370.4623336588152
 21
2312.1477594309881
 31
0.0
  0
LINE
  5
5215
  8
DIM
  6
CONTINUOUS
 10
2715.4843302132772
 20
828.73156029160646
 30
0.0
 11
2667.2035681378361
 21
828.73156029160646
 31
0.0
  0
LINE
  5
52A8
  8
OUTLINE
  6
CONTINUOUS
 10
421.20813118868421
 20
2336.6477594309872
 30
0.0
 11
421.20813118868421
 21
2362.6477594309881
 31
0.0
  0
LINE
  5
52A9
  8
OUTLINE
  6
CONTINUOUS
 10
423.20813118868369
 20
2362.6477594309881
 30
0.0
 11
2181.2081311886841
 21
2362.6477594309881
 31
0.0
  0
LINE
  5
52B8
  8
OUTLINE
  6
CONTINUOUS
 10
2181.2081311886841
 20
2362.6477594309881
 30
0.0
 11
2181.2081311886841
 21
2336.6477594309872
 31
0.0
  0
LINE
  5
52B9
  8
OUTLINE
  6
CONTINUOUS
 10
2181.2081311886841
 20
2336.6477594309872
 30
0.0
 11
2210.2081311886832
 21
2336.6477594309872
 31
0.0
  0
LINE
  5
52BA
  8
OUTLINE
  6
CONTINUOUS
 10
2210.2081311886832
 20
2336.6477594309872
 30
0.0
 11
2210.2081311886832
 21
1802.647759430987
 31
0.0
  0
LINE
  5
52BB
  8
OUTLINE
  6
CONTINUOUS
 10
2210.2081311886832
 20
1802.647759430987
 30
0.0
 11
2181.2081311886841
 21
1802.647759430987
 31
0.0
  0
LINE
  5
52BC
  8
OUTLINE
  6
CONTINUOUS
 10
2182.2081311886832
 20
1802.647759430987
 30
0.0
 11
2182.2081311886832
 21
2336.6477594309872
 31
0.0
  0
LINE
  5
52BD
  8
OUTLINE
  6
CONTINUOUS
 10
2181.2081311886841
 20
2336.6477594309872
 30
0.0
 11
421.20813118868421
 21
2336.6477594309872
 31
0.0
  0
LINE
  5
52BE
  8
OUTLINE
  6
CONTINUOUS
 10
456.95905554617792
 20
2362.6477594309881
 30
0.0
 11
456.95905554617792
 21
2382.6477594309881
 31
0.0
  0
LINE
  5
52BF
  8
OUTLINE
  6
CONTINUOUS
 10
456.95905554617792
 20
2382.6477594309881
 30
0.0
 11
1848.959055546183
 21
2382.6477594309772
 31
0.0
  0
LINE
  5
52C0
  8
OUTLINE
  6
CONTINUOUS
 10
1848.959055546183
 20
2382.6477594309772
 30
0.0
 11
1848.959055546183
 21
2362.6477594309881
 31
0.0
  0
LINE
  5
52C2
  8
OUTLINE
  6
CONTINUOUS
 10
421.20813118868421
 20
1802.647759430987
 30
0.0
 11
421.20813118868421
 21
1776.6477594309861
 31
0.0
  0
LINE
  5
52C3
  8
OUTLINE
  6
CONTINUOUS
 10
421.20813118868421
 20
1776.647759430987
 30
0.0
 11
2181.2081311886841
 21
1776.6477594309861
 31
0.0
  0
LINE
  5
52C4
  8
OUTLINE
  6
CONTINUOUS
 10
2181.2081311886841
 20
1776.6477594309861
 30
0.0
 11
2181.2081311886841
 21
1802.647759430987
 31
0.0
  0
LINE
  5
52C5
  8
OUTLINE
  6
CONTINUOUS
 10
420.20813118868432
 20
2336.6477594309872
 30
0.0
 11
392.20813118868398
 21
2336.6477594309872
 31
0.0
  0
LINE
  5
52C6
  8
OUTLINE
  6
CONTINUOUS
 10
392.20813118868398
 20
2336.6477594309872
 30
0.0
 11
392.20813118868398
 21
1802.647759430987
 31
0.0
  0
LINE
  5
52C7
  8
OUTLINE
  6
CONTINUOUS
 10
392.20813118868398
 20
1802.647759430987
 30
0.0
 11
419.20813118868352
 21
1802.647759430987
 31
0.0
  0
LINE
  5
52C9
  8
OUTLINE
  6
CONTINUOUS
 10
418.20813118862691
 20
1802.647759430987
 30
0.0
 11
2181.2081311886841
 21
1802.647759430987
 31
0.0
  0
LINE
  5
52CA
  8
OUTLINE
  6
CONTINUOUS
 10
712.20813118868386
 20
1776.6477594309861
 30
0.0
 11
712.20813118868534
 21
1684.6477594309861
 31
0.0
  0
LINE
  5
52CB
  8
OUTLINE
  6
CONTINUOUS
 10
712.20813118868534
 20
1684.6477594309861
 30
0.0
 11
1572.2081311886859
 21
1684.6477594309861
 31
0.0
  0
LINE
  5
52CD
  8
OUTLINE
  6
CONTINUOUS
 10
1821.092410658681
 20
1684.6477594309861
 30
0.0
 11
2136.6908746474601
 21
1684.6477594309861
 31
0.0
  0
LINE
  5
52D0
  8
OUTLINE
  6
CONTINUOUS
 10
394.20813118868381
 20
1161.318108956606
 30
0.0
 11
394.20813118868381
 21
1170.3181089566069
 31
0.0
  0
LINE
  5
52D1
  8
OUTLINE
  6
CONTINUOUS
 10
394.20813118868381
 20
1170.3181089566069
 30
0.0
 11
420.20813118868341
 21
1170.3181089566069
 31
0.0
  0
LINE
  5
52D2
  8
OUTLINE
  6
CONTINUOUS
 10
420.20813118868341
 20
1170.3181089566069
 30
0.0
 11
2182.20813118868
 21
1170.3181089566069
 31
0.0
  0
LINE
  5
52D3
  8
OUTLINE
  6
CONTINUOUS
 10
2182.20813118868
 20
1170.3181089566069
 30
0.0
 11
2208.2081311886809
 21
1170.3181089566069
 31
0.0
  0
LINE
  5
52D4
  8
OUTLINE
  6
CONTINUOUS
 10
2208.2081311886809
 20
1170.3181089566069
 30
0.0
 11
2208.2081311886809
 21
1161.318108956606
 31
0.0
  0
LINE
  5
52D5
  8
OUTLINE
  6
CONTINUOUS
 10
2182.20813118868
 20
1170.3181089566069
 30
0.0
 11
2182.20813118868
 21
681.31810895660681
 31
0.0
  0
LINE
  5
52D6
  8
OUTLINE
  6
CONTINUOUS
 10
2182.20813118868
 20
681.31810895660681
 30
0.0
 11
2207.2081311886891
 21
681.31810895660681
 31
0.0
  0
LINE
  5
52D7
  8
OUTLINE
  6
CONTINUOUS
 10
2207.2081311886891
 20
681.31810895660681
 30
0.0
 11
2207.2081311886891
 21
673.31810895660681
 31
0.0
  0
LINE
  5
52D8
  8
OUTLINE
  6
CONTINUOUS
 10
2182.20813118868
 20
681.31810895660681
 30
0.0
 11
2182.528379122567
 21
650.31810895660715
 31
0.0
  0
LINE
  5
52DA
  8
OUTLINE
  6
CONTINUOUS
 10
421.21846121603318
 20
649.31816230912591
 30
0.0
 11
421.21846121603318
 21
650.31810895660499
 31
0.0
  0
LINE
  5
52DB
  8
OUTLINE
  6
CONTINUOUS
 10
421.21846121603318
 20
643.31810895660681
 30
0.0
 11
401.20813118868159
 21
643.31810895660681
 31
0.0
  0
LINE
  5
52DC
  8
OUTLINE
  6
CONTINUOUS
 10
401.20813118868159
 20
643.31810895660681
 30
0.0
 11
401.20813118868159
 21
662.31810895660681
 31
0.0
  0
LINE
  5
52DD
  8
OUTLINE
  6
CONTINUOUS
 10
401.20813118868159
 20
662.31810895660681
 30
0.0
 11
421.20813118868301
 21
662.31810895660442
 31
0.0
  0
LINE
  5
52DE
  8
OUTLINE
  6
CONTINUOUS
 10
421.20813118868301
 20
669.31810895660226
 30
0.0
 11
421.20813118868341
 21
681.31810895660681
 31
0.0
  0
LINE
  5
52DF
  8
OUTLINE
  6
CONTINUOUS
 10
421.20813118868341
 20
681.31810895660681
 30
0.0
 11
395.2081311886833
 21
681.31810895660681
 31
0.0
  0
LINE
  5
52E0
  8
OUTLINE
  6
CONTINUOUS
 10
395.2081311886833
 20
681.31810895660681
 30
0.0
 11
395.2081311886833
 21
673.31810895660681
 31
0.0
  0
LINE
  5
52E1
  8
OUTLINE
  6
CONTINUOUS
 10
421.20813118868341
 20
673.31810895660681
 30
0.0
 11
2181.2081311886891
 21
673.31810895660851
 31
0.0
  0
LINE
  5
52E2
  8
OUTLINE
  6
CONTINUOUS
 10
2182.20813118868
 20
681.31810895660681
 30
0.0
 11
421.20813118868341
 21
681.31810895677722
 31
0.0
  0
LINE
  5
52E3
  8
OUTLINE
  6
CONTINUOUS
 10
421.20813118868301
 20
669.31810895660226
 30
0.0
 11
421.20813118868023
 21
642.31810895660715
 31
0.0
  0
LINE
  5
52E9
  8
OUTLINE
  6
CONTINUOUS
 10
2827.4843302132772
 20
1161.318108956606
 30
0.0
 11
2827.4843302132772
 21
1170.3181089566069
 31
0.0
  0
LINE
  5
52EA
  8
OUTLINE
  6
CONTINUOUS
 10
2827.4843302132772
 20
1170.3181089566069
 30
0.0
 11
2853.4843302132772
 21
1170.3181089566069
 31
0.0
  0
LINE
  5
52EB
  8
OUTLINE
  6
CONTINUOUS
 10
2853.4843302132772
 20
1170.3181089566069
 30
0.0
 11
2853.4843302132772
 21
681.3181089566076
 31
0.0
  0
LINE
  5
52EC
  8
OUTLINE
  6
CONTINUOUS
 10
2853.4843302132772
 20
681.3181089566076
 30
0.0
 11
2827.5343302132769
 21
681.3181089566076
 31
0.0
  0
LINE
  5
52ED
  8
OUTLINE
  6
CONTINUOUS
 10
2827.5343302132769
 20
681.3181089566076
 30
0.0
 11
2827.5343302132769
 21
673.31810895660794
 31
0.0
  0
LINE
  5
52EE
  8
OUTLINE
  6
CONTINUOUS
 10
2853.4843302132772
 20
681.3181089566076
 30
0.0
 11
2835.9130370499211
 21
681.3181089566076
 31
0.0
  0
LINE
  5
52EF
  8
OUTLINE
  6
CONTINUOUS
 10
2853.4843302132772
 20
681.3181089566076
 30
0.0
 11
2853.4843302132772
 21
642.31810895660715
 31
0.0
  0
LINE
  5
52F0
  8
OUTLINE
  6
CONTINUOUS
 10
2853.4843302132772
 20
650.31810895660749
 30
0.0
 11
3387.5343302132769
 21
650.31810895660715
 31
0.0
  0
LINE
  5
52F1
  8
OUTLINE
  6
CONTINUOUS
 10
3387.5343302132769
 20
642.31810895660715
 30
0.0
 11
3387.5343302132769
 21
681.3181089566076
 31
0.0
  0
LINE
  5
52F2
  8
OUTLINE
  6
CONTINUOUS
 10
3387.5343302132769
 20
681.3181089566076
 30
0.0
 11
3413.534330213276
 21
681.3181089566076
 31
0.0
  0
LINE
  5
52F3
  8
OUTLINE
  6
CONTINUOUS
 10
3413.534330213276
 20
681.3181089566076
 30
0.0
 11
3413.534330213276
 21
673.31810895660794
 31
0.0
  0
LINE
  5
52F5
  8
OUTLINE
  6
CONTINUOUS
 10
3413.534330213276
 20
681.3181089566076
 30
0.0
 11
3387.4843302132758
 21
681.3181089566076
 31
0.0
  0
LINE
  5
52F6
  8
OUTLINE
  6
CONTINUOUS
 10
3387.4843302132758
 20
681.3181089566076
 30
0.0
 11
3387.484330213274
 21
1170.3181089566069
 31
0.0
  0
LINE
  5
52F7
  8
OUTLINE
  6
CONTINUOUS
 10
3387.484330213274
 20
1170.3181089566069
 30
0.0
 11
3413.4843302132781
 21
1170.3181089566069
 31
0.0
  0
LINE
  5
52F8
  8
OUTLINE
  6
CONTINUOUS
 10
3413.4843302132781
 20
1170.3181089566069
 30
0.0
 11
3413.484330213274
 21
1161.318108956606
 31
0.0
  0
LINE
  5
52F9
  8
OUTLINE
  6
CONTINUOUS
 10
2854.4843302132758
 20
1170.3181089566069
 30
0.0
 11
3387.4843302132758
 21
1170.3181089566069
 31
0.0
  0
LINE
  5
52FA
  8
OUTLINE
  6
CONTINUOUS
 10
3387.4843302132758
 20
1062.418108956608
 30
0.0
 11
3437.4843302132781
 21
1062.418108956608
 31
0.0
  0
LINE
  5
52FB
  8
OUTLINE
  6
CONTINUOUS
 10
3437.4843302132781
 20
1062.418108956608
 30
0.0
 11
3437.4843302132781
 21
697.61810895660722
 31
0.0
  0
LINE
  5
52FC
  8
OUTLINE
  6
CONTINUOUS
 10
3437.4843302132781
 20
697.61810895660722
 30
0.0
 11
3387.4843302132758
 21
697.61810895660722
 31
0.0
  0
LINE
  5
52FF
  8
OUTLINE
  6
CONTINUOUS
 10
2735.4843302132772
 20
1039.202023371452
 30
0.0
 11
2853.4843302132772
 21
1039.202023371452
 31
0.0
  0
LINE
  5
5314
  8
OUTLINE
  6
CONTINUOUS
 10
420.20813118868341
 20
1170.3181089566069
 30
0.0
 11
420.20813118862878
 21
681.31810895677722
 31
0.0
  0
CIRCLE
  5
5331
  8
OUTLINE
 10
2878.9843302132781
 20
966.55785609658722
 30
0.0
 40
3.5
  0
LINE
  5
5332
  8
OUTLINE
  6
CONTINUOUS
 10
2853.9843302132781
 20
976.81810895660794
 30
0.0
 11
2903.9843302132758
 21
976.81810895660794
 31
0.0
  0
LINE
  5
5333
  8
OUTLINE
 10
2903.9843302132758
 20
976.81810895660794
 30
0.0
 11
2853.9843302132781
 21
976.81810895660794
 31
0.0
  0
LINE
  5
5334
  8
OUTLINE
 10
2901.4843302132772
 20
976.81810895660794
 30
0.0
 11
2901.4843302132772
 21
1046.8181089566069
 31
0.0
  0
LINE
  5
5335
  8
OUTLINE
 10
2903.9843302132758
 20
976.81810895660794
 30
0.0
 11
2903.9843302132758
 21
1046.8181089566069
 31
0.0
  0
LINE
  5
5336
  8
OUTLINE
 10
2853.9843302132781
 20
976.81810895660794
 30
0.0
 11
2853.9843302132781
 21
1046.8181089566069
 31
0.0
  0
LINE
  5
5337
  8
OUTLINE
 10
2856.4843302132772
 20
976.81810895660794
 30
0.0
 11
2856.4843302132772
 21
1046.8181089566069
 31
0.0
  0
LINE
  5
5338
  8
OUTLINE
  6
CONTINUOUS
 10
2853.9843302132781
 20
1046.8181089566069
 30
0.0
 11
2903.9843302132758
 21
1046.8181089566069
 31
0.0
  0
LINE
  5
5339
  8
OUTLINE
 10
2878.9843302132781
 20
976.81810895660794
 30
0.0
 11
2878.9843302132781
 21
969.81810895660783
 31
0.0
  0
LINE
  5
533A
  8
OUTLINE
 10
2860.4843302132772
 20
973.81810895660863
 30
0.0
 11
2860.4843302132772
 21
969.81810895660783
 31
0.0
  0
LINE
  5
533B
  8
OUTLINE
 10
2897.4843302132772
 20
973.81810895660863
 30
0.0
 11
2897.4843302132772
 21
969.81810895660783
 31
0.0
  0
LINE
  5
533C
  8
OUTLINE
 10
2860.4843302132772
 20
969.81810895660783
 30
0.0
 11
2897.4843302132772
 21
969.81810895660783
 31
0.0
  0
CIRCLE
  5
533D
  8
OUTLINE
 10
3363.9843302132758
 20
966.55785609658722
 30
0.0
 40
3.5
  0
LINE
  5
533E
  8
OUTLINE
  6
CONTINUOUS
 10
3388.9843302132758
 20
976.81810895660794
 30
0.0
 11
3338.9843302132758
 21
976.81810895660794
 31
0.0
  0
LINE
  5
533F
  8
OUTLINE
 10
3338.9843302132758
 20
976.81810895660794
 30
0.0
 11
3388.9843302132758
 21
976.81810895660794
 31
0.0
  0
LINE
  5
5340
  8
OUTLINE
 10
3341.4843302132772
 20
976.81810895660794
 30
0.0
 11
3341.4843302132772
 21
1046.8181089566069
 31
0.0
  0
LINE
  5
5341
  8
OUTLINE
 10
3338.9843302132758
 20
976.81810895660794
 30
0.0
 11
3338.9843302132758
 21
1046.8181089566069
 31
0.0
  0
LINE
  5
5342
  8
OUTLINE
 10
3388.9843302132758
 20
976.81810895660794
 30
0.0
 11
3388.9843302132758
 21
1046.8181089566069
 31
0.0
  0
LINE
  5
5343
  8
OUTLINE
 10
3386.4843302132758
 20
976.81810895660794
 30
0.0
 11
3386.4843302132758
 21
1046.8181089566069
 31
0.0
  0
LINE
  5
5344
  8
OUTLINE
  6
CONTINUOUS
 10
3388.9843302132758
 20
1046.8181089566069
 30
0.0
 11
3338.9843302132758
 21
1046.8181089566069
 31
0.0
  0
LINE
  5
5345
  8
OUTLINE
 10
3363.9843302132758
 20
976.81810895660794
 30
0.0
 11
3363.9843302132758
 21
969.81810895660783
 31
0.0
  0
LINE
  5
5346
  8
OUTLINE
 10
3382.4843302132758
 20
973.81810895660863
 30
0.0
 11
3382.4843302132758
 21
969.81810895660783
 31
0.0
  0
LINE
  5
5347
  8
OUTLINE
 10
3345.4843302132772
 20
973.81810895660863
 30
0.0
 11
3345.4843302132772
 21
969.81810895660783
 31
0.0
  0
LINE
  5
5348
  8
OUTLINE
 10
3382.4843302132758
 20
969.81810895660783
 30
0.0
 11
3345.4843302132772
 21
969.81810895660783
 31
0.0
  0
CIRCLE
  5
7FAC
  8
OUTLINE
 10
3009.4843302132758
 20
1102.318108956606
 30
0.0
 40
21.5
  0
CIRCLE
  5
7FAD
  8
OUTLINE
 10
2934.4843302132781
 20
1102.318108956606
 30
0.0
 40
21.5
  0
LINE
  5
7FB7
  8
DIM
  6
CONTINUOUS
 10
594.20813118868421
 20
1684.6477594309861
 30
0.0
 11
240.06105102675559
 21
1684.6477594309861
 31
0.0
  0
LINE
  5
7FB8
  8
DIM
  6
CONTINUOUS
 10
446.95905554617758
 20
2382.6477594309881
 30
0.0
 11
240.06105102675591
 21
2382.647759430989
 31
0.0
  0
LINE
  5
7FB9
  8
DIM
  6
CONTINUOUS
 10
262.76031951327559
 20
1714.6477594309861
 30
0.0
 11
262.76031951327559
 21
1933.6477594309861
 31
0.0
  0
LINE
  5
7FBA
  8
DIM
  6
CONTINUOUS
 10
262.76031951327559
 20
2352.6477594309872
 30
0.0
 11
262.76031951327559
 21
2133.6477594309881
 31
0.0
  0
SOLID
  5
7FBB
  8
DIM
  6
CONTINUOUS
 10
257.76031951327559
 20
1714.6477594309861
 30
0.0
 11
267.7603195132757
 21
1714.6477594309861
 31
0.0
 12
262.76031951327559
 22
1684.6477594309861
 32
0.0
 13
262.76031951327559
 23
1684.6477594309861
 33
0.0
  0
SOLID
  5
7FBC
  8
DIM
  6
CONTINUOUS
 10
257.76031951327559
 20
2352.6477594309872
 30
0.0
 11
267.7603195132757
 21
2352.6477594309872
 31
0.0
 12
262.76031951327559
 22
2382.647759430989
 32
0.0
 13
262.76031951327559
 23
2382.647759430989
 33
0.0
  0
INSERT
  5
7FBD
  8
DIM
  6
CONTINUOUS
  2
*U7
 10
-385.208152896961
 20
135.20950314296621
 30
0.0
  0
LINE
  5
7FC8
  8
DIM
 10
3130.5847074818221
 20
897.72818422685145
 30
0.0
 11
3150.4288862746248
 21
897.72818422685145
 31
0.0
  0
LINE
  5
7FC9
  8
DIM
 10
3130.5847074818221
 20
881.39163304366923
 30
0.0
 11
3130.5847074818221
 21
897.72818422685145
 31
0.0
  0
LINE
  5
7FCA
  8
DIM
 10
3093.7279157563971
 20
905.32658012600405
 30
0.0
 11
3130.5847074818221
 21
881.39163304366923
 31
0.0
  0
LINE
  5
7FCB
  8
DIM
 10
3150.4288862746248
 20
912.92497602515868
 30
0.0
 11
3150.4288862746248
 21
897.72818422685145
 31
0.0
  0
LINE
  5
7FCC
  8
DIM
 10
3130.5847074818221
 20
912.92497602515868
 30
0.0
 11
3150.4288862746248
 21
912.92497602515868
 31
0.0
  0
LINE
  5
7FCD
  8
DIM
 10
3130.5847074818221
 20
929.26152720833829
 30
0.0
 11
3130.5847074818221
 21
912.92497602515868
 31
0.0
  0
LINE
  5
7FCE
  8
DIM
 10
3093.7279157563971
 20
905.32658012600405
 30
0.0
 11
3130.5847074818221
 21
929.26152720833829
 31
0.0
  0
TEXT
  5
7FE1
  8
DIM
  6
CONTINUOUS
 10
3535.7115078185529
 20
1083.6730511933861
 30
0.0
 40
30.0
  1
107
 50
90.0
  7
TITLE3
  0
LINE
  5
7FE4
  8
DIM
  6
CONTINUOUS
 10
3019.4843302132772
 20
1102.318108956606
 30
0.0
 11
3110.0833382401061
 21
1102.318108956606
 31
0.0
  0
LINE
  5
7FE5
  8
DIM
  6
CONTINUOUS
 10
3019.4843302132772
 20
1170.3181089566069
 30
0.0
 11
3110.0833382401061
 21
1170.3181089566069
 31
0.0
  0
LINE
  5
7FE6
  8
DIM
  6
CONTINUOUS
 10
3109.9033382401021
 20
1072.318108956606
 30
0.0
 11
3109.9033382401021
 21
1042.318108956606
 31
0.0
  0
LINE
  5
7FE7
  8
DIM
  6
CONTINUOUS
 10
3109.9033382401021
 20
1200.3181089566069
 30
0.0
 11
3109.9033382401021
 21
1230.318108956606
 31
0.0
  0
SOLID
  5
7FE8
  8
DIM
  6
CONTINUOUS
 10
3104.903338240103
 20
1072.318108956606
 30
0.0
 11
3114.903338240103
 21
1072.318108956606
 31
0.0
 12
3109.9033382401021
 22
1102.318108956606
 32
0.0
 13
3109.9033382401021
 23
1102.318108956606
 33
0.0
  0
SOLID
  5
7FE9
  8
DIM
  6
CONTINUOUS
 10
3104.903338240103
 20
1200.3181089566069
 30
0.0
 11
3114.903338240103
 21
1200.3181089566069
 31
0.0
 12
3109.9033382401021
 22
1170.3181089566069
 32
0.0
 13
3109.9033382401021
 23
1170.3181089566069
 33
0.0
  0
TEXT
  5
7FEC
  8
DIM
  6
CONTINUOUS
 62
    50
 10
842.87607777592541
 20
1313.13798664304
 30
0.0
 40
30.0
  1
1856 OPTIONAL SPRING MTG. CTRS
  7
TITLE3
  0
LINE
  5
7FEE
  8
DIM
 10
1368.294140874988
 20
1881.482949791319
 30
0.0
 11
1368.294140874988
 21
1901.327128584122
 31
0.0
  0
LINE
  5
7FEF
  8
DIM
 10
1384.6306920581701
 20
1881.482949791319
 30
0.0
 11
1368.294140874988
 21
1881.482949791319
 31
0.0
  0
LINE
  5
7FF0
  8
DIM
 10
1360.6957449758361
 20
1844.626158065892
 30
0.0
 11
1384.6306920581701
 21
1881.482949791319
 31
0.0
  0
LINE
  5
7FF1
  8
DIM
 10
1353.097349076681
 20
1901.327128584122
 30
0.0
 11
1368.294140874988
 21
1901.327128584122
 31
0.0
  0
LINE
  5
7FF2
  8
DIM
 10
1353.097349076681
 20
1881.482949791319
 30
0.0
 11
1353.097349076681
 21
1901.327128584122
 31
0.0
  0
LINE
  5
7FF3
  8
DIM
 10
1336.7607978935009
 20
1881.482949791319
 30
0.0
 11
1353.097349076681
 21
1881.482949791319
 31
0.0
  0
LINE
  5
7FF4
  8
DIM
 10
1360.6957449758361
 20
1844.626158065892
 30
0.0
 11
1336.7607978935009
 21
1881.482949791319
 31
0.0
  0
LINE
  5
7FF5
  8
DIM
 10
802.72158328531964
 20
1881.482949791319
 30
0.0
 11
802.72158328531964
 21
1901.327128584122
 31
0.0
  0
LINE
  5
7FF6
  8
DIM
 10
819.05813446850016
 20
1881.482949791319
 30
0.0
 11
802.72158328531964
 21
1881.482949791319
 31
0.0
  0
LINE
  5
7FF7
  8
DIM
 10
795.12318738616625
 20
1844.626158065892
 30
0.0
 11
819.05813446850016
 21
1881.482949791319
 31
0.0
  0
LINE
  5
7FF8
  8
DIM
 10
787.52479148701161
 20
1901.327128584122
 30
0.0
 11
802.72158328531964
 21
1901.327128584122
 31
0.0
  0
LINE
  5
7FF9
  8
DIM
 10
787.52479148701161
 20
1881.482949791319
 30
0.0
 11
787.52479148701161
 21
1901.327128584122
 31
0.0
  0
LINE
  5
7FFA
  8
DIM
 10
771.18824030383155
 20
1881.482949791319
 30
0.0
 11
787.52479148701161
 21
1881.482949791319
 31
0.0
  0
LINE
  5
7FFB
  8
DIM
 10
795.12318738616625
 20
1844.626158065892
 30
0.0
 11
771.18824030383155
 21
1881.482949791319
 31
0.0
  0
INSERT
  5
8022
  8
TEXT
  2
NEW_BLOCK
 10
305.87059862929749
 20
80.456903576654113
 30
0.0
 41
0.8399999999996906
 42
0.8400000000001455
 43
0.84
  0
TEXT
  5
8023
  8
TEXT
 10
2698.6981390053902
 20
348.4363829409304
 30
0.0
 40
50.0
  1
temperzone HWP 225
  7
TITLE5
 72
     1
 11
3108.2219485291989
 21
348.4363829409304
 31
0.0
  0
TEXT
  5
8024
  8
TEXT
 10
3207.461112741003
 20
157.46336081180019
 30
0.0
 40
30.0
  1
HWP 225
 41
1.32474881745019
  7
TITLE3
 72
     5
 11
3472.4108762310411
 21
157.46336081180019
 31
0.0
  0
TEXT
  5
8030
  8
TEXT
 10
2714.5390906198531
 20
204.82773366023031
 30
0.0
 40
25.0
  1
08.05.08
 41
1.0029850746268649
  7
TITLE3
 72
     5
 11
2874.5390906198531
 21
204.82773366023031
 31
0.0
  0
TEXT
  5
8031
  8
TEXT
 10
2764.8790347331278
 20
142.32634639303981
 30
0.0
 40
25.0
  1
1:10
  7
TITLE3
  0
LINE
  5
8032
  8
OUTLINE
  6
CONTINUOUS
 10
2853.4843302132772
 20
681.3181089566076
 30
0.0
 11
3387.5343302132769
 21
681.3181089566076
 31
0.0
  0
LINE
  5
8033
  8
OUTLINE
  6
CONTINUOUS
 10
2853.4843302132772
 20
673.31810895660794
 30
0.0
 11
3387.5343302132769
 21
673.31810895660794
 31
0.0
  0
LINE
  5
8352
  8
DIM
  6
CONTINUOUS
 10
2193.2081311886859
 20
1776.6477594309861
 30
0.0
 11
2427.6921570452032
 21
1776.6477594309861
 31
0.0
  0
LINE
  5
8353
  8
DIM
  6
CONTINUOUS
 10
2193.2081311886859
 20
2362.6477594309881
 30
0.0
 11
2427.6921570452032
 21
2362.6477594309881
 31
0.0
  0
LINE
  5
863E
  8
OUTLINE
  6
CONTINUOUS
 10
2735.4843302132772
 20
721.20202337145236
 30
0.0
 11
2853.4843302132772
 21
721.20202337145236
 31
0.0
  0
LINE
  5
8642
  8
OUTLINE
  6
CONTINUOUS
 10
1821.092410658681
 20
722.70165218055433
 30
0.0
 11
2136.6908746474592
 21
722.70165218055433
 31
0.0
  0
LINE
  5
8643
  8
OUTLINE
  6
CONTINUOUS
 10
2136.6908746474592
 20
722.70165218055433
 30
0.0
 11
2136.6908746474592
 21
1040.701652180554
 31
0.0
  0
LINE
  5
8644
  8
OUTLINE
  6
CONTINUOUS
 10
2136.6908746474592
 20
1040.701652180554
 30
0.0
 11
1821.092410658681
 21
1040.701652180554
 31
0.0
  0
LINE
  5
8645
  8
OUTLINE
  6
CONTINUOUS
 10
1821.092410658681
 20
1040.701652180554
 30
0.0
 11
1821.092410658681
 21
722.70165218055433
 31
0.0
  0
LINE
  5
8648
  8
OUTLINE
  6
HIDDEN
 10
2853.4843302132772
 20
829.31810895660738
 30
0.0
 11
2735.4843302132772
 21
829.31810895660738
 31
0.0
  0
LINE
  5
8649
  8
OUTLINE
  6
CONTINUOUS
 10
2735.4843302132772
 20
1053.3181089566069
 30
0.0
 11
2735.4843302132772
 21
721.20202337145236
 31
0.0
  0
TEXT
  5
8651
  8
DIM
  6
CONTINUOUS
 10
2646.6505545446671
 20
901.73912033839213
 30
0.0
 40
30.0
  1
224
 50
90.0
  7
TITLE3
  0
LINE
  5
865C
  8
DIM
  6
CONTINUOUS
 10
2725.4843302132772
 20
1053.3181089566069
 30
0.0
 11
2666.2509838459118
 21
1053.3181089566069
 31
0.0
  0
LINE
  5
865D
  8
DIM
  6
CONTINUOUS
 10
2817.4843302132772
 20
1170.3181089566069
 30
0.0
 11
2666.2509838459118
 21
1170.3181089566069
 31
0.0
  0
LINE
  5
8663
  8
DIM
  6
CONTINUOUS
 10
2817.5343302132769
 20
681.3181089566076
 30
0.0
 11
2565.4201464716521
 21
681.3181089566076
 31
0.0
  0
LINE
  5
8664
  8
DIM
  6
CONTINUOUS
 10
2817.5343302132769
 20
1170.3181089566069
 30
0.0
 11
2565.4201464716521
 21
1170.3181089566069
 31
0.0
  0
LINE
  5
8665
  8
DIM
  6
CONTINUOUS
 10
2565.6001464716519
 20
711.31810895660772
 30
0.0
 11
2565.6001464716519
 21
871.24668038517871
 31
0.0
  0
LINE
  5
8666
  8
DIM
  6
CONTINUOUS
 10
2565.6001464716519
 20
1140.3181089566069
 30
0.0
 11
2565.6001464716519
 21
958.38953752803604
 31
0.0
  0
SOLID
  5
8667
  8
DIM
  6
CONTINUOUS
 10
2560.6001464716519
 20
711.31810895660772
 30
0.0
 11
2570.600146471651
 21
711.31810895660772
 31
0.0
 12
2565.6001464716519
 22
681.3181089566076
 32
0.0
 13
2565.6001464716519
 23
681.3181089566076
 33
0.0
  0
SOLID
  5
8668
  8
DIM
  6
CONTINUOUS
 10
2560.6001464716519
 20
1140.3181089566069
 30
0.0
 11
2570.6001464716519
 21
1140.3181089566069
 31
0.0
 12
2565.6001464716519
 22
1170.3181089566069
 32
0.0
 13
2565.6001464716519
 23
1170.3181089566069
 33
0.0
  0
LINE
  5
8670
  8
OUTLINE
  6
CONTINUOUS
 10
712.20813118868534
 20
829.69483462261144
 30
0.0
 11
1572.022268328682
 21
829.69483462261144
 31
0.0
  0
LINE
  5
8671
  8
OUTLINE
  6
CONTINUOUS
 10
1572.022268328682
 20
829.69483462261144
 30
0.0
 11
1572.022268328682
 21
1053.3181089566069
 31
0.0
  0
LINE
  5
8672
  8
OUTLINE
  6
CONTINUOUS
 10
1572.022268328682
 20
1053.3181089566069
 30
0.0
 11
712.20813118868534
 21
1053.3181089566069
 31
0.0
  0
LINE
  5
8673
  8
OUTLINE
  6
CONTINUOUS
 10
712.20813118868534
 20
1053.3181089566069
 30
0.0
 11
712.20813118868534
 21
829.69483462261144
 31
0.0
  0
LINE
  5
8676
  8
DIM
  6
CONTINUOUS
 10
2241.2081311886841
 20
1827.1477594309861
 30
0.0
 11
2328.0095138876968
 21
1827.1477594309861
 31
0.0
  0
LINE
  5
8677
  8
DIM
  6
CONTINUOUS
 10
2241.2081311886841
 20
2312.1477594309881
 30
0.0
 11
2328.0095138876968
 21
2312.1477594309881
 31
0.0
  0
LINE
  5
8678
  8
DIM
  6
CONTINUOUS
 10
2327.8295138876988
 20
1857.1477594309861
 30
0.0
 11
2327.8295138876988
 21
2312.1477594309881
 31
0.0
  0
SOLID
  5
867A
  8
DIM
  6
CONTINUOUS
 10
2322.829513887697
 20
1857.1477594309861
 30
0.0
 11
2332.829513887697
 21
1857.1477594309861
 31
0.0
 12
2327.8295138876988
 22
1827.1477594309861
 32
0.0
 13
2327.8295138876988
 23
1827.1477594309861
 33
0.0
  0
SOLID
  5
867B
  8
DIM
  6
CONTINUOUS
 10
2322.829513887697
 20
2282.1477594309872
 30
0.0
 11
2332.829513887697
 21
2282.1477594309872
 31
0.0
 12
2327.8295138876988
 22
2312.1477594309881
 32
0.0
 13
2327.8295138876988
 23
2312.1477594309881
 33
0.0
  0
INSERT
  5
867C
  8
DIM
  6
CONTINUOUS
  2
*U8
 10
-137.13111178695181
 20
135.20950314296621
 30
0.0
  0
LINE
  5
867D
  8
DIM
  6
CONTINUOUS
 10
2413.294219489163
 20
1776.6477594309861
 30
0.0
 11
2410.4616914765779
 21
1776.6477594309861
 31
0.0
  0
LINE
  5
867E
  8
DIM
  6
CONTINUOUS
 10
2413.294219489163
 20
2362.6477594309881
 30
0.0
 11
2410.4616914765779
 21
2362.6477594309881
 31
0.0
  0
LINE
  5
867F
  8
DIM
  6
CONTINUOUS
 10
2410.2816914765772
 20
1806.6477594309861
 30
0.0
 11
2410.2816914765781
 21
2362.6477594309881
 31
0.0
  0
SOLID
  5
8681
  8
DIM
  6
CONTINUOUS
 10
2405.281691476579
 20
1806.6477594309861
 30
0.0
 11
2415.2816914765772
 21
1806.6477594309861
 31
0.0
 12
2410.2816914765772
 22
1776.6477594309861
 32
0.0
 13
2410.2816914765772
 23
1776.6477594309861
 33
0.0
  0
SOLID
  5
8682
  8
DIM
  6
CONTINUOUS
 10
2405.281691476579
 20
2332.6477594309872
 30
0.0
 11
2415.2816914765772
 21
2332.6477594309872
 31
0.0
 12
2410.2816914765772
 22
2362.6477594309881
 32
0.0
 13
2410.2816914765772
 23
2362.6477594309881
 33
0.0
  0
INSERT
  5
8683
  8
DIM
  6
CONTINUOUS
  2
*U9
 10
-137.13111178695181
 20
135.20950314296621
 30
0.0
  0
LINE
  5
86A5
  8
OUTLINE
  6
CONTINUOUS
 10
421.20813118868023
 20
642.31810895660715
 30
0.0
 11
2182.528379122567
 21
650.31810895660715
 31
0.0
  0
LINE
  5
86A6
  8
DIM
  6
CONTINUOUS
 10
364.20813118868392
 20
1170.3181089566069
 30
0.0
 11
238.0184530912465
 21
1170.3181089566069
 31
0.0
  0
LINE
  5
86A7
  8
DIM
  6
CONTINUOUS
 10
391.20813118868159
 20
643.31810895660681
 30
0.0
 11
238.0184530912465
 21
643.31810895660692
 31
0.0
  0
LINE
  5
86A8
  8
DIM
  6
CONTINUOUS
 10
238.19845309124651
 20
1140.3181089566069
 30
0.0
 11
238.19845309124651
 21
938.67525181375049
 31
0.0
  0
LINE
  5
86A9
  8
DIM
  6
CONTINUOUS
 10
238.19845309124651
 20
673.31810895660681
 30
0.0
 11
238.19845309124651
 21
852.96096609946369
 31
0.0
  0
SOLID
  5
86AA
  8
DIM
  6
CONTINUOUS
 10
233.19845309124679
 20
1140.3181089566069
 30
0.0
 11
243.19845309124679
 21
1140.3181089566069
 31
0.0
 12
238.19845309124651
 22
1170.3181089566069
 32
0.0
 13
238.19845309124651
 23
1170.3181089566069
 33
0.0
  0
SOLID
  5
86AB
  8
DIM
  6
CONTINUOUS
 10
233.19845309124679
 20
673.31810895660681
 30
0.0
 11
243.19845309124679
 21
673.31810895660681
 31
0.0
 12
238.19845309124651
 22
643.31810895660692
 32
0.0
 13
238.19845309124651
 23
643.31810895660692
 33
0.0
  0
LINE
  5
86AD
  8
DIM
  6
CONTINUOUS
 10
2218.20813118868
 20
1170.3181089566069
 30
0.0
 11
2295.2392072302091
 21
1170.3181089566069
 31
0.0
  0
LINE
  5
86AE
  8
DIM
  6
CONTINUOUS
 10
2192.528379122567
 20
650.31810895660715
 30
0.0
 11
2295.2392072302082
 21
650.31810895660715
 31
0.0
  0
LINE
  5
86AF
  8
DIM
  6
CONTINUOUS
 10
2295.0592072302088
 20
1140.3181089566069
 30
0.0
 11
2295.059207230207
 21
942.88953752803525
 31
0.0
  0
LINE
  5
86B0
  8
DIM
  6
CONTINUOUS
 10
2295.059207230207
 20
680.31810895660726
 30
0.0
 11
2295.059207230207
 21
855.74668038517905
 31
0.0
  0
SOLID
  5
86B1
  8
DIM
  6
CONTINUOUS
 10
2290.0592072302088
 20
1140.3181089566069
 30
0.0
 11
2300.0592072302102
 21
1140.3181089566069
 31
0.0
 12
2295.0592072302088
 22
1170.3181089566069
 32
0.0
 13
2295.0592072302088
 23
1170.3181089566069
 33
0.0
  0
SOLID
  5
86B2
  8
DIM
  6
CONTINUOUS
 10
2290.059207230207
 20
680.31810895660726
 30
0.0
 11
2300.0592072302079
 21
680.31810895660726
 31
0.0
 12
2295.059207230207
 22
650.31810895660715
 32
0.0
 13
2295.059207230207
 23
650.31810895660715
 33
0.0
  0
LINE
  5
86B4
  8
OUTLINE
  6
CONTINUOUS
 10
2853.4843302132772
 20
642.31810895660715
 30
0.0
 11
3387.5343302132769
 21
642.31810895660715
 31
0.0
  0
LINE
  5
88D0
  8
OUTLINE
  6
CONTINUOUS
 10
418.20813118868938
 20
2337.1477594309881
 30
0.0
 11
418.20813118862691
 21
1802.647759430987
 31
0.0
  0
LINE
  5
88F2
  8
DIM
  6
CONTINUOUS
 10
418.20813118868938
 20
2347.1477594309881
 30
0.0
 11
418.20813118868938
 21
2440.8513600956012
 31
0.0
  0
LINE
  5
88F3
  8
DIM
  6
CONTINUOUS
 10
456.95905554617792
 20
2392.6477594309881
 30
0.0
 11
456.95905554617792
 21
2440.8513600956012
 31
0.0
  0
LINE
  5
88F4
  8
DIM
  6
CONTINUOUS
 10
388.20813118868932
 20
2430.285443567177
 30
0.0
 11
358.20813118868909
 21
2430.285443567177
 31
0.0
  0
SOLID
  5
88F6
  8
DIM
  6
CONTINUOUS
 10
388.20813118868932
 20
2435.285443567177
 30
0.0
 11
388.20813118868932
 21
2425.2854435671779
 31
0.0
 12
418.20813118868938
 22
2430.285443567177
 32
0.0
 13
418.20813118868938
 23
2430.285443567177
 33
0.0
  0
INSERT
  5
88F8
  8
DIM
  6
CONTINUOUS
  2
*U10
 10
-441.50631864058221
 20
49.330330342771937
 30
0.0
  0
LINE
  5
88F9
  8
DIM
  6
CONTINUOUS
 10
456.95905554617792
 20
2392.6477594309881
 30
0.0
 11
456.95905554617792
 21
2440.8513600956012
 31
0.0
  0
LINE
  5
88FA
  8
DIM
  6
CONTINUOUS
 10
1848.959055546183
 20
2392.6477594309758
 30
0.0
 11
1848.959055546183
 21
2440.8513600956012
 31
0.0
  0
LINE
  5
8915
  8
DIM
  6
CONTINUOUS
 10
1848.959055546183
 20
2392.6477594309758
 30
0.0
 11
1848.959055546183
 21
2440.8513600956012
 31
0.0
  0
POINT
  5
891D
  8
DIM
  6
CONTINUOUS
 10
2198.708131188685
 20
1170.3181089566069
 30
0.0
  0
POINT
  5
891E
  8
DIM
  6
CONTINUOUS
 10
407.7081311886833
 20
1170.3181089566069
 30
0.0
  0
LINE
  5
8BF4
  8
OVERLAY-A3
 10
134.09117925244391
 20
81.219636710357932
 30
0.0
 11
3690.894915655464
 21
81.219636710357932
 31
0.0
  0
LINE
  5
8BF5
  8
OVERLAY-A3
 10
3690.894915655464
 20
81.219636710357932
 30
0.0
 11
3690.894915655464
 21
2538.1705418093279
 31
0.0
  0
LINE
  5
8BF6
  8
OVERLAY-A3
 10
3690.894915655464
 20
2538.1705418093279
 30
0.0
 11
134.09117925244391
 21
2538.170541809327
 31
0.0
  0
LINE
  5
8BF7
  8
OVERLAY-A3
 10
134.09117925244391
 20
2538.170541809327
 30
0.0
 11
134.09117925244391
 21
81.219636710357932
 31
0.0
  0
TEXT
  5
8C01
  8
DIM
  6
CONTINUOUS
 62
    50
 10
1030.888570162404
 20
1219.3097692768461
 30
0.0
 40
30.0
  1
1792 MTG. CTRS
  7
TITLE3
  0
LINE
  5
8C0A
  8
DIM
  6
CONTINUOUS
 10
456.95905554617792
 20
2392.6477594309881
 30
0.0
 11
456.95905554617792
 21
2429.409791790702
 31
0.0
  0
LINE
  5
8C0B
  8
DIM
  6
CONTINUOUS
 10
1848.959055546183
 20
2392.6477594309772
 30
0.0
 11
1848.959055546183
 21
2429.409791790702
 31
0.0
  0
LINE
  5
8C0C
  8
DIM
  6
CONTINUOUS
 10
486.95905554617798
 20
2429.2297917907031
 30
0.0
 11
1022.95905554618
 21
2429.2297917907031
 31
0.0
  0
LINE
  5
8C0D
  8
DIM
  6
CONTINUOUS
 10
1818.959055546183
 20
2429.2297917907031
 30
0.0
 11
1132.95905554618
 21
2429.2297917907031
 31
0.0
  0
SOLID
  5
8C0E
  8
DIM
  6
CONTINUOUS
 10
486.95905554617798
 20
2434.2297917907022
 30
0.0
 11
486.95905554617798
 21
2424.2297917907031
 31
0.0
 12
456.95905554617792
 22
2429.2297917907031
 32
0.0
 13
456.95905554617792
 23
2429.2297917907031
 33
0.0
  0
SOLID
  5
8C0F
  8
DIM
  6
CONTINUOUS
 10
1818.959055546183
 20
2434.2297917907022
 30
0.0
 11
1818.959055546183
 21
2424.2297917907031
 31
0.0
 12
1848.959055546183
 22
2429.2297917907031
 32
0.0
 13
1848.959055546183
 23
2429.2297917907031
 33
0.0
  0
LINE
  5
8C1C
  8
OUTLINE
  6
CONTINUOUS
 10
1572.208131188683
 20
1776.6477594310011
 30
0.0
 11
1572.2081311886859
 21
1684.6477594309861
 31
0.0
  0
LINE
  5
8C1D
  8
DIM
  6
CONTINUOUS
 10
712.20813118868534
 20
1674.647759430987
 30
0.0
 11
712.20813118868534
 21
1639.118730164096
 31
0.0
  0
LINE
  5
8C1E
  8
DIM
  6
CONTINUOUS
 10
1572.2081311886859
 20
1674.647759430987
 30
0.0
 11
1572.2081311886859
 21
1639.118730164096
 31
0.0
  0
LINE
  5
8C1F
  8
DIM
  6
CONTINUOUS
 10
742.20813118868568
 20
1639.298730164096
 30
0.0
 11
1098.636702617257
 21
1639.298730164096
 31
0.0
  0
LINE
  5
8C20
  8
DIM
  6
CONTINUOUS
 10
1542.208131188685
 20
1639.298730164096
 30
0.0
 11
1185.7795597601139
 21
1639.298730164096
 31
0.0
  0
SOLID
  5
8C21
  8
DIM
  6
CONTINUOUS
 10
742.20813118868568
 20
1644.298730164096
 30
0.0
 11
742.20813118868568
 21
1634.298730164096
 31
0.0
 12
712.20813118868534
 22
1639.298730164096
 32
0.0
 13
712.20813118868534
 23
1639.298730164096
 33
0.0
  0
SOLID
  5
8C22
  8
DIM
  6
CONTINUOUS
 10
1542.208131188685
 20
1644.298730164096
 30
0.0
 11
1542.208131188685
 21
1634.298730164096
 31
0.0
 12
1572.2081311886859
 22
1639.298730164096
 32
0.0
 13
1572.2081311886859
 23
1639.298730164096
 33
0.0
  0
INSERT
  5
8C23
  8
DIM
  6
CONTINUOUS
  2
*U13
 10
-16.56352271875209
 20
-36.548842457422332
 30
0.0
  0
LINE
  5
8C24
  8
DIM
  6
CONTINUOUS
 10
2210.2081311886832
 20
1792.6477594309861
 30
0.0
 11
2210.2081311886832
 21
1533.195837928648
 31
0.0
  0
LINE
  5
8C25
  8
DIM
  6
CONTINUOUS
 10
392.20813118868398
 20
1792.6477594309861
 30
0.0
 11
392.20813118868398
 21
1533.195837928648
 31
0.0
  0
LINE
  5
8C26
  8
DIM
  6
CONTINUOUS
 10
2180.2081311886841
 20
1533.3758379286469
 30
0.0
 11
1281.2081311886841
 21
1533.3758379286469
 31
0.0
  0
LINE
  5
8C27
  8
DIM
  6
CONTINUOUS
 10
422.20813118868398
 20
1533.3758379286469
 30
0.0
 11
1171.2081311886841
 21
1533.3758379286469
 31
0.0
  0
SOLID
  5
8C28
  8
DIM
  6
CONTINUOUS
 10
2180.2081311886841
 20
1538.375837928646
 30
0.0
 11
2180.2081311886841
 21
1528.3758379286469
 31
0.0
 12
2210.2081311886832
 22
1533.3758379286469
 32
0.0
 13
2210.2081311886832
 23
1533.3758379286469
 33
0.0
  0
SOLID
  5
8C29
  8
DIM
  6
CONTINUOUS
 10
422.20813118868398
 20
1538.375837928646
 30
0.0
 11
422.20813118868398
 21
1528.3758379286469
 31
0.0
 12
392.20813118868398
 22
1533.3758379286469
 32
0.0
 13
392.20813118868398
 23
1533.3758379286469
 33
0.0
  0
INSERT
  5
8C43
  8
DIM
  6
CONTINUOUS
  2
A$C70722A8B
 10
3625.1135480174289
 20
432.67639784731432
 30
0.0
  0
LINE
  5
8DBF
  8
OUTLINE
  6
CONTINUOUS
 10
1833.8924106586819
 20
1684.6477594309879
 30
0.0
 11
1833.8924106586819
 21
1776.6477594309861
 31
0.0
  0
LINE
  5
8DC0
  8
OUTLINE
  6
CONTINUOUS
 10
2123.900270923682
 20
1684.6477594309879
 30
0.0
 11
2123.900270923682
 21
1776.6477594309861
 31
0.0
  0
TEXT
  5
8DCA
  8
DIM
  6
CONTINUOUS
 10
3124.903338240103
 20
1240.5854905575609
 30
0.0
 40
30.0
  1
68
 50
90.0
  0
LINE
  5
8DCB
  8
OUTLINE
  6
CONTINUOUS
 10
3286.4843302132772
 20
1053.3181089566069
 30
0.0
 11
2969.4843302132772
 21
1053.3181089566069
 31
0.0
  0
LINE
  5
8DCC
  8
OUTLINE
  6
CONTINUOUS
 10
2969.4843302132772
 20
712.3181089566076
 30
0.0
 11
3286.4843302132772
 21
712.3181089566076
 31
0.0
  0
LINE
  5
8DCD
  8
OUTLINE
  6
CONTINUOUS
 10
3286.4843302132772
 20
712.3181089566076
 30
0.0
 11
3286.4843302132772
 21
1053.3181089566069
 31
0.0
  0
LINE
  5
8DCF
  8
OUTLINE
  6
CONTINUOUS
 10
2969.4843302132772
 20
1053.3181089566069
 30
0.0
 11
2969.4843302132772
 21
712.3181089566076
 31
0.0
  0
TEXT
  5
8DD1
  8
DIM
  6
CONTINUOUS
 10
2580.6001464716519
 20
876.24668038517905
 30
0.0
 40
30.0
  1
490
 50
90.0
  7
TITLE3
  0
TEXT
  5
8DD4
  8
DIM
  6
CONTINUOUS
 10
2310.059207230207
 20
860.74668038517939
 30
0.0
 40
30.0
  1
518
 50
90.0
  7
TITLE3
  0
TEXT
  5
8DDF
  8
DIM
  6
CONTINUOUS
 10
253.19845309124679
 20
857.96096609946471
 30
0.0
 40
30.0
  1
526
 50
90.0
  7
TITLE3
  0
LINE
  5
8DF2
  8
OUTLINE
  6
CONTINUOUS
 10
2735.4843302132772
 20
1053.3181089566069
 30
0.0
 11
2853.4843302132781
 21
1053.3181089566069
 31
0.0
  0
LINE
  5
8DF4
  8
DIM
  6
CONTINUOUS
 10
2725.4843302132772
 20
1053.3181089566069
 30
0.0
 11
2668.4375977085101
 21
1053.3181089566069
 31
0.0
  0
LINE
  5
8DF5
  8
DIM
  6
CONTINUOUS
 10
2725.4843302132772
 20
1170.3181089566069
 30
0.0
 11
2668.4375977085101
 21
1170.3181089566069
 31
0.0
  0
LINE
  5
8DF7
  8
DIM
  6
CONTINUOUS
 10
2668.6175977085099
 20
1200.3181089566069
 30
0.0
 11
2668.6175977085099
 21
1230.3181089566069
 31
0.0
  0
SOLID
  5
8DF9
  8
DIM
  6
CONTINUOUS
 10
2663.6175977085099
 20
1200.3181089566069
 30
0.0
 11
2673.6175977085099
 21
1200.3181089566069
 31
0.0
 12
2668.6175977085099
 22
1170.3181089566069
 32
0.0
 13
2668.6175977085099
 23
1170.3181089566069
 33
0.0
  0
INSERT
  5
8DFA
  8
DIM
  6
CONTINUOUS
  2
*U15
 10
0.0
 20
0.0
 30
0.0
  0
TEXT
  5
A34B
  8
DIM
  6
CONTINUOUS
 10
1176.2081311886841
 20
1518.3758379286469
 30
0.0
 40
30.0
  1
1818
  7
TITLE3
  0
LINE
  5
A372
  8
DIM
  6
CONTINUOUS
 10
712.20813118868534
 20
1674.6477594309861
 30
0.0
 11
712.20813118868534
 21
1643.3688200462
 31
0.0
  0
LINE
  5
A373
  8
DIM
  6
CONTINUOUS
 10
392.20813118868398
 20
1674.6477594309861
 30
0.0
 11
392.20813118868398
 21
1643.3688200462
 31
0.0
  0
LINE
  5
A374
  8
DIM
  6
CONTINUOUS
 10
682.20813118868534
 20
1643.5488200462
 30
0.0
 11
594.70813118868455
 21
1643.5488200462
 31
0.0
  0
LINE
  5
A375
  8
DIM
  6
CONTINUOUS
 10
422.20813118868398
 20
1643.5488200462
 30
0.0
 11
509.7081311886846
 21
1643.5488200462
 31
0.0
  0
SOLID
  5
A376
  8
DIM
  6
CONTINUOUS
 10
682.20813118868534
 20
1648.5488200462
 30
0.0
 11
682.20813118868534
 21
1638.5488200462009
 31
0.0
 12
712.20813118868534
 22
1643.5488200462
 32
0.0
 13
712.20813118868534
 23
1643.5488200462
 33
0.0
  0
SOLID
  5
A377
  8
DIM
  6
CONTINUOUS
 10
422.20813118868398
 20
1648.5488200462
 30
0.0
 11
422.20813118868398
 21
1638.5488200462009
 31
0.0
 12
392.20813118868398
 22
1643.5488200462
 32
0.0
 13
392.20813118868398
 23
1643.5488200462
 33
0.0
  0
INSERT
  5
A378
  8
DIM
  6
CONTINUOUS
  2
*U24
 10
0.0
 20
0.0
 30
0.0
  0
TEXT
  5
A384
  8
DIM
  6
CONTINUOUS
 10
1027.9590555461789
 20
2414.2297917907031
 30
0.0
 40
30.0
  1
1392
  7
TITLE3
  0
ENDSEC
  0
EOF
