  0
SECTION
  2
HEADER
  9
$ACADVER
  1
AC1009
  9
$INSBASE
 10
0.0
 20
0.0
 30
0.0
  9
$EXTMIN
 10
885.79112984539654
 20
0.0
 30
0.0
  9
$EXTMAX
 10
4862.5
 20
3159.026567930719
 30
0.0
  9
$LIMMIN
 10
0.0
 20
0.0
  9
$LIMMAX
 10
3890.0
 20
2660.0
  9
$ORTHOMODE
 70
     0
  9
$REGENMODE
 70
     1
  9
$FILLMODE
 70
     1
  9
$QTEXTMODE
 70
     0
  9
$MIRRTEXT
 70
     0
  9
$DRAGMODE
 70
     2
  9
$LTSCALE
 40
100.0
  9
$OSMODE
 70
     0
  9
$ATTMODE
 70
     1
  9
$TEXTSIZE
 40
30.0
  9
$TRACEWID
 40
0.05
  9
$TEXTSTYLE
  7
TITLE3
  9
$CLAYER
  8
CLEAR
  9
$CELTYPE
  6
BYLAYER
  9
$CECOLOR
 62
   256
  9
$DIMSCALE
 40
1.0
  9
$DIMASZ
 40
30.0
  9
$DIMEXO
 40
20.0
  9
$DIMDLI
 40
0.38
  9
$DIMRND
 40
0.0
  9
$DIMDLE
 40
0.0
  9
$DIMEXE
 40
20.0
  9
$DIMTP
 40
0.0
  9
$DIMTM
 40
0.0
  9
$DIMTXT
 40
30.0
  9
$DIMCEN
 40
0.09
  9
$DIMTSZ
 40
0.0
  9
$DIMTOL
 70
     0
  9
$DIMLIM
 70
     0
  9
$DIMTIH
 70
     0
  9
$DIMTOH
 70
     0
  9
$DIMSE1
 70
     0
  9
$DIMSE2
 70
     0
  9
$DIMTAD
 70
     0
  9
$DIMZIN
 70
     0
  9
$DIMBLK
  1

  9
$DIMASO
 70
     0
  9
$DIMSHO
 70
     0
  9
$DIMPOST
  1

  9
$DIMAPOST
  1

  9
$DIMALT
 70
     0
  9
$DIMALTD
 70
     2
  9
$DIMALTF
 40
25.399999999999999
  9
$DIMLFAC
 40
1.0
  9
$DIMTOFL
 70
     0
  9
$DIMTVP
 40
0.0
  9
$DIMTIX
 70
     0
  9
$DIMSOXD
 70
     0
  9
$DIMSAH
 70
     0
  9
$DIMBLK1
  1

  9
$DIMBLK2
  1

  9
$DIMSTYLE
  2
STANDARD
  9
$DIMCLRD
 70
    52
  9
$DIMCLRE
 70
    52
  9
$DIMCLRT
 70
    50
  9
$DIMTFAC
 40
1.0
  9
$DIMGAP
 40
20.0
  9
$LUNITS
 70
     2
  9
$LUPREC
 70
     2
  9
$SKETCHINC
 40
0.1
  9
$FILLETRAD
 40
0.0
  9
$AUNITS
 70
     0
  9
$AUPREC
 70
     2
  9
$MENU
  1
\acad12\support\cnc
  9
$ELEVATION
 40
0.0
  9
$PELEVATION
 40
0.0
  9
$THICKNESS
 40
0.0
  9
$LIMCHECK
 70
     0
  9
$BLIPMODE
 70
     0
  9
$CHAMFERA
 40
40.0
  9
$CHAMFERB
 40
40.0
  9
$SKPOLY
 70
     0
  9
$TDCREATE
 40
2451227.6112730321
  9
$TDUPDATE
 40
2452929.635987048
  9
$TDINDWG
 40
0.2463446991
  9
$TDUSRTIMER
 40
0.2463446991
  9
$USRTIMER
 70
     1
  9
$ANGBASE
 50
0.0
  9
$ANGDIR
 70
     0
  9
$PDMODE
 70
     2
  9
$PDSIZE
 40
10.0
  9
$PLINEWID
 40
0.0
  9
$COORDS
 70
     2
  9
$SPLFRAME
 70
     0
  9
$SPLINETYPE
 70
     6
  9
$SPLINESEGS
 70
     8
  9
$ATTDIA
 70
     0
  9
$ATTREQ
 70
     1
  9
$HANDLING
 70
 22529
  9
$HANDSEED
  5
D253
  9
$SURFTAB1
 70
     6
  9
$SURFTAB2
 70
     6
  9
$SURFTYPE
 70
     6
  9
$SURFU
 70
     6
  9
$SURFV
 70
     6
  9
$UCSNAME
  2

  9
$UCSORG
 10
0.0
 20
0.0
 30
0.0
  9
$UCSXDIR
 10
1.0
 20
0.0
 30
0.0
  9
$UCSYDIR
 10
0.0
 20
1.0
 30
0.0
  9
$PUCSNAME
  2

  9
$PUCSORG
 10
0.0
 20
0.0
 30
0.0
  9
$PUCSXDIR
 10
1.0
 20
0.0
 30
0.0
  9
$PUCSYDIR
 10
0.0
 20
1.0
 30
0.0
  9
$USERI1
 70
     0
  9
$USERI2
 70
     0
  9
$USERI3
 70
     0
  9
$USERI4
 70
     0
  9
$USERI5
 70
     0
  9
$USERR1
 40
0.0
  9
$USERR2
 40
0.0
  9
$USERR3
 40
0.0
  9
$USERR4
 40
0.0
  9
$USERR5
 40
0.0
  9
$WORLDVIEW
 70
     1
  9
$SHADEDGE
 70
     3
  9
$SHADEDIF
 70
    70
  9
$TILEMODE
 70
     1
  9
$MAXACTVP
 70
    16
  9
$PLIMCHECK
 70
     0
  9
$PEXTMIN
 10
1.0000000000000000E+020
 20
1.0000000000000000E+020
 30
1.0000000000000000E+020
  9
$PEXTMAX
 10
-1.0000000000000000E+020
 20
-1.0000000000000000E+020
 30
-1.0000000000000000E+020
  9
$PLIMMIN
 10
0.0
 20
0.0
  9
$PLIMMAX
 10
12.0
 20
9.0
  9
$UNITMODE
 70
     0
  9
$VISRETAIN
 70
     0
  9
$PLINEGEN
 70
     0
  9
$PSLTSCALE
 70
     0
  0
ENDSEC
  0
SECTION
  2
TABLES
  0
TABLE
  2
VPORT
 70
     2
  0
VPORT
  2
*ACTIVE
 70
     0
 10
0.0
 20
0.0
 11
1.0
 21
1.0
 12
2874.2870271750112
 22
1579.426997958833
 13
0.0
 23
0.0
 14
25.0
 24
25.0
 15
100.0
 25
100.0
 16
0.0
 26
0.0
 36
1.0
 17
0.0
 27
0.0
 37
0.0
 40
3193.777055378991
 41
1.5912408759124079
 42
50.0
 43
0.0
 44
0.0
 50
0.0
 51
0.0
 71
     0
 72
   100
 73
     1
 74
     0
 75
     0
 76
     0
 77
     0
 78
     2
  0
ENDTAB
  0
TABLE
  2
LTYPE
 70
     2
  0
LTYPE
  2
CONTINUOUS
 70
     0
  3
Solid line
 72
    65
 73
     0
 40
0.0
  0
LTYPE
  2
PHANTOM2
 70
     0
  3
Phantom (.5x) ___ _ _ ___ _ _ ___ _ _ ___ _ _
 72
    65
 73
     6
 40
1.25
 49
0.625
 49
-0.125
 49
0.125
 49
-0.125
 49
0.125
 49
-0.125
  0
ENDTAB
  0
TABLE
  2
LAYER
 70
     6
  0
LAYER
  2
0
 70
     0
 62
     7
  6
CONTINUOUS
  0
LAYER
  2
CLEAR
 70
     0
 62
     1
  6
PHANTOM2
  0
LAYER
  2
OVERLAY-A3
 70
     0
 62
     7
  6
CONTINUOUS
  0
LAYER
  2
TEXT
 70
     0
 62
   100
  6
CONTINUOUS
  0
LAYER
  2
DIM
 70
     0
 62
    50
  6
CONTINUOUS
  0
LAYER
  2
OUTLINE
 70
     0
 62
     7
  6
CONTINUOUS
  0
ENDTAB
  0
TABLE
  2
STYLE
 70
     3
  0
STYLE
  2
STANDARD
 70
     0
 40
0.0
 41
1.0
 50
0.0
 71
     0
 42
0.2
  3
txt
  4

  0
STYLE
  2
TITLE3
 70
     0
 40
30.0
 41
1.0
 50
0.0
 71
     0
 42
30.0
  3
SIMPLEX
  4

  0
STYLE
  2
SIMPLEX
 70
     0
 40
40.0
 41
1.0
 50
0.0
 71
     0
 42
25.0
  3
SIMPLEX
  4

  0
ENDTAB
  0
TABLE
  2
VIEW
 70
     0
  0
ENDTAB
  0
TABLE
  2
UCS
 70
     0
  0
ENDTAB
  0
TABLE
  2
APPID
 70
     1
  0
APPID
  2
ACAD
 70
     0
  0
ENDTAB
  0
TABLE
  2
DIMSTYLE
 70
     1
  0
DIMSTYLE
  2
STANDARD
 70
     0
  3

  4

  5

  6

  7

 40
1.0
 41
0.18
 42
0.0625
 43
0.38
 44
0.18
 45
0.0
 46
0.0
 47
0.0
 48
0.0
140
0.18
141
0.09
142
0.0
143
25.399999999999999
144
1.0
145
0.0
146
1.0
147
0.09
 71
     0
 72
     0
 73
     1
 74
     1
 75
     0
 76
     0
 77
     0
 78
     0
170
     0
171
     2
172
     0
173
     0
174
     0
175
     0
176
     0
177
     0
178
     0
  0
ENDTAB
  0
ENDSEC
  0
SECTION
  2
BLOCKS
  0
BLOCK
  8
0
  2
$MODEL_SPACE
 70
     0
 10
0.0
 20
0.0
 30
0.0
  3
$MODEL_SPACE
  1

  0
ENDBLK
  5
CEFC
  8
0
  0
BLOCK
 67
     1
  8
0
  2
$PAPER_SPACE
 70
     0
 10
0.0
 20
0.0
 30
0.0
  3
$PAPER_SPACE
  1

  0
ENDBLK
  5
CEF8
 67
     1
  8
0
  0
BLOCK
  8
0
  2
NEW_BLOCK
 70
     0
 10
0.0
 20
0.0
 30
0.0
  3
NEW_BLOCK
  1

  0
TEXT
  5
CF12
  8
TEXT
 10
27.285946821803002
 20
25.27142175952417
 30
0.0
 40
40.0
  1
available on request
  7
TITLE3
  0
TEXT
  5
CF13
  8
TEXT
 10
27.285946821803002
 20
93.842850330952714
 30
0.0
 40
40.0
  1
Certified dimensions
  7
TITLE3
  0
TEXT
  5
CF14
  8
TEXT
 10
27.285946821803002
 20
162.4142789023812
 30
0.0
 40
40.0
  1
without notice or obligation.
  7
TITLE3
  0
TEXT
  5
CF15
  8
TEXT
 10
27.285946821803002
 20
230.9857074738097
 30
0.0
 40
40.0
  1
specifications at any time
  7
TITLE3
  0
TEXT
  5
CF16
  8
TEXT
 10
27.285946821803002
 20
299.55713604523839
 30
0.0
 40
40.0
  1
the right to change 
  7
TITLE3
  0
TEXT
  5
CF17
  8
TEXT
 10
27.285946821803002
 20
436.69999318809528
 30
0.0
 40
40.0
  1
NOTE
  7
TITLE3
  0
TEXT
  5
CF18
  8
TEXT
 10
27.285946821803002
 20
368.12856461666672
 30
0.0
 40
40.0
  1
The manufacturer reserves
  7
TITLE3
  0
ENDBLK
  5
CF19
  8
0
  0
BLOCK
  8
0
  2
NEW_BLOCK0
 70
     0
 10
0.0
 20
0.0
 30
0.0
  3
NEW_BLOCK0
  1

  0
INSERT
  5
CF1C
  8
DIM
  2
NEW_BLOCK
 10
13.048098169647799
 20
6.0725618626865971
 30
0.0
 41
0.7000000000000455
 42
0.6999999999999993
 43
0.7
  0
ENDBLK
  5
CF1D
  8
0
  0
ENDSEC
  0
SECTION
  2
ENTITIES
  0
TEXT
  5
D15C
  8
TEXT
 10
3683.8853405470222
 20
137.5
 30
0.0
 40
37.5
  1
16.10.03
 41
0.888888888888895
  7
TITLE3
 72
     5
 11
3883.885340547024
 21
137.5
 31
0.0
  0
LINE
  5
D15D
  8
OUTLINE
 10
2712.7506093459151
 20
2947.5822951329269
 30
0.0
 11
3687.750609345916
 21
2947.582295132926
 31
0.0
  0
LINE
  5
D15E
  8
OUTLINE
 10
2420.2526300826089
 20
2881.3836761604871
 30
0.0
 11
3979.048588609222
 21
2881.3836761604871
 31
0.0
  0
LINE
  5
D15F
  8
OUTLINE
 10
2451.454114744954
 20
2912.5836761604851
 30
0.0
 11
3947.848588609224
 21
2912.5836761604851
 31
0.0
  0
LINE
  5
D160
  8
OUTLINE
 10
2513.6506093459161
 20
2215.183676160485
 30
0.0
 11
3885.6506093459152
 21
2215.1836761604859
 31
0.0
  0
LINE
  5
D161
  8
OUTLINE
 10
2452.6526300826108
 20
2250.1836761604859
 30
0.0
 11
3946.6485886092219
 21
2250.183676160485
 31
0.0
  0
LINE
  5
D162
  8
OUTLINE
 10
1886.4858409048761
 20
1512.4886039998071
 30
0.0
 11
1224.085840904876
 21
1512.4886039998071
 31
0.0
  0
LINE
  5
D163
  8
OUTLINE
 10
1235.2858409048749
 20
939.08860399980836
 30
0.0
 11
1875.287289887747
 21
939.08860399980836
 31
0.0
  0
LINE
  5
D164
  8
OUTLINE
 10
1255.2858409048749
 20
1512.4886039998071
 30
0.0
 11
1255.2858409048749
 21
939.08860399980836
 31
0.0
  0
CIRCLE
  5
D165
  8
OUTLINE
 10
1612.550460963223
 20
979.83963885593414
 30
0.0
 40
14.0
  0
LINE
  5
D166
  8
OUTLINE
 10
1189.085840904876
 20
1476.28708320702
 30
0.0
 11
1189.085840904876
 21
1176.28708320702
 31
0.0
  0
LINE
  5
D167
  8
OUTLINE
 10
1255.2858409048749
 20
1506.28708320702
 30
0.0
 11
1255.2858409048749
 21
1146.28708320702
 31
0.0
  0
LINE
  5
D168
  8
OUTLINE
 10
1254.085840904876
 20
1176.28708320702
 30
0.0
 11
1189.085840904876
 21
1176.28708320702
 31
0.0
  0
LINE
  5
D169
  8
OUTLINE
 10
1254.085840904876
 20
1476.28708320702
 30
0.0
 11
1189.085840904876
 21
1476.28708320702
 31
0.0
  0
LINE
  5
D16A
  8
OUTLINE
 10
1224.085840904876
 20
1512.4886039998071
 30
0.0
 11
1224.085840904876
 21
1504.2886039998079
 31
0.0
  0
LINE
  5
D16B
  8
OUTLINE
 10
1921.4858409048761
 20
1444.808603999807
 30
0.0
 11
1921.4858409048761
 21
1021.211400719914
 31
0.0
  0
LINE
  5
D16C
  8
OUTLINE
 10
1855.2858409048749
 20
1443.608603999807
 30
0.0
 11
1855.2858409048749
 21
1021.211400719914
 31
0.0
  0
LINE
  5
D16D
  8
OUTLINE
 10
1855.2858409048749
 20
939.08860399980836
 30
0.0
 11
1855.2858409048749
 21
1512.4886039998071
 31
0.0
  0
LINE
  5
D16E
  8
OUTLINE
 10
1855.2858409048749
 20
1020.011400719913
 30
0.0
 11
1921.4858409048761
 21
1020.011400719913
 31
0.0
  0
LINE
  5
D16F
  8
OUTLINE
 10
1851.9858409048761
 20
939.0886039998079
 30
0.0
 11
1851.9858409048761
 21
941.08860399980802
 31
0.0
  0
LINE
  5
D170
  8
OUTLINE
 10
1921.4858409048761
 20
1020.011400719913
 30
0.0
 11
1921.4858409048761
 21
1021.211400719914
 31
0.0
  0
LINE
  5
D171
  8
OUTLINE
 10
1862.2858409048761
 20
1444.808603999807
 30
0.0
 11
1921.4858409048761
 21
1444.808603999807
 31
0.0
  0
LINE
  5
D172
  8
OUTLINE
 10
1886.4858409048761
 20
1512.4886039998071
 30
0.0
 11
1886.4858409048761
 21
1504.2886039998079
 31
0.0
  0
LINE
  5
D173
  8
OUTLINE
 10
2389.0526300826091
 20
2313.7836761604849
 30
0.0
 11
2389.0526300826091
 21
2850.185160752188
 31
0.0
  0
LINE
  5
D174
  8
OUTLINE
 10
2420.2526300826089
 20
2282.583676160486
 30
0.0
 11
2420.2526300826089
 21
2881.3836761604871
 31
0.0
  0
LINE
  5
D175
  8
OUTLINE
 10
2513.6506093459161
 20
2215.183676160485
 30
0.0
 11
2513.6506093459161
 21
2250.1836761604859
 31
0.0
  0
LINE
  5
D176
  8
OUTLINE
 10
2712.7506093459151
 20
2912.5836761604851
 30
0.0
 11
2712.7506093459151
 21
2947.5822951329269
 31
0.0
  0
LINE
  5
D177
  8
OUTLINE
 10
3979.048588609222
 20
2282.583676160486
 30
0.0
 11
3979.048588609222
 21
2881.3836761604871
 31
0.0
  0
LINE
  5
D178
  8
OUTLINE
 10
4011.448588609223
 20
2314.9836761604879
 30
0.0
 11
4011.448588609223
 21
2848.983676160487
 31
0.0
  0
LINE
  5
D179
  8
OUTLINE
 10
3885.6506093459138
 20
2215.183676160485
 30
0.0
 11
3885.6506093459138
 21
2250.1836761604859
 31
0.0
  0
LINE
  5
D17A
  8
OUTLINE
 10
3687.7506093459169
 20
2912.5836761604869
 30
0.0
 11
3687.750609345916
 21
2947.582295132926
 31
0.0
  0
LINE
  5
D17B
  8
OUTLINE
  6
CONTINUOUS
 10
2354.6506093459129
 20
2538.119056102139
 30
0.0
 11
2389.0526300826091
 21
2538.119056102139
 31
0.0
  0
LINE
  5
D17C
  8
OUTLINE
  6
CONTINUOUS
 10
2354.6506093459129
 20
2510.1190561021399
 30
0.0
 11
2389.0526300826091
 21
2510.1190561021399
 31
0.0
  0
LINE
  5
D17D
  8
OUTLINE
  6
CONTINUOUS
 10
2354.6506093459129
 20
2510.1190561021399
 30
0.0
 11
2354.6506093459129
 21
2538.119056102139
 31
0.0
  0
LINE
  5
D17E
  8
DIM
 62
    52
 10
1189.085840904876
 20
1496.28708320702
 30
0.0
 11
1189.085840904876
 21
1647.060765698443
 31
0.0
  0
LINE
  5
D17F
  8
DIM
 62
    52
 10
1921.4858409048761
 20
1464.808603999807
 30
0.0
 11
1921.4858409048761
 21
1647.060765698443
 31
0.0
  0
LINE
  5
D180
  8
DIM
 62
    52
 10
1219.085840904876
 20
1627.060765698443
 30
0.0
 11
1492.311800280557
 21
1627.060765698443
 31
0.0
  0
LINE
  5
D181
  8
DIM
 62
    52
 10
1891.4858409048761
 20
1627.060765698443
 30
0.0
 11
1616.6799197373259
 21
1627.060765698443
 31
0.0
  0
SOLID
  5
D182
  8
DIM
 62
    52
 10
1219.085840904876
 20
1632.0607656984421
 30
0.0
 11
1219.085840904876
 21
1622.060765698443
 31
0.0
 12
1189.085840904876
 22
1627.060765698443
 32
0.0
 13
1189.085840904876
 23
1627.060765698443
 33
0.0
  0
SOLID
  5
D183
  8
DIM
 62
    52
 10
1891.4858409048761
 20
1632.0607656984421
 30
0.0
 11
1891.4858409048761
 21
1622.060765698443
 31
0.0
 12
1921.4858409048761
 22
1627.060765698443
 32
0.0
 13
1921.4858409048761
 23
1627.060765698443
 33
0.0
  0
TEXT
  5
D184
  8
DIM
 62
    50
 10
1516.7144123334469
 20
1612.0607656984421
 30
0.0
 40
30.0
  1
733
  7
TITLE3
 72
     4
 11
1555.2858409048761
 21
1627.060765698443
 31
0.0
  0
LINE
  5
D185
  8
DIM
 62
    52
 10
1204.085840904876
 20
1512.4886039998071
 30
0.0
 11
1002.499899915158
 21
1512.4886039998071
 31
0.0
  0
LINE
  5
D186
  8
DIM
 62
    52
 10
1219.0564617860271
 20
939.0886039998079
 30
0.0
 11
1002.499899915158
 21
939.0886039998079
 31
0.0
  0
LINE
  5
D187
  8
DIM
 62
    52
 10
1022.499899915158
 20
1482.488603999808
 30
0.0
 11
1022.499899915158
 21
1279.100816060675
 31
0.0
  0
LINE
  5
D188
  8
DIM
 62
    52
 10
1022.499899915158
 20
969.08860399980824
 30
0.0
 11
1022.499899915158
 21
1167.739709978528
 31
0.0
  0
SOLID
  5
D189
  8
DIM
 62
    52
 10
1017.499899915158
 20
1482.488603999808
 30
0.0
 11
1027.499899915158
 21
1482.488603999808
 31
0.0
 12
1022.499899915158
 22
1512.4886039998071
 32
0.0
 13
1022.499899915158
 23
1512.4886039998071
 33
0.0
  0
SOLID
  5
D18A
  8
DIM
 62
    52
 10
1017.499899915158
 20
969.08860399980824
 30
0.0
 11
1027.499899915158
 21
969.08860399980824
 31
0.0
 12
1022.499899915158
 22
939.0886039998079
 32
0.0
 13
1022.499899915158
 23
939.0886039998079
 33
0.0
  0
TEXT
  5
D18B
  8
DIM
 62
    50
 10
1037.499899915158
 20
1186.502889714093
 30
0.0
 40
30.0
  1
574
 50
90.0
  7
TITLE3
 72
     1
 11
1022.499899915158
 21
1225.7886039998079
 31
0.0
 73
     2
  0
LINE
  5
D18C
  8
OUTLINE
 10
2417.4526300826092
 20
2217.5836761604869
 30
0.0
 11
2417.4526300826092
 21
2285.3836761604871
 31
0.0
  0
LINE
  5
D18D
  8
OUTLINE
 10
2465.4526300826092
 20
2217.5836761604869
 30
0.0
 11
2465.4526300826092
 21
2250.1836761604859
 31
0.0
  0
LINE
  5
D18E
  8
OUTLINE
 10
2465.4526300826092
 20
2217.5836761604869
 30
0.0
 11
2417.4526300826092
 21
2217.5836761604869
 31
0.0
  0
CIRCLE
  5
D18F
  8
OUTLINE
 10
2441.4526300826078
 20
2237.5836761604869
 30
0.0
 40
9.0
  0
LINE
  5
D190
  8
OUTLINE
 10
2420.2526300826089
 20
2282.583676160486
 30
0.0
 11
3979.048588609222
 21
2282.583676160486
 31
0.0
  0
LINE
  5
D191
  8
OUTLINE
 10
3935.0485886092242
 20
2217.5836761604869
 30
0.0
 11
3935.0485886092251
 21
2250.1836761604859
 31
0.0
  0
LINE
  5
D192
  8
OUTLINE
 10
3983.0485886092251
 20
2217.5836761604869
 30
0.0
 11
3983.0485886092251
 21
2282.583676160486
 31
0.0
  0
LINE
  5
D193
  8
OUTLINE
 10
3935.0485886092251
 20
2217.5836761604869
 30
0.0
 11
3983.0485886092251
 21
2217.5836761604869
 31
0.0
  0
CIRCLE
  5
D194
  8
OUTLINE
 10
3959.0485886092242
 20
2237.5836761604869
 30
0.0
 40
9.0
  0
LINE
  5
D195
  8
OUTLINE
 10
2465.4526300826092
 20
2945.183676160485
 30
0.0
 11
2465.4526300826092
 21
2912.5836761604851
 31
0.0
  0
LINE
  5
D196
  8
OUTLINE
 10
2417.4526300826092
 20
2945.183676160485
 30
0.0
 11
2417.4526300826092
 21
2878.5838093930761
 31
0.0
  0
LINE
  5
D197
  8
OUTLINE
 10
2465.4526300826092
 20
2945.183676160485
 30
0.0
 11
2417.4526300826092
 21
2945.183676160485
 31
0.0
  0
CIRCLE
  5
D198
  8
OUTLINE
 10
2441.4526300826078
 20
2925.1836761604859
 30
0.0
 40
9.0
  0
LINE
  5
D199
  8
OUTLINE
 10
3983.0485886092251
 20
2945.1836761604868
 30
0.0
 11
3983.0485886092251
 21
2877.3836761604839
 31
0.0
  0
LINE
  5
D19A
  8
OUTLINE
 10
3935.0485886092242
 20
2945.1836761604868
 30
0.0
 11
3935.0485886092251
 21
2912.5836761604869
 31
0.0
  0
LINE
  5
D19B
  8
OUTLINE
 10
3935.0485886092251
 20
2945.1836761604868
 30
0.0
 11
3983.0485886092251
 21
2945.1836761604868
 31
0.0
  0
CIRCLE
  5
D19C
  8
OUTLINE
 10
3959.0485886092242
 20
2925.1836761604868
 30
0.0
 40
9.0
  0
LINE
  5
D19D
  8
OUTLINE
 10
1862.2858409048761
 20
1461.8886039998081
 30
0.0
 11
1855.2858409048749
 21
1461.8886039998081
 31
0.0
  0
LINE
  5
D19E
  8
OUTLINE
 10
1920.2858409048761
 20
1391.888603999806
 30
0.0
 11
1855.2858409048749
 21
1391.8886039998081
 31
0.0
  0
LINE
  5
D19F
  8
OUTLINE
 10
1855.2858409048749
 20
1461.8886039998081
 30
0.0
 11
1855.2858409048749
 21
1402.8886039998081
 31
0.0
  0
LINE
  5
D1A0
  8
OUTLINE
 10
1920.2858409048761
 20
1398.888603999806
 30
0.0
 11
1920.2858409048761
 21
1391.888603999806
 31
0.0
  0
LINE
  5
D1A1
  8
OUTLINE
 10
1918.285840904874
 20
1383.888603999806
 30
0.0
 11
1882.2858409048749
 21
1383.888603999806
 31
0.0
  0
LINE
  5
D1A2
  8
OUTLINE
 10
1918.2858409048761
 20
1391.888603999806
 30
0.0
 11
1918.285840904874
 21
1383.888603999806
 31
0.0
  0
LINE
  5
D1A3
  8
OUTLINE
 10
1882.2858409048749
 20
1391.888603999809
 30
0.0
 11
1882.2858409048749
 21
1383.888603999806
 31
0.0
  0
LINE
  5
D1A4
  8
OUTLINE
 10
1862.2858409048761
 20
1461.8886039998081
 30
0.0
 11
1862.2858409048761
 21
1398.888603999806
 31
0.0
  0
LINE
  5
D1A5
  8
OUTLINE
 10
1920.2858409048761
 20
1398.888603999806
 30
0.0
 11
1862.2858409048761
 21
1398.888603999806
 31
0.0
  0
LINE
  5
D1A6
  8
OUTLINE
 10
1248.2858409048761
 20
1461.8886039998081
 30
0.0
 11
1248.2858409048761
 21
1398.888603999806
 31
0.0
  0
LINE
  5
D1A7
  8
OUTLINE
 10
1255.2858409048749
 20
1461.8886039998081
 30
0.0
 11
1255.2858409048749
 21
1402.8886039998081
 31
0.0
  0
LINE
  5
D1A8
  8
OUTLINE
 10
1190.2858409048749
 20
1398.888603999806
 30
0.0
 11
1248.2858409048761
 21
1398.888603999806
 31
0.0
  0
LINE
  5
D1A9
  8
OUTLINE
 10
1190.2858409048749
 20
1391.888603999806
 30
0.0
 11
1255.2858409048749
 21
1391.888603999806
 31
0.0
  0
LINE
  5
D1AA
  8
OUTLINE
 10
1192.2858409048749
 20
1383.888603999806
 30
0.0
 11
1228.285840904877
 21
1383.888603999806
 31
0.0
  0
LINE
  5
D1AB
  8
OUTLINE
 10
1228.2858409048761
 20
1391.888603999809
 30
0.0
 11
1228.285840904877
 21
1383.888603999806
 31
0.0
  0
LINE
  5
D1AC
  8
OUTLINE
 10
1190.2858409048749
 20
1398.888603999806
 30
0.0
 11
1190.2858409048749
 21
1391.888603999806
 31
0.0
  0
LINE
  5
D1AD
  8
OUTLINE
 10
1192.2858409048749
 20
1391.888603999806
 30
0.0
 11
1192.2858409048749
 21
1383.888603999806
 31
0.0
  0
LINE
  5
D1AE
  8
OUTLINE
 10
1248.2858409048761
 20
1461.8886039998081
 30
0.0
 11
1255.2858409048749
 21
1461.8886039998081
 31
0.0
  0
LINE
  5
D1AF
  8
DIM
 62
    52
 10
2441.4526300826078
 20
2217.5836761604869
 30
0.0
 11
2441.4526300826078
 21
2065.5382564564002
 31
0.0
  0
LINE
  5
D1B0
  8
DIM
 62
    52
 10
3959.0485886092242
 20
2217.5836761604869
 30
0.0
 11
3959.0485886092242
 21
2065.5382564564002
 31
0.0
  0
LINE
  5
D1B1
  8
DIM
 62
    52
 10
2471.4526300826078
 20
2085.538256456402
 30
0.0
 11
3069.5193259191378
 21
2085.538256456402
 31
0.0
  0
LINE
  5
D1B2
  8
DIM
 62
    52
 10
3929.0485886092251
 20
2085.538256456402
 30
0.0
 11
3217.9870513412038
 21
2085.538256456402
 31
0.0
  0
SOLID
  5
D1B3
  8
DIM
 62
    52
 10
2471.4526300826078
 20
2090.5382564564011
 30
0.0
 11
2471.4526300826078
 21
2080.5382564564002
 31
0.0
 12
2441.4526300826078
 22
2085.538256456402
 32
0.0
 13
2441.4526300826078
 23
2085.538256456402
 33
0.0
  0
SOLID
  5
D1B4
  8
DIM
 62
    52
 10
3929.0485886092251
 20
2090.5382564564011
 30
0.0
 11
3929.0485886092251
 21
2080.5382564564002
 31
0.0
 12
3959.0485886092242
 22
2085.538256456402
 32
0.0
 13
3959.0485886092242
 23
2085.538256456402
 33
0.0
  0
TEXT
  5
D1B5
  8
DIM
 62
    50
 10
3099.8857101343979
 20
2070.5382564564011
 30
0.0
 40
30.0
  1
1518
  7
TITLE3
 72
     4
 11
3147.0285672772552
 21
2085.538256456402
 31
0.0
  0
LINE
  5
D1B6
  8
DIM
 62
    52
 10
4084.1302122603238
 20
2312.5836761604869
 30
0.0
 11
4084.1302122603238
 21
2518.8576081685378
 31
0.0
  0
TEXT
  5
D1B7
  8
DIM
 62
    50
 10
4199.8180076798944
 20
2545.5891163776491
 30
0.0
 40
30.0
  1
688
 50
90.0
  7
TITLE3
 72
     1
 11
4184.8180076798944
 21
2584.160544949078
 31
0.0
 73
     2
  0
LINE
  5
D1B8
  8
DIM
 62
    52
 10
4181.4241263288941
 20
2267.5836761604869
 30
0.0
 11
4181.4241263288941
 21
2525.298314131358
 31
0.0
  0
SOLID
  5
D1B9
  8
DIM
 62
    52
 10
4176.424126328895
 20
2267.5836761604869
 30
0.0
 11
4186.424126328895
 21
2267.5836761604869
 31
0.0
 12
4181.4241263288941
 22
2237.5836761604869
 32
0.0
 13
4181.4241263288941
 23
2237.5836761604869
 33
0.0
  0
SOLID
  5
D1BA
  8
DIM
 62
    52
 10
4079.1302122603238
 20
2312.5836761604869
 30
0.0
 11
4089.1302122603229
 21
2312.5836761604869
 31
0.0
 12
4084.1302122603238
 22
2282.583676160486
 32
0.0
 13
4084.1302122603238
 23
2282.583676160486
 33
0.0
  0
TEXT
  5
D1BB
  8
DIM
 62
    50
 10
4099.1302122603247
 20
2543.4122475890572
 30
0.0
 40
30.0
  1
600
 50
90.0
  7
TITLE3
 72
     4
 11
4084.1302122603238
 21
2581.9836761604861
 31
0.0
  0
LINE
  5
D1BC
  8
DIM
 62
    52
 10
4084.1302122603238
 20
2851.3836761604862
 30
0.0
 11
4084.1302122603238
 21
2638.4326734115771
 31
0.0
  0
SOLID
  5
D1BD
  8
DIM
 62
    52
 10
4079.1302122603238
 20
2851.3836761604862
 30
0.0
 11
4089.1302122603229
 21
2851.3836761604862
 31
0.0
 12
4084.1302122603238
 22
2881.3836761604871
 32
0.0
 13
4084.1302122603238
 23
2881.3836761604871
 33
0.0
  0
LINE
  5
D1BE
  8
DIM
 62
    52
 10
4181.4241263288941
 20
2895.1836761604868
 30
0.0
 11
4181.4241263288941
 21
2637.469038189613
 31
0.0
  0
SOLID
  5
D1BF
  8
DIM
 62
    52
 10
4176.424126328895
 20
2895.1836761604868
 30
0.0
 11
4186.424126328895
 21
2895.1836761604868
 31
0.0
 12
4181.4241263288941
 22
2925.1836761604868
 32
0.0
 13
4181.4241263288941
 23
2925.1836761604868
 33
0.0
  0
LINE
  5
D1C0
  8
OUTLINE
 10
4011.448588609223
 20
2314.9836761604879
 30
0.0
 11
3946.6485886092219
 21
2250.183676160485
 31
0.0
  0
LINE
  5
D1C1
  8
OUTLINE
 10
4011.448588609223
 20
2848.983676160487
 30
0.0
 11
3947.848588609224
 21
2912.5836761604851
 31
0.0
  0
LINE
  5
D1C2
  8
DIM
 62
    52
 10
3974.1976718076698
 20
2237.5836761604869
 30
0.0
 11
4201.424126328895
 21
2237.5836761604869
 31
0.0
  0
LINE
  5
D1C3
  8
DIM
 62
    52
 10
3973.975615877825
 20
2925.1836761604868
 30
0.0
 11
4201.424126328895
 21
2925.1836761604868
 31
0.0
  0
LINE
  5
D1C4
  8
OUTLINE
 10
2452.6526300826108
 20
2250.1836761604859
 30
0.0
 11
2389.0526300826091
 21
2313.7836761604849
 31
0.0
  0
LINE
  5
D1C5
  8
OUTLINE
 10
2389.0526300826091
 20
2850.185160752188
 30
0.0
 11
2451.454114744954
 21
2912.5836761604851
 31
0.0
  0
LINE
  5
D1C6
  8
OUTLINE
 10
3986.0526300826091
 20
938.48860399980742
 30
0.0
 11
3986.0526300826091
 21
1391.445110413071
 31
0.0
  0
LINE
  5
D1C7
  8
OUTLINE
 10
4012.0526300826091
 20
1503.4886039998071
 30
0.0
 11
4012.0526300826091
 21
1512.4886039998071
 31
0.0
  0
LINE
  5
D1C8
  8
OUTLINE
 10
4012.0526300826091
 20
1512.4886039998071
 30
0.0
 11
2389.0526300826091
 21
1512.4886039998071
 31
0.0
  0
LINE
  5
D1C9
  8
OUTLINE
 10
2415.05263008261
 20
938.48860399980822
 30
0.0
 11
2415.0526300826091
 21
1391.445110413071
 31
0.0
  0
LINE
  5
D1CA
  8
OUTLINE
 10
2389.0526300826091
 20
1503.488603999808
 30
0.0
 11
2389.0526300826091
 21
1512.4886039998071
 31
0.0
  0
LINE
  5
D1CB
  8
OUTLINE
 10
3996.0526300826082
 20
938.48860399980742
 30
0.0
 11
2405.0526300826091
 21
938.48860399980822
 31
0.0
  0
LINE
  5
D1CC
  8
OUTLINE
 10
2509.5526300826091
 20
1440.9886039998071
 30
0.0
 11
3889.55263008261
 21
1440.9886039998071
 31
0.0
  0
LINE
  5
D1CD
  8
OUTLINE
 10
2509.5526300826091
 20
1018.988603999807
 30
0.0
 11
3889.55263008261
 21
1018.988603999807
 31
0.0
  0
LINE
  5
D1CE
  8
OUTLINE
 10
2509.5526300826091
 20
1440.9886039998071
 30
0.0
 11
2509.5526300826091
 21
1018.988603999807
 31
0.0
  0
LINE
  5
D1CF
  8
OUTLINE
 10
3889.55263008261
 20
1440.9886039998071
 30
0.0
 11
3889.55263008261
 21
1018.988603999807
 31
0.0
  0
LINE
  5
D1D0
  8
OUTLINE
 10
3995.0526300826091
 20
1468.445110413071
 30
0.0
 11
3995.0526300826091
 21
1398.445110413071
 31
0.0
  0
LINE
  5
D1D1
  8
OUTLINE
 10
3948.05263008261
 20
1468.445110413071
 30
0.0
 11
3948.05263008261
 21
1398.445110413071
 31
0.0
  0
LINE
  5
D1D2
  8
OUTLINE
 10
3948.05263008261
 20
1398.445110413071
 30
0.0
 11
3995.0526300826091
 21
1398.445110413071
 31
0.0
  0
LINE
  5
D1D3
  8
OUTLINE
 10
3989.0526300826091
 20
1391.445110413071
 30
0.0
 11
3954.0526300826091
 21
1391.445110413071
 31
0.0
  0
LINE
  5
D1D4
  8
OUTLINE
 10
3954.0526300826091
 20
1391.445110413071
 30
0.0
 11
3954.0526300826091
 21
1398.445110413071
 31
0.0
  0
LINE
  5
D1D5
  8
OUTLINE
 10
3989.0526300826091
 20
1391.445110413071
 30
0.0
 11
3989.05263008261
 21
1398.445110413071
 31
0.0
  0
LINE
  5
D1D6
  8
OUTLINE
 10
3948.05263008261
 20
1468.445110413071
 30
0.0
 11
3995.0526300826091
 21
1468.445110413071
 31
0.0
  0
LINE
  5
D1D7
  8
OUTLINE
 10
2406.0526300826091
 20
1468.445110413071
 30
0.0
 11
2406.0526300826091
 21
1398.445110413071
 31
0.0
  0
LINE
  5
D1D8
  8
OUTLINE
 10
2453.0526300826082
 20
1468.445110413071
 30
0.0
 11
2453.0526300826082
 21
1398.445110413071
 31
0.0
  0
LINE
  5
D1D9
  8
OUTLINE
 10
2447.0526300826082
 20
1391.445110413071
 30
0.0
 11
2412.0526300826082
 21
1391.445110413071
 31
0.0
  0
LINE
  5
D1DA
  8
OUTLINE
 10
2406.0526300826091
 20
1398.445110413071
 30
0.0
 11
2453.0526300826082
 21
1398.445110413071
 31
0.0
  0
LINE
  5
D1DB
  8
OUTLINE
 10
2412.0526300826082
 20
1391.445110413071
 30
0.0
 11
2412.0526300826082
 21
1398.445110413071
 31
0.0
  0
LINE
  5
D1DC
  8
OUTLINE
 10
2447.0526300826082
 20
1391.445110413071
 30
0.0
 11
2447.0526300826082
 21
1398.445110413071
 31
0.0
  0
LINE
  5
D1DD
  8
OUTLINE
 10
2406.0526300826091
 20
1468.445110413071
 30
0.0
 11
2453.0526300826082
 21
1468.445110413071
 31
0.0
  0
LINE
  5
D1DE
  8
OUTLINE
 10
3986.0526300826091
 20
1468.445110413071
 30
0.0
 11
3986.05263008261
 21
1512.4886039998071
 31
0.0
  0
LINE
  5
D1DF
  8
OUTLINE
 10
2415.0526300826091
 20
1468.445110413071
 30
0.0
 11
2415.0526300826091
 21
1512.4886039998071
 31
0.0
  0
TEXT
  5
D1E0
  8
DIM
 62
    50
 10
4147.1590569448599
 20
1186.2028897140931
 30
0.0
 40
30.0
  1
574
 50
90.0
  7
TITLE3
 72
     1
 11
4132.1590569448599
 21
1225.4886039998071
 31
0.0
 73
     2
  0
LINE
  5
D1E1
  8
DIM
 62
    52
 10
4013.246704953227
 20
938.48860399980742
 30
0.0
 11
4152.159056944859
 21
938.48860399980742
 31
0.0
  0
LINE
  5
D1E2
  8
DIM
 62
    52
 10
4132.1590569448599
 20
968.4886039998072
 30
0.0
 11
4132.1590569448599
 21
1164.44756937085
 31
0.0
  0
SOLID
  5
D1E3
  8
DIM
 62
    52
 10
4127.1590569448599
 20
968.4886039998072
 30
0.0
 11
4137.159056944859
 21
968.4886039998072
 31
0.0
 12
4132.1590569448599
 22
938.48860399980742
 32
0.0
 13
4132.1590569448599
 23
938.48860399980742
 33
0.0
  0
SOLID
  5
D1E4
  8
DIM
 62
    52
 10
4127.1590569448599
 20
1482.4886039998071
 30
0.0
 11
4137.159056944859
 21
1482.4886039998071
 31
0.0
 12
4132.1590569448599
 22
1512.4886039998071
 32
0.0
 13
4132.1590569448599
 23
1512.4886039998071
 33
0.0
  0
LINE
  5
D1E5
  8
DIM
 62
    52
 10
4029.246704953227
 20
1512.4886039998071
 30
0.0
 11
4152.159056944859
 21
1512.4886039998071
 31
0.0
  0
LINE
  5
D1E6
  8
DIM
 62
    52
 10
4132.1590569448599
 20
1482.4886039998071
 30
0.0
 11
4132.1590569448599
 21
1283.2894363017799
 31
0.0
  0
LINE
  5
D1E7
  8
DIM
 62
    52
 10
2389.0526300826091
 20
1532.488603999808
 30
0.0
 11
2389.0526300826091
 21
1646.468402412233
 31
0.0
  0
LINE
  5
D1E8
  8
DIM
 62
    52
 10
4012.0526300826091
 20
1532.4886039998071
 30
0.0
 11
4012.0526300826091
 21
1646.468402412233
 31
0.0
  0
LINE
  5
D1E9
  8
DIM
 62
    52
 10
2419.0526300826091
 20
1623.834904393023
 30
0.0
 11
3127.649518221524
 21
1623.834904393023
 31
0.0
  0
LINE
  5
D1EA
  8
DIM
 62
    52
 10
3982.0526300826091
 20
1623.834904393023
 30
0.0
 11
3275.6398893319479
 21
1623.834904393023
 31
0.0
  0
SOLID
  5
D1EB
  8
DIM
 62
    52
 10
2419.0526300826091
 20
1628.834904393023
 30
0.0
 11
2419.0526300826091
 21
1618.834904393023
 31
0.0
 12
2389.0526300826091
 22
1623.834904393023
 32
0.0
 13
2389.0526300826091
 23
1623.834904393023
 33
0.0
  0
SOLID
  5
D1EC
  8
DIM
 62
    52
 10
3982.0526300826091
 20
1628.834904393023
 30
0.0
 11
3982.0526300826091
 21
1618.834904393023
 31
0.0
 12
4012.0526300826091
 22
1623.834904393023
 32
0.0
 13
4012.0526300826091
 23
1623.834904393023
 33
0.0
  0
TEXT
  5
D1ED
  8
DIM
 62
    50
 10
3150.55263008261
 20
1608.834904393023
 30
0.0
 40
30.0
  1
1623
  7
TITLE3
 72
     1
 11
3200.55263008261
 21
1623.834904393023
 31
0.0
 73
     2
  0
LINE
  5
D1EE
  8
OVERLAY-A3
 10
885.79112984539654
 20
0.0
 30
0.0
 11
4862.5
 21
0.0
 31
0.0
  0
LINE
  5
D1EF
  8
OVERLAY-A3
 10
885.79112984539654
 20
3159.026567930719
 30
0.0
 11
885.79112984539654
 21
0.0
 31
0.0
  0
LINE
  5
D1F0
  8
OVERLAY-A3
 10
3524.189411821435
 20
385.93219036828481
 30
0.0
 11
3524.189411821435
 21
26.053116060396849
 31
0.0
  0
LINE
  5
D1F1
  8
OVERLAY-A3
 10
3524.189411821435
 20
26.053116060396849
 30
0.0
 11
4826.5974475743642
 21
26.053116060396849
 31
0.0
  0
LINE
  5
D1F2
  8
OVERLAY-A3
 10
4826.9693315473014
 20
210.33581963568381
 30
0.0
 11
3524.189411821435
 21
210.33581963568381
 31
0.0
  0
LINE
  5
D1F3
  8
OVERLAY-A3
 10
4271.1420975163674
 20
116.6407490868294
 30
0.0
 11
3524.189411821435
 21
116.6407490868294
 31
0.0
  0
TEXT
  5
D1F4
  8
OVERLAY-A3
 10
3555.6040238788878
 20
59.903110081697371
 30
0.0
 40
25.0
  1
Scale
 41
1.3701747965659781
  7
SIMPLEX
 72
     5
 11
3681.2033802307692
 21
59.903110081697371
 31
0.0
  0
LINE
  5
D1F5
  8
OVERLAY-A3
 10
4826.5974475743642
 20
385.93219036828481
 30
0.0
 11
3524.189411821435
 21
385.93219036828481
 31
0.0
  0
LINE
  5
D1F6
  8
OVERLAY-A3
 10
4862.5
 20
0.0
 30
0.0
 11
4862.5
 21
3159.026567930719
 31
0.0
  0
LINE
  5
D1F7
  8
OVERLAY-A3
 10
4826.5974475743642
 20
26.053116060396849
 30
0.0
 11
4826.5974475743642
 21
385.93219036828481
 31
0.0
  0
LINE
  5
D1F8
  8
OVERLAY-A3
 10
4668.1141874876994
 20
26.053116060396849
 30
0.0
 11
4668.1141874876994
 21
210.3358196356829
 31
0.0
  0
TEXT
  5
D1F9
  8
OVERLAY-A3
 10
4682.6389904670032
 20
161.87912752926411
 30
0.0
 40
30.0
  1
Revision
 41
0.7812095035934841
  7
SIMPLEX
 72
     5
 11
4814.3285925013333
 21
161.87912752926411
 31
0.0
  0
TEXT
  5
D1FA
  8
OVERLAY-A3
 10
4343.5739045009959
 20
161.11678938338699
 30
0.0
 40
25.0
  1
Drawing No.
  7
SIMPLEX
 72
     2
 11
4561.431047358139
 21
161.11678938338699
 31
0.0
  0
TEXT
  5
D1FB
  8
OVERLAY-A3
 10
3554.6166448997801
 20
138.53901732512611
 30
0.0
 40
30.0
  1
Date
  7
SIMPLEX
  0
LINE
  5
D1FC
  8
OVERLAY-A3
 10
4862.5
 20
3159.026567930719
 30
0.0
 11
885.79112984539654
 21
3159.026567930719
 31
0.0
  0
LINE
  5
D1FD
  8
OVERLAY-A3
 10
4271.1420975163674
 20
26.053116060396849
 30
0.0
 11
4271.1420975163674
 21
210.3358196356829
 31
0.0
  0
LINE
  5
D1FE
  8
OUTLINE
 10
2329.3506093459159
 20
1017.4028599746561
 30
0.0
 11
2329.3506093459191
 21
1067.0410599746581
 31
0.0
  0
LINE
  5
D1FF
  8
OUTLINE
 10
2329.3506093459159
 20
1053.6528599746559
 30
0.0
 11
2329.3506093459159
 21
1018.6528599746561
 31
0.0
  0
LINE
  5
D200
  8
OUTLINE
 10
2415.05263008261
 20
1015.4028599746561
 30
0.0
 11
2331.3506093459182
 21
1015.4028599746561
 31
0.0
  0
LINE
  5
D201
  8
OUTLINE
 10
2329.3506093459159
 20
1020.159259974656
 30
0.0
 11
2329.3506093459159
 21
1052.146459974655
 31
0.0
  0
LINE
  5
D202
  8
OUTLINE
 10
2331.3506093459182
 20
1015.4028599746561
 30
0.0
 11
2329.3506093459159
 21
1017.4028599746561
 31
0.0
  0
LINE
  5
D203
  8
OUTLINE
 10
2415.05263008261
 20
1056.9028599746559
 30
0.0
 11
2331.3506093459182
 21
1056.9028599746559
 31
0.0
  0
LINE
  5
D204
  8
OUTLINE
 10
2331.3506093459182
 20
1056.9028599746559
 30
0.0
 11
2329.3506093459182
 21
1054.9028599746559
 31
0.0
  0
LINE
  5
D205
  8
OUTLINE
 10
2329.3506093459159
 20
1240.5278599746571
 30
0.0
 11
2329.3506093459159
 21
1278.0278599746571
 31
0.0
  0
LINE
  5
D206
  8
OUTLINE
 10
2329.3506093459159
 20
1276.7778599746571
 30
0.0
 11
2329.3506093459159
 21
1241.7778599746559
 31
0.0
  0
LINE
  5
D207
  8
OUTLINE
 10
2329.3506093459159
 20
1243.2842599746571
 30
0.0
 11
2329.3506093459159
 21
1275.271459974655
 31
0.0
  0
LINE
  5
D208
  8
OUTLINE
 10
2331.350609345915
 20
1238.5278599746571
 30
0.0
 11
2329.3506093459159
 21
1240.5278599746571
 31
0.0
  0
LINE
  5
D209
  8
OUTLINE
 10
2415.05263008261
 20
1280.0278599746571
 30
0.0
 11
2331.350609345915
 21
1280.0278599746571
 31
0.0
  0
LINE
  5
D20A
  8
OUTLINE
 10
2331.350609345915
 20
1280.0278599746571
 30
0.0
 11
2329.3506093459159
 21
1278.0278599746571
 31
0.0
  0
LINE
  5
D20B
  8
OUTLINE
 10
2356.3506093459182
 20
1447.282859974657
 30
0.0
 11
2331.3506093459182
 21
1447.282859974657
 31
0.0
  0
LINE
  5
D20C
  8
OUTLINE
 10
2356.3506093459182
 20
1405.782859974657
 30
0.0
 11
2331.3506093459182
 21
1405.782859974657
 31
0.0
  0
LINE
  5
D20D
  8
OUTLINE
 10
2331.3506093459182
 20
1447.282859974657
 30
0.0
 11
2329.3506093459182
 21
1445.282859974656
 31
0.0
  0
LINE
  5
D20E
  8
OUTLINE
 10
2331.3506093459182
 20
1405.782859974657
 30
0.0
 11
2329.3506093459159
 21
1407.782859974656
 31
0.0
  0
LINE
  5
D20F
  8
OUTLINE
 10
2415.05263008261
 20
1224.157859974656
 30
0.0
 11
2331.3506093459182
 21
1224.157859974656
 31
0.0
  0
LINE
  5
D210
  8
OUTLINE
 10
2415.05263008261
 20
1182.657859974656
 30
0.0
 11
2331.3506093459182
 21
1182.657859974656
 31
0.0
  0
LINE
  5
D211
  8
OUTLINE
 10
2331.3506093459182
 20
1224.157859974656
 30
0.0
 11
2329.3506093459182
 21
1222.157859974656
 31
0.0
  0
LINE
  5
D212
  8
OUTLINE
 10
2331.3506093459182
 20
1182.657859974656
 30
0.0
 11
2329.3506093459159
 21
1184.657859974656
 31
0.0
  0
LINE
  5
D213
  8
OUTLINE
 10
2329.3506093459159
 20
1184.657859974656
 30
0.0
 11
2329.3506093459182
 21
1222.157859974656
 31
0.0
  0
LINE
  5
D214
  8
OUTLINE
 10
2329.3506093459159
 20
1220.907859974656
 30
0.0
 11
2329.3506093459159
 21
1185.9078599746549
 31
0.0
  0
LINE
  5
D215
  8
OUTLINE
 10
2329.3506093459159
 20
1187.414259974656
 30
0.0
 11
2329.3506093459159
 21
1219.4014599746561
 31
0.0
  0
CIRCLE
  5
D216
  8
OUTLINE
 10
1814.847911175249
 20
1426.532859974654
 30
0.0
 40
22.190759914580489
  0
CIRCLE
  5
D217
  8
OUTLINE
 10
1814.847911175249
 20
1203.407859974654
 30
0.0
 40
22.190759914580489
  0
CIRCLE
  5
D218
  8
OUTLINE
 10
1732.347911175249
 20
1259.2778599746559
 30
0.0
 40
22.190759914580489
  0
CIRCLE
  5
D219
  8
OUTLINE
 10
1732.347911175249
 20
1036.1528599746559
 30
0.0
 40
22.190759914580489
  0
CIRCLE
  5
D21A
  8
OUTLINE
 10
1698.347911175249
 20
1413.9093064047499
 30
0.0
 40
22.5
  0
CIRCLE
  5
D21B
  8
OUTLINE
 10
1653.346072413003
 20
1048.779306404751
 30
0.0
 40
22.5
  0
LINE
  5
D21C
  8
OUTLINE
 10
2356.440609345917
 20
1392.6710599746559
 30
0.0
 11
2331.440609345917
 21
1392.6710599746559
 31
0.0
  0
LINE
  5
D21D
  8
OUTLINE
 10
2331.440609345917
 20
1392.6710599746559
 30
0.0
 11
2329.440609345917
 21
1394.6710599746559
 31
0.0
  0
LINE
  5
D21E
  8
OUTLINE
 10
2415.05263008261
 20
1069.041059974656
 30
0.0
 11
2331.3506093459182
 21
1069.041059974656
 31
0.0
  0
LINE
  5
D21F
  8
OUTLINE
 10
2331.3506093459182
 20
1069.041059974656
 30
0.0
 11
2329.3506093459191
 21
1067.0410599746581
 31
0.0
  0
LINE
  5
D220
  8
OUTLINE
  6
CONTINUOUS
 10
2354.6506093459129
 20
993.83963885593425
 30
0.0
 11
2415.05263008261
 21
993.83963885593312
 31
0.0
  0
LINE
  5
D221
  8
OUTLINE
  6
CONTINUOUS
 10
2354.6506093459129
 20
965.83963885593403
 30
0.0
 11
2415.05263008261
 21
965.83963885593323
 31
0.0
  0
LINE
  5
D222
  8
OUTLINE
  6
CONTINUOUS
 10
2354.6506093459129
 20
965.83963885593403
 30
0.0
 11
2354.6506093459129
 21
993.83963885593425
 31
0.0
  0
LINE
  5
D223
  8
OUTLINE
 10
2329.3506093459159
 20
1242.1231594362771
 30
0.0
 11
2329.3506093459159
 21
1240.5278599746571
 31
0.0
  0
LINE
  5
D224
  8
OUTLINE
 10
2329.3506093459159
 20
1240.5278599746571
 30
0.0
 11
2331.350609345915
 21
1238.5278599746571
 31
0.0
  0
TEXT
  5
D225
  8
TEXT
 10
3717.3888354090209
 20
58.171226730493792
 30
0.0
 40
30.0
  1
1:10
  7
TITLE3
  0
TEXT
  5
D226
  8
TEXT
 10
4359.4160070624112
 20
65.241122482512765
 30
0.0
 40
30.0
  1
IMD420
  7
TITLE3
  0
TEXT
  5
D227
  8
TEXT
 10
3987.9953271797472
 20
268.50049570344521
 30
0.0
 40
60.0
  1
IMD420
  7
TITLE3
  0
INSERT
  5
D228
  8
TEXT
  2
NEW_BLOCK0
 10
936.21864270843992
 20
39.89682251378234
 30
0.0
 41
1.1999999999999991
 42
1.1999999999999991
 43
1.1999999999999991
  0
LINE
  5
D229
  8
CLEAR
 10
1920.252630082608
 20
2282.583676160486
 30
0.0
 11
1920.252630082608
 21
2881.3836761604871
 31
0.0
  0
LINE
  5
D22A
  8
CLEAR
 10
4479.048588609222
 20
2282.583676160486
 30
0.0
 11
4479.0485886092229
 21
2881.3836761604871
 31
0.0
  0
LINE
  5
D22B
  8
OUTLINE
 10
2412.0526300826082
 20
1392.6710599746559
 30
0.0
 11
2331.440609345917
 21
1392.6710599746559
 31
0.0
  0
LINE
  5
D22C
  8
OUTLINE
 10
2331.440609345917
 20
1392.6710599746559
 30
0.0
 11
2329.3506093459182
 21
1394.7610599746561
 31
0.0
  0
LINE
  5
D22D
  8
OUTLINE
 10
2329.3506093459159
 20
1407.782859974656
 30
0.0
 11
2331.3506093459182
 21
1405.782859974657
 31
0.0
  0
LINE
  5
D22E
  8
OUTLINE
 10
2331.3506093459182
 20
1405.782859974657
 30
0.0
 11
2406.0526300826082
 21
1405.782859974657
 31
0.0
  0
LINE
  5
D22F
  8
OUTLINE
 10
2406.0526300826082
 20
1447.282859974657
 30
0.0
 11
2331.3506093459182
 21
1447.282859974657
 31
0.0
  0
LINE
  5
D230
  8
OUTLINE
 10
2331.3506093459182
 20
1447.282859974657
 30
0.0
 11
2329.3506093459182
 21
1445.282859974656
 31
0.0
  0
LINE
  5
D231
  8
OUTLINE
 10
2329.3506093459182
 20
1445.282859974656
 30
0.0
 11
2329.3506093459182
 21
1394.7610599746561
 31
0.0
  0
LINE
  5
D232
  8
OUTLINE
 10
2331.350609345915
 20
1238.5278599746571
 30
0.0
 11
2415.0526300826091
 21
1238.5278599746571
 31
0.0
  0
LINE
  5
D233
  8
CLEAR
 10
2420.2526300826089
 20
2881.3836761604871
 30
0.0
 11
1920.252630082608
 21
2881.3836761604871
 31
0.0
  0
LINE
  5
D234
  8
CLEAR
 10
2420.2526300826089
 20
2282.583676160486
 30
0.0
 11
1920.252630082608
 21
2282.583676160486
 31
0.0
  0
TEXT
  5
D235
  8
TEXT
  6
PHANTOM2
 10
1996.4147367747951
 20
2415.3954264681829
 30
0.0
 40
45.0
  1
500 min 
 50
90.0
  7
TITLE3
  0
TEXT
  5
D236
  8
TEXT
  6
PHANTOM2
 10
2073.557593917652
 20
2383.1581282254119
 30
0.0
 40
45.0
  1
CLEARANCE
 50
90.0
  7
TITLE3
  0
TEXT
  5
D237
  8
TEXT
  6
PHANTOM2
 10
4442.8610544255725
 20
2383.1581282254119
 30
0.0
 40
45.0
  1
CLEARANCE
 50
90.0
  7
TITLE3
  0
TEXT
  5
D238
  8
TEXT
  6
PHANTOM2
 10
4365.7181972827129
 20
2415.3954264681829
 30
0.0
 40
45.0
  1
500 min 
 50
90.0
  7
TITLE3
  0
LINE
  5
D239
  8
CLEAR
 10
3979.048588609222
 20
2881.3836761604871
 30
0.0
 11
4479.0485886092229
 21
2881.3836761604871
 31
0.0
  0
LINE
  5
D23A
  8
CLEAR
 10
3979.048588609222
 20
2282.583676160486
 30
0.0
 11
4479.048588609222
 21
2282.583676160486
 31
0.0
  0
TEXT
  5
D23B
  8
TEXT
 10
3021.6455135679821
 20
1205.109065524686
 30
0.0
 40
60.0
  1
IMD420
  7
TITLE3
  0
TEXT
  5
D23C
  8
TEXT
 10
3062.395204362394
 20
2560.573646659946
 30
0.0
 40
60.0
  1
IMD420
  7
TITLE3
  0
TEXT
  5
D23D
  8
TEXT
 10
1339.265413838011
 20
1222.561403007343
 30
0.0
 40
60.0
  1
IMD420
  7
TITLE3
  0
LINE
  5
D23E
  8
DIM
 10
3171.732842473974
 20
2272.5459018125298
 30
0.0
 11
3143.1568461223092
 21
2225.5418203202112
 31
0.0
  0
LINE
  5
D23F
  8
DIM
 10
3171.732842473974
 20
2272.5459018125298
 30
0.0
 11
3200.3088388256369
 21
2225.5418203202112
 31
0.0
  0
LINE
  5
D240
  8
DIM
 10
3143.1568461223092
 20
2225.5418203202112
 30
0.0
 11
3160.9058286759418
 21
2225.5418203202112
 31
0.0
  0
LINE
  5
D241
  8
DIM
 10
3160.9058286759418
 20
2225.5418203202112
 30
0.0
 11
3160.9058286759418
 21
2170.5559176126649
 31
0.0
  0
LINE
  5
D242
  8
DIM
 10
3182.559856272007
 20
2225.5418203202112
 30
0.0
 11
3182.559856272007
 21
2170.5559176126649
 31
0.0
  0
LINE
  5
D243
  8
DIM
 10
3160.9058286759418
 20
2170.5559176126649
 30
0.0
 11
3182.559856272007
 21
2170.5559176126649
 31
0.0
  0
LINE
  5
D244
  8
DIM
 10
3200.3088388256369
 20
2225.5418203202112
 30
0.0
 11
3182.559856272007
 21
2225.5418203202112
 31
0.0
  0
LINE
  5
D245
  8
DIM
 10
3191.932001796441
 20
2959.1091939816461
 30
0.0
 11
3191.932001796441
 21
2904.1232912741011
 31
0.0
  0
LINE
  5
D246
  8
DIM
 10
3213.5860293925061
 20
2959.1091939816461
 30
0.0
 11
3213.5860293925061
 21
2904.1232912741011
 31
0.0
  0
LINE
  5
D247
  8
DIM
 10
3191.932001796441
 20
2904.1232912741011
 30
0.0
 11
3213.5860293925061
 21
2904.1232912741011
 31
0.0
  0
LINE
  5
D248
  8
DIM
 10
3202.7590155944731
 20
3006.1132754739642
 30
0.0
 11
3174.1830192428092
 21
2959.1091939816461
 31
0.0
  0
LINE
  5
D249
  8
DIM
 10
3174.1830192428092
 20
2959.1091939816461
 30
0.0
 11
3191.932001796441
 21
2959.1091939816461
 31
0.0
  0
LINE
  5
D24A
  8
DIM
 10
3231.335011946137
 20
2959.1091939816461
 30
0.0
 11
3213.5860293925061
 21
2959.1091939816461
 31
0.0
  0
LINE
  5
D24B
  8
DIM
 10
3202.7590155944731
 20
3006.1132754739642
 30
0.0
 11
3231.335011946137
 21
2959.1091939816461
 31
0.0
  0
ENDSEC
  0
EOF
