  0
SECTION
  2
HEADER
  9
$ACADVER
  1
AC1009
  9
$INSBASE
 10
0.0
 20
0.0
 30
0.0
  9
$EXTMIN
 10
1019.56237816698
 20
0.0
 30
0.0
  9
$EXTMAX
 10
3890.0
 20
2508.1488385565358
 30
0.0
  9
$LIMMIN
 10
0.0
 20
0.0
  9
$LIMMAX
 10
3890.0
 20
2660.0
  9
$ORTHOMODE
 70
     1
  9
$REGENMODE
 70
     1
  9
$FILLMODE
 70
     1
  9
$QTEXTMODE
 70
     0
  9
$MIRRTEXT
 70
     0
  9
$DRAGMODE
 70
     2
  9
$LTSCALE
 40
100.0
  9
$OSMODE
 70
     0
  9
$ATTMODE
 70
     1
  9
$TEXTSIZE
 40
30.0
  9
$TRACEWID
 40
0.05
  9
$TEXTSTYLE
  7
TITLE3
  9
$CLAYER
  8
CLEAR
  9
$CELTYPE
  6
BYLAYER
  9
$CECOLOR
 62
   256
  9
$DIMSCALE
 40
1.0
  9
$DIMASZ
 40
30.0
  9
$DIMEXO
 40
20.0
  9
$DIMDLI
 40
0.38
  9
$DIMRND
 40
0.0
  9
$DIMDLE
 40
0.0
  9
$DIMEXE
 40
20.0
  9
$DIMTP
 40
0.0
  9
$DIMTM
 40
0.0
  9
$DIMTXT
 40
30.0
  9
$DIMCEN
 40
0.09
  9
$DIMTSZ
 40
0.0
  9
$DIMTOL
 70
     0
  9
$DIMLIM
 70
     0
  9
$DIMTIH
 70
     0
  9
$DIMTOH
 70
     0
  9
$DIMSE1
 70
     0
  9
$DIMSE2
 70
     0
  9
$DIMTAD
 70
     0
  9
$DIMZIN
 70
     0
  9
$DIMBLK
  1

  9
$DIMASO
 70
     0
  9
$DIMSHO
 70
     0
  9
$DIMPOST
  1

  9
$DIMAPOST
  1

  9
$DIMALT
 70
     0
  9
$DIMALTD
 70
     2
  9
$DIMALTF
 40
25.399999999999999
  9
$DIMLFAC
 40
1.0
  9
$DIMTOFL
 70
     0
  9
$DIMTVP
 40
0.0
  9
$DIMTIX
 70
     0
  9
$DIMSOXD
 70
     0
  9
$DIMSAH
 70
     0
  9
$DIMBLK1
  1

  9
$DIMBLK2
  1

  9
$DIMSTYLE
  2
STANDARD
  9
$DIMCLRD
 70
    52
  9
$DIMCLRE
 70
    52
  9
$DIMCLRT
 70
    50
  9
$DIMTFAC
 40
1.0
  9
$DIMGAP
 40
20.0
  9
$LUNITS
 70
     2
  9
$LUPREC
 70
     2
  9
$SKETCHINC
 40
0.1
  9
$FILLETRAD
 40
0.0
  9
$AUNITS
 70
     0
  9
$AUPREC
 70
     2
  9
$MENU
  1
\acad12\support\cnc
  9
$ELEVATION
 40
0.0
  9
$PELEVATION
 40
0.0
  9
$THICKNESS
 40
0.0
  9
$LIMCHECK
 70
     0
  9
$BLIPMODE
 70
     0
  9
$CHAMFERA
 40
0.0
  9
$CHAMFERB
 40
0.0
  9
$SKPOLY
 70
     0
  9
$TDCREATE
 40
2450764.4689155091
  9
$TDUPDATE
 40
2452929.5971336002
  9
$TDINDWG
 40
0.1253294444
  9
$TDUSRTIMER
 40
0.1253292593
  9
$USRTIMER
 70
     1
  9
$ANGBASE
 50
0.0
  9
$ANGDIR
 70
     0
  9
$PDMODE
 70
     2
  9
$PDSIZE
 40
10.0
  9
$PLINEWID
 40
0.0
  9
$COORDS
 70
     2
  9
$SPLFRAME
 70
     0
  9
$SPLINETYPE
 70
     6
  9
$SPLINESEGS
 70
     8
  9
$ATTDIA
 70
     0
  9
$ATTREQ
 70
     1
  9
$HANDLING
 70
 22529
  9
$HANDSEED
  5
693E
  9
$SURFTAB1
 70
     6
  9
$SURFTAB2
 70
     6
  9
$SURFTYPE
 70
     6
  9
$SURFU
 70
     6
  9
$SURFV
 70
     6
  9
$UCSNAME
  2

  9
$UCSORG
 10
0.0
 20
0.0
 30
0.0
  9
$UCSXDIR
 10
1.0
 20
0.0
 30
0.0
  9
$UCSYDIR
 10
0.0
 20
1.0
 30
0.0
  9
$PUCSNAME
  2

  9
$PUCSORG
 10
0.0
 20
0.0
 30
0.0
  9
$PUCSXDIR
 10
1.0
 20
0.0
 30
0.0
  9
$PUCSYDIR
 10
0.0
 20
1.0
 30
0.0
  9
$USERI1
 70
     0
  9
$USERI2
 70
     0
  9
$USERI3
 70
     0
  9
$USERI4
 70
     0
  9
$USERI5
 70
     0
  9
$USERR1
 40
0.0
  9
$USERR2
 40
0.0
  9
$USERR3
 40
0.0
  9
$USERR4
 40
0.0
  9
$USERR5
 40
0.0
  9
$WORLDVIEW
 70
     1
  9
$SHADEDGE
 70
     3
  9
$SHADEDIF
 70
    70
  9
$TILEMODE
 70
     1
  9
$MAXACTVP
 70
    16
  9
$PLIMCHECK
 70
     0
  9
$PEXTMIN
 10
1.0000000000000000E+020
 20
1.0000000000000000E+020
 30
1.0000000000000000E+020
  9
$PEXTMAX
 10
-1.0000000000000000E+020
 20
-1.0000000000000000E+020
 30
-1.0000000000000000E+020
  9
$PLIMMIN
 10
0.0
 20
0.0
  9
$PLIMMAX
 10
12.0
 20
9.0
  9
$UNITMODE
 70
     0
  9
$VISRETAIN
 70
     0
  9
$PLINEGEN
 70
     0
  9
$PSLTSCALE
 70
     0
  0
ENDSEC
  0
SECTION
  2
TABLES
  0
TABLE
  2
VPORT
 70
     2
  0
VPORT
  2
*ACTIVE
 70
     0
 10
0.0
 20
0.0
 11
1.0
 21
1.0
 12
2454.8004983243359
 22
1254.0568361524699
 13
0.0
 23
0.0
 14
25.0
 24
25.0
 15
100.0
 25
100.0
 16
0.0
 26
0.0
 36
1.0
 17
0.0
 27
0.0
 37
0.0
 40
2535.8529863972371
 41
1.5912408759124079
 42
50.0
 43
0.0
 44
0.0
 50
0.0
 51
0.0
 71
     0
 72
   100
 73
     1
 74
     0
 75
     0
 76
     0
 77
     0
 78
     0
  0
ENDTAB
  0
TABLE
  2
LTYPE
 70
     3
  0
LTYPE
  2
CONTINUOUS
 70
     0
  3
Solid line
 72
    65
 73
     0
 40
0.0
  0
LTYPE
  2
HIDDEN
 70
     0
  3
_ _ _ _ _ _ _ _ _ _ _ _ _ _ _ _ _ _ _ _ _ _ _
 72
    65
 73
     2
 40
0.375
 49
0.25
 49
-0.125
  0
LTYPE
  2
PHANTOM2
 70
     0
  3
Phantom (.5x) ___ _ _ ___ _ _ ___ _ _ ___ _ _
 72
    65
 73
     6
 40
1.25
 49
0.625
 49
-0.125
 49
0.125
 49
-0.125
 49
0.125
 49
-0.125
  0
ENDTAB
  0
TABLE
  2
LAYER
 70
    10
  0
LAYER
  2
0
 70
     0
 62
     7
  6
CONTINUOUS
  0
LAYER
  2
CLEAR
 70
     0
 62
     1
  6
PHANTOM2
  0
LAYER
  2
OVERLAY-A3
 70
     0
 62
     7
  6
CONTINUOUS
  0
LAYER
  2
OUTLINE
 70
     0
 62
     7
  6
CONTINUOUS
  0
LAYER
  2
TEXT
 70
     0
 62
   100
  6
CONTINUOUS
  0
LAYER
  2
DIM
 70
     0
 62
    50
  6
CONTINUOUS
  0
LAYER
  2
NODES
 70
     0
 62
     7
  6
CONTINUOUS
  0
LAYER
  2
OVAL
 70
     0
 62
     7
  6
CONTINUOUS
  0
LAYER
  2
ASHADE
 70
     4
 62
     7
  6
CONTINUOUS
  0
LAYER
  2
AME_FRZ
 70
     0
 62
     7
  6
CONTINUOUS
  0
ENDTAB
  0
TABLE
  2
STYLE
 70
     3
  0
STYLE
  2
STANDARD
 70
     0
 40
0.0
 41
1.0
 50
0.0
 71
     0
 42
0.2
  3
txt
  4

  0
STYLE
  2
TITLE3
 70
     0
 40
30.0
 41
1.0
 50
0.0
 71
     0
 42
30.0
  3
SIMPLEX
  4

  0
STYLE
  2
SIMPLEX
 70
     0
 40
40.0
 41
1.0
 50
0.0
 71
     0
 42
25.0
  3
SIMPLEX
  4

  0
ENDTAB
  0
TABLE
  2
VIEW
 70
     0
  0
ENDTAB
  0
TABLE
  2
UCS
 70
     0
  0
ENDTAB
  0
TABLE
  2
APPID
 70
     4
  0
APPID
  2
ACAD
 70
     0
  0
APPID
  2
AVE_RENDER
 70
     0
  0
APPID
  2
AVE_MATERIAL
 70
     0
  0
APPID
  2
AME_SOL
 70
     0
  0
ENDTAB
  0
TABLE
  2
DIMSTYLE
 70
     1
  0
DIMSTYLE
  2
STANDARD
 70
     0
  3

  4

  5

  6

  7

 40
1.0
 41
0.18
 42
0.0625
 43
0.38
 44
0.18
 45
0.0
 46
0.0
 47
0.0
 48
0.0
140
0.18
141
0.09
142
0.0
143
25.399999999999999
144
1.0
145
0.0
146
1.0
147
0.09
 71
     0
 72
     0
 73
     1
 74
     1
 75
     0
 76
     0
 77
     0
 78
     0
170
     0
171
     2
172
     0
173
     0
174
     0
175
     0
176
     0
177
     0
178
     0
  0
ENDTAB
  0
ENDSEC
  0
SECTION
  2
BLOCKS
  0
BLOCK
  8
0
  2
$MODEL_SPACE
 70
     0
 10
0.0
 20
0.0
 30
0.0
  3
$MODEL_SPACE
  1

  0
ENDBLK
  5
65CB
  8
0
  0
BLOCK
 67
     1
  8
0
  2
$PAPER_SPACE
 70
     0
 10
0.0
 20
0.0
 30
0.0
  3
$PAPER_SPACE
  1

  0
ENDBLK
  5
65C7
 67
     1
  8
0
  0
BLOCK
  8
0
  2
RR07
 70
     0
 10
0.0
 20
0.0
 30
0.0
  3
RR07
  1

  0
POINT
  5
65E9
  8
NODES
 10
0.0
 20
0.0
 30
0.0
  0
ARC
  5
65EA
  8
OVAL
 10
-5.5
 20
0.0
 30
0.0
 40
4.5000000000000009
 50
90.000000000000028
 51
270.0
  0
ARC
  5
65EB
  8
OVAL
 10
5.5
 20
0.0
 30
0.0
 40
4.5000000000000009
 50
270.0
 51
90.0
  0
LINE
  5
65EC
  8
OVAL
 10
-5.5
 20
-4.5
 30
0.0
 11
5.5
 21
-4.5
 31
0.0
  0
LINE
  5
65ED
  8
OVAL
 10
5.5
 20
4.5
 30
0.0
 11
-5.5
 21
4.5
 31
0.0
  0
ENDBLK
  5
65EE
  8
0
  0
BLOCK
  8
0
  2
RO42
 70
     0
 10
0.0
 20
0.0
 30
0.0
  3
RO42
  1

  0
CIRCLE
  5
65F1
  8
0
 10
0.0
 20
0.0
 30
0.0
 40
12.699999999999999
  0
ENDBLK
  5
65F2
  8
0
  0
BLOCK
  8
ASHADE
  2
AVE_RENDER
 70
     0
 10
0.0
 20
0.0
 30
0.0
  3
AVE_RENDER
  1
AVE_RENDER
  0
ENDBLK
  5
65F5
  8
0
  0
BLOCK
  8
ASHADE
  2
AVE_GLOBAL
 70
     0
 10
0.0
 20
0.0
 30
0.0
  3
AVE_GLOBAL
  1
AVE_GLOBAL
  0
ENDBLK
  5
65F8
  8
0
  0
BLOCK
  8
0
  2
AME_NIL
 70
     0
 10
0.0
 20
0.0
 30
0.0
  3
AME_NIL
  1
AME_NIL
  0
ENDBLK
  5
65FB
  8
0
  0
BLOCK
  8
0
  2
AME_SOL
 70
     0
 10
0.0
 20
0.0
 30
0.0
  3
AME_SOL
  1
AME_SOL
  0
ENDBLK
  5
65FE
  8
0
  0
BLOCK
  8
0
  2
NEW_BLOCK
 70
     0
 10
0.0
 20
0.0
 30
0.0
  3
NEW_BLOCK
  1

  0
TEXT
  5
6601
  8
TEXT
 10
27.285946821803002
 20
25.27142175952417
 30
0.0
 40
40.0
  1
available on request
  7
TITLE3
  0
TEXT
  5
6602
  8
TEXT
 10
27.285946821803002
 20
93.842850330952714
 30
0.0
 40
40.0
  1
Certified dimensions
  7
TITLE3
  0
TEXT
  5
6603
  8
TEXT
 10
27.285946821803002
 20
162.4142789023812
 30
0.0
 40
40.0
  1
without notice or obligation.
  7
TITLE3
  0
TEXT
  5
6604
  8
TEXT
 10
27.285946821803002
 20
230.9857074738097
 30
0.0
 40
40.0
  1
specifications at any time
  7
TITLE3
  0
TEXT
  5
6605
  8
TEXT
 10
27.285946821803002
 20
299.55713604523839
 30
0.0
 40
40.0
  1
the right to change 
  7
TITLE3
  0
TEXT
  5
6606
  8
TEXT
 10
27.285946821803002
 20
436.69999318809528
 30
0.0
 40
40.0
  1
NOTE
  7
TITLE3
  0
TEXT
  5
6607
  8
TEXT
 10
27.285946821803002
 20
368.12856461666672
 30
0.0
 40
40.0
  1
The manufacturer reserves
  7
TITLE3
  0
ENDBLK
  5
6608
  8
0
  0
BLOCK
  8
0
  2
NEW_BLOCK0
 70
     0
 10
0.0
 20
0.0
 30
0.0
  3
NEW_BLOCK0
  1

  0
INSERT
  5
660B
  8
DIM
  2
NEW_BLOCK
 10
13.048098169647799
 20
6.0725618626865971
 30
0.0
 41
0.7000000000000455
 42
0.6999999999999993
 43
0.7
  0
ENDBLK
  5
660C
  8
0
  0
ENDSEC
  0
SECTION
  2
ENTITIES
  0
LINE
  5
684B
  8
DIM
 62
    52
 10
3211.2347788898901
 20
2361.992989291753
 30
0.0
 11
2683.057182865919
 21
2361.992989291753
 31
0.0
  0
LINE
  5
684C
  8
OUTLINE
 10
3250.234778889891
 20
1658.461040963886
 30
0.0
 11
1991.2347788898901
 21
1658.461040963886
 31
0.0
  0
LINE
  5
684D
  8
OUTLINE
 10
1991.234778889891
 20
2213.4610409638881
 30
0.0
 11
3250.234778889891
 21
2213.4610409638881
 31
0.0
  0
LINE
  5
684E
  8
OUTLINE
 10
3142.234778889891
 20
2249.0640753629359
 30
0.0
 11
2280.2347788898901
 21
2249.0640753629359
 31
0.0
  0
LINE
  5
684F
  8
OUTLINE
 10
2039.1347788898911
 20
1622.4610409638869
 30
0.0
 11
3223.1347788898911
 21
1622.4610409638869
 31
0.0
  0
LINE
  5
6850
  8
OUTLINE
 10
1965.2347788898901
 20
2187.4610409638881
 30
0.0
 11
3276.2347788898901
 21
2187.4610409638881
 31
0.0
  0
LINE
  5
6851
  8
OUTLINE
 10
3276.2347788898901
 20
1684.461040963886
 30
0.0
 11
1965.2347788898901
 21
1684.461040963886
 31
0.0
  0
LINE
  5
6852
  8
DIM
 62
    52
 10
1710.2985580342399
 20
1668.465849005936
 30
0.0
 11
1710.2985580342399
 21
1879.389549216156
 31
0.0
  0
SOLID
  5
6853
  8
DIM
 62
    52
 10
1801.7342634599231
 20
1700.961040963886
 30
0.0
 11
1811.7342634599231
 21
1700.961040963886
 31
0.0
 12
1806.7342634599231
 22
1670.961040963886
 32
0.0
 13
1806.7342634599231
 23
1670.961040963886
 33
0.0
  0
LINE
  5
6854
  8
OUTLINE
 10
1953.7347788898901
 20
1618.465849005938
 30
0.0
 11
1953.734778889891
 21
1695.961040963886
 31
0.0
  0
INSERT
  5
6855
  8
OUTLINE
  2
RR07
 10
2000.2347788898901
 20
1670.961040963886
 30
0.0
  0
LINE
  5
6856
  8
OUTLINE
 10
1939.234778889891
 20
1710.461040963886
 30
0.0
 11
1991.2347788898901
 21
1658.461040963886
 31
0.0
  0
LINE
  5
6857
  8
DIM
 62
    52
 10
1966.401402319422
 20
1638.465849005938
 30
0.0
 11
1690.2985580342399
 21
1638.465849005938
 31
0.0
  0
LINE
  5
6858
  8
DIM
 62
    52
 10
1986.1014418867601
 20
1670.961040963886
 30
0.0
 11
1786.7342634599231
 21
1670.961040963886
 31
0.0
  0
SOLID
  5
6859
  8
DIM
 62
    52
 10
1705.2985580342399
 20
1668.465849005936
 30
0.0
 11
1715.2985580342399
 21
1668.465849005936
 31
0.0
 12
1710.2985580342399
 22
1638.465849005938
 32
0.0
 13
1710.2985580342399
 23
1638.465849005938
 33
0.0
  0
LINE
  5
685A
  8
OUTLINE
 10
2003.7347788898901
 20
1618.465849005938
 30
0.0
 11
2003.7347788898901
 21
1658.461040963886
 31
0.0
  0
LINE
  5
685B
  8
OUTLINE
 10
2003.7347788898901
 20
1618.465849005938
 30
0.0
 11
1953.7347788898901
 21
1618.465849005938
 31
0.0
  0
CIRCLE
  5
685C
  8
OUTLINE
 10
1978.7347788898901
 20
1638.465849005938
 30
0.0
 40
9.5
  0
LINE
  5
685D
  8
OUTLINE
 10
2039.1347788898911
 20
1622.4610409638869
 30
0.0
 11
2039.134778889889
 21
1658.461040963886
 31
0.0
  0
LINE
  5
685E
  8
DIM
 62
    52
 10
2030.2347788898901
 20
2361.992989291753
 30
0.0
 11
2548.315722119954
 21
2361.992989291753
 31
0.0
  0
LINE
  5
685F
  8
DIM
 62
    52
 10
2008.7347788898901
 20
2409.0483728553031
 30
0.0
 11
2536.8871506913829
 21
2409.0483728553031
 31
0.0
  0
LINE
  5
6860
  8
OUTLINE
 10
1939.234778889891
 20
1710.461040963886
 30
0.0
 11
1939.2347788898901
 21
2161.4610409638881
 31
0.0
  0
LINE
  5
6861
  8
DIM
 62
    52
 10
1710.2985580342399
 20
2203.456232921837
 30
0.0
 11
1710.2985580342399
 21
1992.532532711617
 31
0.0
  0
LINE
  5
6862
  8
DIM
 62
    52
 10
1806.7342634599231
 20
2170.9610409638872
 30
0.0
 11
1806.7342634599231
 21
1995.032532711617
 31
0.0
  0
LINE
  5
6863
  8
OUTLINE
 10
1965.2347788898901
 20
1684.461040963886
 30
0.0
 11
1965.2347788898901
 21
2187.4610409638881
 31
0.0
  0
TEXT
  5
6864
  8
DIM
 62
    50
 10
1725.2985580342399
 20
1897.389612392458
 30
0.0
 40
30.0
  1
595
 50
90.0
  7
TITLE3
 72
     1
 11
1710.2985580342399
 21
1935.9610409638869
 31
0.0
 73
     2
  0
TEXT
  5
6865
  8
DIM
 62
    50
 10
1820.167446334234
 20
1897.389612392459
 30
0.0
 40
30.0
  1
530
 50
90.0
  7
TITLE3
 72
     4
 11
1805.167446334234
 21
1935.9610409638881
 31
0.0
  0
LINE
  5
6866
  8
DIM
 62
    52
 10
1806.7342634599231
 20
1700.961040963886
 30
0.0
 11
1806.7342634599231
 21
1876.889549216158
 31
0.0
  0
LINE
  5
6867
  8
DIM
 62
    52
 10
1964.8657101493279
 20
2233.456232921837
 30
0.0
 11
1690.2985580342399
 21
2233.456232921837
 31
0.0
  0
LINE
  5
6868
  8
DIM
 62
    52
 10
1988.7722630786691
 20
2200.9610409638881
 30
0.0
 11
1786.7342634599231
 21
2200.9610409638881
 31
0.0
  0
SOLID
  5
6869
  8
DIM
 62
    52
 10
1705.2985580342399
 20
2203.456232921837
 30
0.0
 11
1715.2985580342399
 21
2203.456232921837
 31
0.0
 12
1710.2985580342399
 22
2233.456232921837
 32
0.0
 13
1710.2985580342399
 23
2233.456232921837
 33
0.0
  0
SOLID
  5
686A
  8
DIM
 62
    52
 10
1801.7342634599231
 20
2170.9610409638872
 30
0.0
 11
1811.7342634599231
 21
2170.9610409638872
 31
0.0
 12
1806.7342634599231
 22
2200.9610409638881
 32
0.0
 13
1806.7342634599231
 23
2200.9610409638881
 33
0.0
  0
LINE
  5
686B
  8
DIM
 62
    52
 10
2000.2347788898901
 20
2220.9610409638881
 30
0.0
 11
2000.2347788898901
 21
2381.992989291753
 31
0.0
  0
LINE
  5
686C
  8
DIM
 62
    52
 10
1978.7347788898901
 20
2253.456232921837
 30
0.0
 11
1978.7347788898901
 21
2429.0483728553031
 31
0.0
  0
LINE
  5
686D
  8
OUTLINE
 10
1965.2347788898901
 20
2187.4610409638881
 30
0.0
 11
1991.234778889891
 21
2213.4610409638881
 31
0.0
  0
INSERT
  5
686E
  8
OUTLINE
  2
RR07
 10
2000.2347788898901
 20
2200.9610409638881
 30
0.0
  0
LINE
  5
686F
  8
OUTLINE
 10
1953.7347788898901
 20
2253.456232921837
 30
0.0
 11
1953.7347788898901
 21
2175.9610409638881
 31
0.0
  0
LINE
  5
6870
  8
OUTLINE
 10
1965.2347788898901
 20
2187.4610409638881
 30
0.0
 11
1939.2347788898901
 21
2161.4610409638881
 31
0.0
  0
LINE
  5
6871
  8
OUTLINE
 10
2003.7347788898901
 20
2253.456232921837
 30
0.0
 11
2003.7347788898901
 21
2213.4610409638881
 31
0.0
  0
CIRCLE
  5
6872
  8
OUTLINE
 10
1978.7347788898901
 20
2233.456232921837
 30
0.0
 40
9.5
  0
LINE
  5
6873
  8
OUTLINE
 10
2003.7347788898901
 20
2253.456232921837
 30
0.0
 11
1953.7347788898901
 21
2253.456232921837
 31
0.0
  0
SOLID
  5
6874
  8
DIM
 62
    52
 10
2030.2347788898901
 20
2366.992989291753
 30
0.0
 11
2030.2347788898901
 21
2356.992989291753
 31
0.0
 12
2000.2347788898901
 22
2361.992989291753
 32
0.0
 13
2000.2347788898901
 23
2361.992989291753
 33
0.0
  0
SOLID
  5
6875
  8
DIM
 62
    52
 10
2008.7347788898901
 20
2414.0483728553031
 30
0.0
 11
2008.7347788898901
 21
2404.0483728553031
 31
0.0
 12
1978.7347788898901
 22
2409.0483728553031
 32
0.0
 13
1978.7347788898901
 23
2409.0483728553031
 33
0.0
  0
TEXT
  5
6876
  8
DIM
 62
    50
 10
2573.1633503184612
 20
2346.992989291753
 30
0.0
 40
30.0
  1
1241
  7
TITLE3
 72
     4
 11
2616.7347788898901
 21
2361.992989291753
 31
0.0
  0
TEXT
  5
6877
  8
DIM
 62
    50
 10
2566.0204931756052
 20
2394.0483728553031
 30
0.0
 40
30.0
  1
1284
  7
TITLE3
 72
     4
 11
2616.734778889891
 21
2409.0483728553031
 31
0.0
  0
LINE
  5
6878
  8
OUTLINE
 10
2280.2347788898901
 20
2249.0640753629359
 30
0.0
 11
2280.2347788898901
 21
2213.4610409638881
 31
0.0
  0
LINE
  5
6879
  8
OUTLINE
 10
3287.734778889891
 20
1618.465849005938
 30
0.0
 11
3287.734778889891
 21
1695.961040963886
 31
0.0
  0
LINE
  5
687A
  8
OUTLINE
 10
3276.2347788898901
 20
1684.461040963886
 30
0.0
 11
3250.234778889891
 21
1658.461040963886
 31
0.0
  0
INSERT
  5
687B
  8
OUTLINE
  2
RR07
 10
3241.2347788898901
 20
1670.961040963886
 30
0.0
  0
LINE
  5
687C
  8
OUTLINE
 10
3223.1347788898911
 20
1622.4610409638869
 30
0.0
 11
3223.1347788898911
 21
1658.461040963886
 31
0.0
  0
LINE
  5
687D
  8
OUTLINE
 10
3237.7347788898901
 20
1618.465849005938
 30
0.0
 11
3237.7347788898901
 21
1658.461040963886
 31
0.0
  0
LINE
  5
687E
  8
OUTLINE
 10
3237.7347788898901
 20
1618.465849005938
 30
0.0
 11
3287.734778889891
 21
1618.465849005938
 31
0.0
  0
CIRCLE
  5
687F
  8
OUTLINE
 10
3262.734778889891
 20
1638.465849005938
 30
0.0
 40
9.5
  0
LINE
  5
6880
  8
OUTLINE
 10
3302.2347788898919
 20
2161.4610409638872
 30
0.0
 11
3302.2347788898901
 21
1710.461040963886
 31
0.0
  0
LINE
  5
6881
  8
OUTLINE
 10
3276.2347788898901
 20
2187.4610409638881
 30
0.0
 11
3276.2347788898901
 21
1684.4610409638881
 31
0.0
  0
LINE
  5
6882
  8
OUTLINE
 10
3276.2347788898901
 20
1684.461040963886
 30
0.0
 11
3302.2347788898901
 21
1710.461040963886
 31
0.0
  0
LINE
  5
6883
  8
DIM
 62
    52
 10
3232.7347788898901
 20
2409.0483728553031
 30
0.0
 11
2694.485754294491
 21
2409.0483728553031
 31
0.0
  0
LINE
  5
6884
  8
OUTLINE
 10
3142.234778889891
 20
2249.0640753629359
 30
0.0
 11
3142.2347788898901
 21
2213.4610409638881
 31
0.0
  0
LINE
  5
6885
  8
DIM
 62
    52
 10
3241.2347788898901
 20
2220.9610409638881
 30
0.0
 11
3241.2347788898901
 21
2381.992989291753
 31
0.0
  0
LINE
  5
6886
  8
DIM
 62
    52
 10
3262.734778889891
 20
2253.456232921837
 30
0.0
 11
3262.734778889891
 21
2429.0483728553031
 31
0.0
  0
INSERT
  5
6887
  8
OUTLINE
  2
RR07
 10
3241.2347788898901
 20
2200.9610409638881
 30
0.0
 41
-1.0
  0
LINE
  5
6888
  8
OUTLINE
 10
3287.734778889891
 20
2253.456232921837
 30
0.0
 11
3287.734778889891
 21
2175.961040963889
 31
0.0
  0
LINE
  5
6889
  8
OUTLINE
 10
3250.234778889891
 20
2213.4610409638881
 30
0.0
 11
3302.2347788898919
 21
2161.4610409638872
 31
0.0
  0
LINE
  5
688A
  8
OUTLINE
 10
3237.7347788898901
 20
2253.456232921837
 30
0.0
 11
3237.7347788898901
 21
2213.4610409638881
 31
0.0
  0
CIRCLE
  5
688B
  8
OUTLINE
 10
3262.734778889891
 20
2233.456232921837
 30
0.0
 40
9.5
  0
LINE
  5
688C
  8
OUTLINE
 10
3237.7347788898901
 20
2253.456232921837
 30
0.0
 11
3287.734778889891
 21
2253.456232921837
 31
0.0
  0
SOLID
  5
688D
  8
DIM
 62
    52
 10
3211.2347788898901
 20
2366.992989291753
 30
0.0
 11
3211.2347788898901
 21
2356.992989291753
 31
0.0
 12
3241.2347788898901
 22
2361.992989291753
 32
0.0
 13
3241.2347788898901
 23
2361.992989291753
 33
0.0
  0
SOLID
  5
688E
  8
DIM
 62
    52
 10
3232.7347788898901
 20
2414.0483728553031
 30
0.0
 11
3232.7347788898901
 21
2404.0483728553031
 31
0.0
 12
3262.734778889891
 22
2409.0483728553031
 32
0.0
 13
3262.734778889891
 23
2409.0483728553031
 33
0.0
  0
LINE
  5
688F
  8
OUTLINE
  6
HIDDEN
 10
3274.2347788898901
 20
1684.4640753629351
 30
0.0
 11
1967.234778889891
 21
1684.4640753629351
 31
0.0
  0
LINE
  5
6890
  8
OUTLINE
 10
1697.883085184041
 20
764.77647177906545
 30
0.0
 11
1697.883085184041
 21
1189.3199653658021
 31
0.0
  0
LINE
  5
6891
  8
OUTLINE
 10
1722.883085184041
 20
1189.3199653658021
 30
0.0
 11
1167.793396436201
 21
1189.3199653658021
 31
0.0
  0
INSERT
  5
6892
  8
OUTLINE
  2
RO42
 10
1505.2933964362021
 20
786.77647177906499
 30
0.0
 41
-1.0
  0
LINE
  5
6893
  8
OUTLINE
 10
1192.7933964362001
 20
764.77647177906545
 30
0.0
 11
1192.7933964362001
 21
1189.3199653658021
 31
0.0
  0
LINE
  5
6894
  8
OUTLINE
 10
1182.7933964362021
 20
764.77647177906545
 30
0.0
 11
1707.883085184041
 21
764.77647177906545
 31
0.0
  0
LINE
  5
6895
  8
OUTLINE
 10
1697.883085184041
 20
1075.2764717790651
 30
0.0
 11
1762.883085184041
 21
1075.2764717790651
 31
0.0
  0
LINE
  5
6896
  8
OUTLINE
 10
1725.383085184041
 20
1068.2764717790651
 30
0.0
 11
1760.383085184041
 21
1068.2764717790651
 31
0.0
  0
LINE
  5
6897
  8
OUTLINE
 10
1710.383085184041
 20
1087.7764717790651
 30
0.0
 11
1762.883085184041
 21
1087.7764717790651
 31
0.0
  0
LINE
  5
6898
  8
OUTLINE
 10
1725.383085184041
 20
1068.2764717790651
 30
0.0
 11
1725.383085184041
 21
1075.2764717790651
 31
0.0
  0
LINE
  5
6899
  8
OUTLINE
 10
1697.883085184041
 20
1145.2764717790651
 30
0.0
 11
1710.383085184041
 21
1145.2764717790651
 31
0.0
  0
LINE
  5
689A
  8
OUTLINE
 10
1710.383085184041
 20
1087.7764717790651
 30
0.0
 11
1710.383085184041
 21
1145.2764717790651
 31
0.0
  0
LINE
  5
689B
  8
OUTLINE
 10
1760.383085184041
 20
1068.2764717790651
 30
0.0
 11
1760.383085184041
 21
1075.2764717790651
 31
0.0
  0
LINE
  5
689C
  8
OUTLINE
 10
1762.883085184041
 20
1075.2764717790651
 30
0.0
 11
1762.883085184041
 21
1087.7764717790651
 31
0.0
  0
LINE
  5
689D
  8
OUTLINE
 10
1180.293396436201
 20
1087.7764717790651
 30
0.0
 11
1127.793396436201
 21
1087.7764717790651
 31
0.0
  0
LINE
  5
689E
  8
OUTLINE
 10
1165.2933964362021
 20
1068.2764717790651
 30
0.0
 11
1130.2933964362001
 21
1068.2764717790651
 31
0.0
  0
LINE
  5
689F
  8
OUTLINE
 10
1192.7933964362001
 20
1075.2764717790651
 30
0.0
 11
1127.793396436201
 21
1075.2764717790651
 31
0.0
  0
LINE
  5
68A0
  8
OUTLINE
 10
1127.793396436201
 20
1075.2764717790651
 30
0.0
 11
1127.793396436201
 21
1087.7764717790651
 31
0.0
  0
LINE
  5
68A1
  8
OUTLINE
 10
1130.2933964362001
 20
1068.2764717790651
 30
0.0
 11
1130.2933964362001
 21
1075.2764717790651
 31
0.0
  0
LINE
  5
68A2
  8
OUTLINE
 10
1165.2933964362021
 20
1068.2764717790651
 30
0.0
 11
1165.2933964362021
 21
1075.2764717790651
 31
0.0
  0
LINE
  5
68A3
  8
OUTLINE
 10
1192.7933964362001
 20
1145.2764717790651
 30
0.0
 11
1180.293396436201
 21
1145.2764717790651
 31
0.0
  0
LINE
  5
68A4
  8
OUTLINE
 10
1180.293396436201
 20
1087.7764717790651
 30
0.0
 11
1180.293396436201
 21
1145.2764717790651
 31
0.0
  0
LINE
  5
68A5
  8
OUTLINE
 10
1192.7933964362001
 20
1097.7764717790651
 30
0.0
 11
1192.7933964362001
 21
1145.2764717790651
 31
0.0
  0
LINE
  5
68A6
  8
OUTLINE
 10
1758.883085184041
 20
1172.8199653658
 30
0.0
 11
1697.883085184041
 21
1172.8199653658
 31
0.0
  0
LINE
  5
68A7
  8
OUTLINE
 10
1758.883085184041
 20
822.31996536580152
 30
0.0
 11
1758.883085184041
 21
1068.2764717790651
 31
0.0
  0
LINE
  5
68A8
  8
OUTLINE
 10
1758.883085184041
 20
822.31996536580152
 30
0.0
 11
1697.883085184041
 21
822.31996536580152
 31
0.0
  0
LINE
  5
68A9
  8
OUTLINE
 10
1131.7933964362001
 20
1176.3199653658021
 30
0.0
 11
1131.7933964362001
 21
1087.7764717790651
 31
0.0
  0
LINE
  5
68AA
  8
OUTLINE
 10
1191.793396436201
 20
951.31996536580175
 30
0.0
 11
1131.7933964362001
 21
951.31996536580175
 31
0.0
  0
LINE
  5
68AB
  8
OUTLINE
 10
1192.7933964362001
 20
936.31996536580209
 30
0.0
 11
1191.793396436201
 21
936.31996536580209
 31
0.0
  0
LINE
  5
68AC
  8
OUTLINE
 10
1192.7933964362001
 20
1176.3199653658021
 30
0.0
 11
1131.7933964362001
 21
1176.3199653658021
 31
0.0
  0
TEXT
  5
68AD
  8
TEXT
 10
2947.7586825900112
 20
110.0
 30
0.0
 40
30.0
  1
16.10.03
 41
0.8888888888888891
  7
TITLE3
 72
     5
 11
3107.7586825900112
 21
110.0
 31
0.0
  0
LINE
  5
68AE
  8
OUTLINE
 10
3277.2347788898892
 20
764.81996536580175
 30
0.0
 11
3277.2347788898892
 21
1068.2764717790651
 31
0.0
  0
LINE
  5
68AF
  8
OUTLINE
 10
3302.2347788898892
 20
1189.319965365801
 30
0.0
 11
1939.2347788898901
 21
1189.3199653658021
 31
0.0
  0
LINE
  5
68B0
  8
OUTLINE
 10
1964.2347788898901
 20
765.81996536580095
 30
0.0
 11
1964.2347788898901
 21
1068.2764717790651
 31
0.0
  0
LINE
  5
68B1
  8
OUTLINE
 10
3287.234778889891
 20
764.81996536580175
 30
0.0
 11
1954.2347788898901
 21
764.81996536580243
 31
0.0
  0
LINE
  5
68B2
  8
OUTLINE
 10
2038.7347788898901
 20
1172.8199653658
 30
0.0
 11
3220.734778889891
 21
1172.8199653658
 31
0.0
  0
LINE
  5
68B3
  8
OUTLINE
 10
2038.7347788898901
 20
822.31996536580152
 30
0.0
 11
3220.734778889891
 21
822.31996536580152
 31
0.0
  0
LINE
  5
68B4
  8
OUTLINE
 10
2038.7347788898901
 20
1172.8199653658
 30
0.0
 11
2038.7347788898901
 21
822.31996536580152
 31
0.0
  0
LINE
  5
68B5
  8
OUTLINE
 10
3220.734778889891
 20
1172.8199653658
 30
0.0
 11
3220.734778889891
 21
822.31996536580152
 31
0.0
  0
LINE
  5
68B6
  8
OUTLINE
 10
3286.234778889891
 20
1145.2764717790651
 30
0.0
 11
3286.2347788898901
 21
1075.2764717790651
 31
0.0
  0
LINE
  5
68B7
  8
OUTLINE
 10
3239.2347788898901
 20
1145.2764717790651
 30
0.0
 11
3239.2347788898901
 21
1075.2764717790651
 31
0.0
  0
LINE
  5
68B8
  8
OUTLINE
 10
3239.2347788898901
 20
1075.2764717790651
 30
0.0
 11
3286.2347788898901
 21
1075.2764717790651
 31
0.0
  0
LINE
  5
68B9
  8
OUTLINE
 10
3280.2347788898901
 20
1068.2764717790651
 30
0.0
 11
3245.2347788898901
 21
1068.2764717790651
 31
0.0
  0
LINE
  5
68BA
  8
OUTLINE
 10
3245.2347788898901
 20
1068.2764717790651
 30
0.0
 11
3245.2347788898901
 21
1075.2764717790651
 31
0.0
  0
LINE
  5
68BB
  8
OUTLINE
 10
3280.2347788898901
 20
1068.2764717790651
 30
0.0
 11
3280.2347788898901
 21
1075.2764717790651
 31
0.0
  0
LINE
  5
68BC
  8
OUTLINE
 10
3239.2347788898901
 20
1145.2764717790651
 30
0.0
 11
3286.234778889891
 21
1145.2764717790651
 31
0.0
  0
LINE
  5
68BD
  8
OUTLINE
 10
1955.234778889888
 20
1145.2764717790651
 30
0.0
 11
1955.234778889888
 21
1075.2764717790651
 31
0.0
  0
LINE
  5
68BE
  8
OUTLINE
 10
2002.234778889889
 20
1145.2764717790651
 30
0.0
 11
2002.234778889889
 21
1075.2764717790651
 31
0.0
  0
LINE
  5
68BF
  8
OUTLINE
 10
1996.234778889888
 20
1068.2764717790651
 30
0.0
 11
1961.234778889889
 21
1068.2764717790651
 31
0.0
  0
LINE
  5
68C0
  8
OUTLINE
 10
1955.234778889888
 20
1075.2764717790651
 30
0.0
 11
2002.234778889889
 21
1075.2764717790651
 31
0.0
  0
LINE
  5
68C1
  8
OUTLINE
 10
1961.234778889889
 20
1068.2764717790651
 30
0.0
 11
1961.234778889889
 21
1075.2764717790651
 31
0.0
  0
LINE
  5
68C2
  8
OUTLINE
 10
1996.234778889888
 20
1068.2764717790651
 30
0.0
 11
1996.234778889888
 21
1075.2764717790651
 31
0.0
  0
LINE
  5
68C3
  8
OUTLINE
 10
1955.234778889888
 20
1145.2764717790651
 30
0.0
 11
2002.234778889889
 21
1145.2764717790651
 31
0.0
  0
LINE
  5
68C4
  8
OUTLINE
 10
3277.2347788898892
 20
1145.2764717790651
 30
0.0
 11
3277.2347788898901
 21
1189.319965365801
 31
0.0
  0
LINE
  5
68C5
  8
OUTLINE
 10
1964.2347788898901
 20
1145.2764717790651
 30
0.0
 11
1964.2347788898901
 21
1189.3199653658021
 31
0.0
  0
TEXT
  5
68C6
  8
DIM
 62
    50
 10
3398.3415679838372
 20
914.08319262319594
 30
0.0
 40
30.0
  1
424.5
 50
90.0
  7
TITLE3
 72
     1
 11
3383.3415679838372
 21
974.08319262319606
 31
0.0
 73
     2
  0
LINE
  5
68C7
  8
DIM
 62
    52
 10
3304.428853760508
 20
764.81996536580175
 30
0.0
 11
3403.3415679838372
 21
764.81996536580175
 31
0.0
  0
LINE
  5
68C8
  8
DIM
 62
    52
 10
3383.3415679838372
 20
794.81996536580175
 30
0.0
 11
3383.3415679838372
 21
896.28906040552033
 31
0.0
  0
SOLID
  5
68C9
  8
DIM
 62
    52
 10
3378.3415679838372
 20
794.81996536580175
 30
0.0
 11
3388.3415679838372
 21
794.81996536580175
 31
0.0
 12
3383.3415679838372
 22
764.81996536580175
 32
0.0
 13
3383.3415679838372
 23
764.81996536580175
 33
0.0
  0
SOLID
  5
68CA
  8
DIM
 62
    52
 10
3378.3415679838372
 20
1159.319965365801
 30
0.0
 11
3388.3415679838372
 21
1159.319965365801
 31
0.0
 12
3383.3415679838372
 22
1189.319965365801
 32
0.0
 13
3383.3415679838372
 23
1189.319965365801
 33
0.0
  0
LINE
  5
68CB
  8
DIM
 62
    52
 10
3320.428853760508
 20
1189.319965365801
 30
0.0
 11
3403.3415679838372
 21
1189.319965365801
 31
0.0
  0
LINE
  5
68CC
  8
DIM
 62
    52
 10
3383.3415679838372
 20
1159.319965365801
 30
0.0
 11
3383.3415679838372
 21
1047.343265578726
 31
0.0
  0
LINE
  5
68CD
  8
DIM
 62
    52
 10
1939.2347788898901
 20
1209.3199653658021
 30
0.0
 11
1939.2347788898901
 21
1296.8461557583421
 31
0.0
  0
LINE
  5
68CE
  8
DIM
 62
    52
 10
3302.2347788898892
 20
1209.319965365801
 30
0.0
 11
3302.2347788898892
 21
1296.8461557583421
 31
0.0
  0
LINE
  5
68CF
  8
DIM
 62
    52
 10
1969.234778889889
 20
1276.846155758343
 30
0.0
 11
2549.4115350478251
 21
1276.8461557583421
 31
0.0
  0
LINE
  5
68D0
  8
DIM
 62
    52
 10
3272.2347788898901
 20
1276.846155758343
 30
0.0
 11
2692.0550094448649
 21
1276.846155758343
 31
0.0
  0
SOLID
  5
68D1
  8
DIM
 62
    52
 10
1969.234778889889
 20
1281.8461557583421
 30
0.0
 11
1969.234778889889
 21
1271.8461557583421
 31
0.0
 12
1939.2347788898901
 22
1276.846155758343
 32
0.0
 13
1939.2347788898901
 23
1276.846155758343
 33
0.0
  0
SOLID
  5
68D2
  8
DIM
 62
    52
 10
3272.2347788898901
 20
1281.8461557583421
 30
0.0
 11
3272.2347788898901
 21
1271.8461557583421
 31
0.0
 12
3302.2347788898892
 22
1276.846155758343
 32
0.0
 13
3302.2347788898892
 23
1276.846155758343
 33
0.0
  0
TEXT
  5
68D3
  8
DIM
 62
    50
 10
2570.7347788898901
 20
1261.846155758343
 30
0.0
 40
30.0
  1
1363
  7
TITLE3
 72
     1
 11
2620.7347788898901
 21
1276.846155758343
 31
0.0
 73
     2
  0
INSERT
  5
68D4
  8
ASHADE
 62
     1
  2
AVE_RENDER
 10
-6709.3947518689856
 20
-431.55021603846762
 30
0.0
1001
AVE_RENDER
1002
{
1070
     7
1000
Pref
1070
    30
1070
    20
1070
     1
1070
     0
1000

1070
    10
1070
     1
1070
    10
1040
1.0
1070
     1
1040
0.3
1040
0.7
1040
0.0
1040
10.0
1010
-1.0
1020
-1.0
1030
-1.0
1040
0.3
1070
    49
1070
     0
1070
     0
1010
1.0
1020
1.0
1030
1.0
1040
45.0
1070
     1
1070
     0
1000
WCS
1040
0.0
1070
     0
1040
10.0
1002
}
  0
INSERT
  5
68D5
  8
ASHADE
 62
     3
  2
AVE_RENDER
 10
-6709.3947518689856
 20
-431.55021603846762
 30
0.0
1001
AVE_RENDER
1002
{
1070
     0
1000
Full Opt
1070
     0
1070
     1
1070
     1
1070
     1
1070
     0
1070
     0
1070
     0
1070
     1
1070
     1
1040
0.0001
1040
0.0001
1002
}
  0
INSERT
  5
68D6
  8
ASHADE
 62
     4
  2
AVE_RENDER
 10
-6709.3947518689856
 20
-431.55021603846762
 30
0.0
1001
AVE_RENDER
1002
{
1070
     0
1000
Quick Opt
1070
     0
1070
     1
1070
     1
1070
     1
1070
     0
1070
     0
1070
     1
1002
}
  0
INSERT
  5
68D7
  8
ASHADE
 62
     5
  2
AVE_RENDER
 10
-6709.3947518689856
 20
-431.55021603846762
 30
0.0
1001
AVE_RENDER
1002
{
1070
     1
1000
Scanl Opt
1070
     2
1070
     0
1070
     2
1040
2.0
1040
4.0
1070
     0
1070
     1
1070
     0
1040
0.03
1002
}
  0
INSERT
  5
68D8
  8
ASHADE
 62
     6
  2
AVE_RENDER
 10
-6709.3947518689856
 20
-431.55021603846762
 30
0.0
1001
AVE_RENDER
1002
{
1070
     2
1000
Raytr Opt
1070
     2
1070
     0
1070
     2
1040
2.0
1040
4.0
1070
     0
1070
     1
1070
     1
1040
0.03
1070
     3
1040
0.03
1002
}
  0
INSERT
  5
68D9
  8
ASHADE
 62
     7
  2
AVE_RENDER
 10
-6709.3947518689856
 20
-431.55021603846762
 30
0.0
1001
AVE_RENDER
1002
{
1070
     0
1000
RFile Opt
1070
     1
1070
   640
1070
   480
1070
 10000
1070
     1
1070
     8
1070
     8
1070
     0
1070
     0
1070
     0
1070
     0
1070
     0
1070
     0
1070
     0
1002
}
  0
INSERT
  5
68DA
  8
ASHADE
 62
     8
  2
AVE_RENDER
 10
-6709.3947518689856
 20
-431.55021603846762
 30
0.0
1001
AVE_RENDER
1002
{
1070
     0
1000
Fog Opt
1070
     0
1070
     0
1040
0.0
1040
1.0
1040
0.0
1040
1.0
1010
0.5
1020
0.5
1030
0.5
1002
}
  0
INSERT
  5
68DB
  8
ASHADE
 62
     9
  2
AVE_RENDER
 10
-6709.3947518689856
 20
-431.55021603846762
 30
0.0
1001
AVE_RENDER
1002
{
1070
     0
1000
BG Opt
1070
     0
1070
     1
1010
0.0
1020
0.0
1030
0.0
1010
1.0
1020
0.0
1030
0.0
1010
0.0
1020
1.0
1030
0.0
1010
0.0
1020
0.0
1030
1.0
1040
0.5
1040
0.33
1040
0.0
1000

1070
     1
1000

1070
     1
1070
     1
1040
1.0
1040
1.0
1040
0.0
1040
0.0
1070
     0
1002
}
  0
INSERT
  5
68DC
  8
ASHADE
 62
     1
  2
AVE_GLOBAL
 10
-6709.3947518689856
 20
-431.55021603846762
 30
0.0
1001
AVE_MATERIAL
1002
{
1000
*GLOBAL*
1000
1
1000
Global finish.
1002
{
1002
}
1002
{
1070
    63
1002
{
1002
{
1010
-1.0
1020
-1.0
1030
-1.0
1002
}
1040
0.1000000014901161
1000

1040
0.0
1002
{
1002
}
1040
0.0
1002
{
1002
}
1040
0.0
1002
}
1002
{
1002
{
1010
-1.0
1020
-1.0
1030
-1.0
1002
}
1040
0.699999988079071
1000

1040
0.0
1002
{
1002
}
1040
0.0
1002
{
1002
}
1040
0.0
1002
}
1002
{
1002
{
1010
-1.0
1020
-1.0
1030
-1.0
1002
}
1040
0.2000000029802322
1000

1040
0.0
1002
{
1002
}
1040
0.0
1002
{
1002
}
1040
0.0
1002
}
1002
{
1070
     0
1002
{
1070
     1
1002
{
1040
1.0
1040
1.0
1000

1040
0.0
1002
{
1002
}
1040
0.0
1002
{
1002
}
1040
0.0
1002
}
1002
}
1040
1.0
1040
0.0
1040
0.0
1002
}
1002
{
1040
1.0
1040
1.0
1000

1040
0.0
1002
{
1002
}
1040
0.0
1002
{
1002
}
1040
0.0
1002
}
1002
{
1040
0.5
1040
1.0
1000

1040
0.0
1002
{
1002
}
1040
0.0
1002
{
1002
}
1040
0.0
1002
}
1002
{
1070
     0
1040
0.0
1002
{
1002
}
1040
1.0
1002
{
1002
}
1040
0.0
1002
}
1002
{
1040
0.0
1002
{
1002
{
1010
0.0
1020
0.0
1030
0.0
1002
}
1040
1.0
1000

1040
0.0
1002
{
1002
}
1040
0.0
1002
{
1002
}
1040
0.0
1002
}
1002
}
1002
{
1002
{
1070
     1
1002
{
1040
0.0
1040
1.0
1000

1040
0.0
1002
{
1002
}
1040
0.0
1002
{
1002
}
1040
0.0
1002
}
1002
}
1040
0.0
1002
{
1002
}
1010
1.0
1020
0.0
1030
0.0
1010
0.0
1020
1.0
1030
0.0
1010
0.0
1020
0.0
1030
1.0
1070
     0
1002
}
1002
{
1002
{
1040
1.0
1040
1.0
1002
{
1070
     1
1002
{
1040
1.0
1040
1.0
1000

1040
0.0
1002
{
1002
}
1040
0.0
1002
{
1002
}
1040
0.0
1002
}
1002
}
1002
}
1070
     0
1040
0.0
1002
{
1002
}
1002
}
1002
{
1002
}
1002
}
1002
{
1071
        3
1070
     3
1070
     0
1002
{
1070
     2
1070
     0
1070
     0
1040
0.0
1002
}
1070
     0
1070
     2
1002
{
1002
}
1002
}
1002
{
1040
8030.0
1040
190.30000305175781
1040
0.3050000071525574
1040
228.0
1040
545.0
1040
14.0
1040
17.39999961853027
1040
0.4560000002384186
1002
}
1002
}
  0
LINE
  5
68DD
  8
OUTLINE
 10
1964.2347788898901
 20
891.630071779064
 30
0.0
 11
1900.2347788898901
 21
891.63007177906491
 31
0.0
  0
LINE
  5
68DE
  8
OUTLINE
 10
1900.2347788898901
 20
850.24287177906388
 30
0.0
 11
1964.2347788898901
 21
850.24287177906433
 31
0.0
  0
LINE
  5
68DF
  8
OUTLINE
 10
1898.2347788898901
 20
888.65647177906419
 30
0.0
 11
1898.2347788898901
 21
852.24287177906399
 31
0.0
  0
LINE
  5
68E0
  8
OUTLINE
 10
1900.2347788898901
 20
891.63007177906491
 30
0.0
 11
1898.2347788898901
 21
888.65647177906465
 31
0.0
  0
LINE
  5
68E1
  8
OUTLINE
 10
1898.2347788898901
 20
852.24287177906399
 30
0.0
 11
1900.2347788898901
 21
850.24287177906388
 31
0.0
  0
LINE
  5
68E2
  8
OUTLINE
 10
1955.234778889888
 20
1079.942871779064
 30
0.0
 11
1900.2347788898901
 21
1079.942871779064
 31
0.0
  0
LINE
  5
68E3
  8
OUTLINE
 10
1900.2347788898901
 20
1121.3300717790651
 30
0.0
 11
1955.2347788898901
 21
1121.330071779063
 31
0.0
  0
LINE
  5
68E4
  8
OUTLINE
 10
1898.2347788898901
 20
1082.9164717790641
 30
0.0
 11
1898.2347788898901
 21
1119.3300717790651
 31
0.0
  0
LINE
  5
68E5
  8
OUTLINE
 10
1900.2347788898901
 20
1079.942871779064
 30
0.0
 11
1898.2347788898901
 21
1082.9164717790641
 31
0.0
  0
LINE
  5
68E6
  8
OUTLINE
 10
1898.2347788898901
 20
1119.3300717790651
 30
0.0
 11
1900.2347788898901
 21
1121.3300717790651
 31
0.0
  0
LINE
  5
68E7
  8
OUTLINE
 62
     6
 10
1899.8347788898891
 20
1120.930071779065
 30
0.0
 11
1899.83477888989
 21
1142.8064717790639
 31
0.0
  0
LINE
  5
68E8
  8
OUTLINE
 10
1899.8347788898891
 20
1140.4064717790641
 30
0.0
 11
1899.8347788898891
 21
1120.930071779065
 31
0.0
  0
LINE
  5
68E9
  8
OUTLINE
 10
1899.83477888989
 20
1142.8064717790639
 30
0.0
 11
1955.234778889888
 21
1142.8064717790639
 31
0.0
  0
CIRCLE
  5
68EA
  8
OUTLINE
 10
1505.3433964362009
 20
870.16147177906453
 30
0.0
 40
17.5
  0
CIRCLE
  5
68EB
  8
OUTLINE
 10
1540.3433964362021
 20
1126.1564717790641
 30
0.0
 40
17.5
  0
CIRCLE
  5
68EC
  8
OUTLINE
  6
CONTINUOUS
 10
1581.093396436203
 20
870.44967177906415
 30
0.0
 40
16.0
  0
INSERT
  5
68ED
  8
ASHADE
 62
     1
  2
AVE_RENDER
 10
-3491.3621920766391
 20
-498.5353498484601
 30
0.0
1001
AVE_RENDER
1002
{
1070
     7
1000
Pref
1070
    30
1070
    20
1070
     1
1070
     0
1000

1070
    10
1070
     1
1070
    10
1040
1.0
1070
     1
1040
0.3
1040
0.7
1040
0.0
1040
10.0
1010
-1.0
1020
-1.0
1030
-1.0
1040
0.3
1070
    49
1070
     0
1070
     0
1010
1.0
1020
1.0
1030
1.0
1040
45.0
1070
     1
1070
     0
1000
WCS
1040
0.0
1070
     0
1040
10.0
1002
}
  0
INSERT
  5
68EE
  8
ASHADE
 62
     3
  2
AVE_RENDER
 10
-3491.3621920766391
 20
-498.5353498484601
 30
0.0
1001
AVE_RENDER
1002
{
1070
     0
1000
Full Opt
1070
     0
1070
     1
1070
     1
1070
     1
1070
     0
1070
     0
1070
     0
1070
     1
1070
     1
1040
0.0001
1040
0.0001
1002
}
  0
INSERT
  5
68EF
  8
ASHADE
 62
     4
  2
AVE_RENDER
 10
-3491.3621920766391
 20
-498.5353498484601
 30
0.0
1001
AVE_RENDER
1002
{
1070
     0
1000
Quick Opt
1070
     0
1070
     1
1070
     1
1070
     1
1070
     0
1070
     0
1070
     1
1002
}
  0
INSERT
  5
68F0
  8
ASHADE
 62
     5
  2
AVE_RENDER
 10
-3491.3621920766391
 20
-498.5353498484601
 30
0.0
1001
AVE_RENDER
1002
{
1070
     1
1000
Scanl Opt
1070
     2
1070
     0
1070
     2
1040
2.0
1040
4.0
1070
     0
1070
     1
1070
     0
1040
0.03
1002
}
  0
INSERT
  5
68F1
  8
ASHADE
 62
     6
  2
AVE_RENDER
 10
-3491.3621920766391
 20
-498.5353498484601
 30
0.0
1001
AVE_RENDER
1002
{
1070
     2
1000
Raytr Opt
1070
     2
1070
     0
1070
     2
1040
2.0
1040
4.0
1070
     0
1070
     1
1070
     1
1040
0.03
1070
     3
1040
0.03
1002
}
  0
INSERT
  5
68F2
  8
ASHADE
 62
     7
  2
AVE_RENDER
 10
-3491.3621920766391
 20
-498.5353498484601
 30
0.0
1001
AVE_RENDER
1002
{
1070
     0
1000
RFile Opt
1070
     1
1070
   640
1070
   480
1070
 10000
1070
     1
1070
     8
1070
     8
1070
     0
1070
     0
1070
     0
1070
     0
1070
     0
1070
     0
1070
     0
1002
}
  0
INSERT
  5
68F3
  8
ASHADE
 62
     8
  2
AVE_RENDER
 10
-3491.3621920766391
 20
-498.5353498484601
 30
0.0
1001
AVE_RENDER
1002
{
1070
     0
1000
Fog Opt
1070
     0
1070
     0
1040
0.0
1040
1.0
1040
0.0
1040
1.0
1010
0.5
1020
0.5
1030
0.5
1002
}
  0
INSERT
  5
68F4
  8
ASHADE
 62
     9
  2
AVE_RENDER
 10
-3491.3621920766391
 20
-498.5353498484601
 30
0.0
1001
AVE_RENDER
1002
{
1070
     0
1000
BG Opt
1070
     0
1070
     1
1010
0.0
1020
0.0
1030
0.0
1010
1.0
1020
0.0
1030
0.0
1010
0.0
1020
1.0
1030
0.0
1010
0.0
1020
0.0
1030
1.0
1040
0.5
1040
0.33
1040
0.0
1000

1070
     1
1000

1070
     1
1070
     1
1040
1.0
1040
1.0
1040
0.0
1040
0.0
1070
     0
1002
}
  0
INSERT
  5
68F5
  8
ASHADE
 62
     1
  2
AVE_GLOBAL
 10
-3491.3621920766391
 20
-498.5353498484601
 30
0.0
1001
AVE_MATERIAL
1002
{
1000
*GLOBAL*
1000
1
1000
Global finish.
1002
{
1002
}
1002
{
1070
    63
1002
{
1002
{
1010
-1.0
1020
-1.0
1030
-1.0
1002
}
1040
0.1000000014901161
1000

1040
0.0
1002
{
1002
}
1040
0.0
1002
{
1002
}
1040
0.0
1002
}
1002
{
1002
{
1010
-1.0
1020
-1.0
1030
-1.0
1002
}
1040
0.699999988079071
1000

1040
0.0
1002
{
1002
}
1040
0.0
1002
{
1002
}
1040
0.0
1002
}
1002
{
1002
{
1010
-1.0
1020
-1.0
1030
-1.0
1002
}
1040
0.2000000029802322
1000

1040
0.0
1002
{
1002
}
1040
0.0
1002
{
1002
}
1040
0.0
1002
}
1002
{
1070
     0
1002
{
1070
     1
1002
{
1040
1.0
1040
1.0
1000

1040
0.0
1002
{
1002
}
1040
0.0
1002
{
1002
}
1040
0.0
1002
}
1002
}
1040
1.0
1040
0.0
1040
0.0
1002
}
1002
{
1040
1.0
1040
1.0
1000

1040
0.0
1002
{
1002
}
1040
0.0
1002
{
1002
}
1040
0.0
1002
}
1002
{
1040
0.5
1040
1.0
1000

1040
0.0
1002
{
1002
}
1040
0.0
1002
{
1002
}
1040
0.0
1002
}
1002
{
1070
     0
1040
0.0
1002
{
1002
}
1040
1.0
1002
{
1002
}
1040
0.0
1002
}
1002
{
1040
0.0
1002
{
1002
{
1010
0.0
1020
0.0
1030
0.0
1002
}
1040
1.0
1000

1040
0.0
1002
{
1002
}
1040
0.0
1002
{
1002
}
1040
0.0
1002
}
1002
}
1002
{
1002
{
1070
     1
1002
{
1040
0.0
1040
1.0
1000

1040
0.0
1002
{
1002
}
1040
0.0
1002
{
1002
}
1040
0.0
1002
}
1002
}
1040
0.0
1002
{
1002
}
1010
1.0
1020
0.0
1030
0.0
1010
0.0
1020
1.0
1030
0.0
1010
0.0
1020
0.0
1030
1.0
1070
     0
1002
}
1002
{
1002
{
1040
1.0
1040
1.0
1002
{
1070
     1
1002
{
1040
1.0
1040
1.0
1000

1040
0.0
1002
{
1002
}
1040
0.0
1002
{
1002
}
1040
0.0
1002
}
1002
}
1002
}
1070
     0
1040
0.0
1002
{
1002
}
1002
}
1002
{
1002
}
1002
}
1002
{
1071
        3
1070
     3
1070
     0
1002
{
1070
     2
1070
     0
1070
     0
1040
0.0
1002
}
1070
     0
1070
     2
1002
{
1002
}
1002
}
1002
{
1040
8030.0
1040
190.30000305175781
1040
0.3050000071525574
1040
228.0
1040
545.0
1040
14.0
1040
17.39999961853027
1040
0.4560000002384186
1002
}
1002
}
  0
CIRCLE
  5
68F6
  8
OUTLINE
  6
CONTINUOUS
 10
1628.2933964362021
 20
1101.123271779064
 30
0.0
 40
16.0
  0
LINE
  5
68F7
  8
OUTLINE
 10
1895.9847788898901
 20
1886.461040963886
 30
0.0
 11
1895.9847788898901
 21
1866.461040963886
 31
0.0
  0
LINE
  5
68F8
  8
OUTLINE
 10
1895.9847788898901
 20
1866.461040963886
 30
0.0
 11
1939.2347788898901
 21
1866.461040963886
 31
0.0
  0
LINE
  5
68F9
  8
OUTLINE
 10
1895.9847788898901
 20
1886.461040963886
 30
0.0
 11
1939.2347788898901
 21
1886.461040963886
 31
0.0
  0
LINE
  5
68FA
  8
OUTLINE
 10
1895.9847788898901
 20
796.77647177906465
 30
0.0
 11
1964.2347788898901
 21
796.77647177906465
 31
0.0
  0
LINE
  5
68FB
  8
OUTLINE
 10
1895.9847788898901
 20
776.77647177906465
 30
0.0
 11
1964.2347788898901
 21
776.77647177906465
 31
0.0
  0
LINE
  5
68FC
  8
OUTLINE
 10
1895.9847788898901
 20
796.77647177906465
 30
0.0
 11
1895.9847788898901
 21
776.77647177906465
 31
0.0
  0
INSERT
  5
68FD
  8
AME_FRZ
  2
AME_NIL
 10
441.52688824527092
 20
948.30372501124839
 30
0.0
  0
INSERT
  5
68FE
  8
AME_FRZ
  2
AME_SOL
 10
441.52688824527092
 20
948.30372501124839
 30
0.0
1001
AME_SOL
1000
R2.1
1000
AME2
1000
sq cm
1070
     3
1070
     0
1070
     3
1000
wire
1040
45.0
1000
U
1040
1.0
1000
cm
1000
gm
1000
MILD_STEEL
1070
    25
1000
CSG
1070
     1
1070
     3
1070
     3
1070
     3
1070
     0
1000
cu cm
1070
     1
1070
     0
1005
4146
  0
TEXT
  5
68FF
  8
OVERLAY-A3
 10
2844.3437260722162
 20
110.8312138601009
 30
0.0
 40
24.0
  1
Date
  7
SIMPLEX
  0
TEXT
  5
6900
  8
OVERLAY-A3
 10
3746.1111923736021
 20
129.50330202341121
 30
0.0
 40
24.0
  1
Revision
 41
0.7812095035934772
  7
SIMPLEX
 72
     5
 11
3851.4628740010648
 21
129.50330202341121
 31
0.0
  0
LINE
  5
6901
  8
OVERLAY-A3
 10
3734.49134999016
 20
20.842492848317129
 30
0.0
 11
3734.49134999016
 21
168.2686557085465
 31
0.0
  0
LINE
  5
6902
  8
OVERLAY-A3
 10
2819.3515294571471
 20
336.2346735410627
 30
0.0
 11
2819.3515294571471
 21
20.842492848317129
 31
0.0
  0
LINE
  5
6903
  8
OVERLAY-A3
 10
3416.913678013093
 20
20.842492848317129
 30
0.0
 11
3416.913678013093
 21
168.2686557085465
 31
0.0
  0
LINE
  5
6904
  8
OVERLAY-A3
 10
3416.913678013093
 20
93.312599269463774
 30
0.0
 11
2819.3515294571471
 21
93.312599269463774
 31
0.0
  0
LINE
  5
6905
  8
OVERLAY-A3
 10
3861.5754652378419
 20
168.26865570854659
 30
0.0
 11
2819.3515294571471
 21
168.26865570854659
 31
0.0
  0
LINE
  5
6906
  8
OVERLAY-A3
 10
2819.3515294571471
 20
20.842492848317129
 30
0.0
 11
3861.2779580594911
 21
20.842492848317129
 31
0.0
  0
LINE
  5
6907
  8
OVERLAY-A3
 10
3861.2779580594911
 20
20.842492848317129
 30
0.0
 11
3861.2779580594911
 21
336.2346735410627
 31
0.0
  0
LINE
  5
6908
  8
OVERLAY-A3
 10
3861.2779580594911
 20
336.2346735410627
 30
0.0
 11
2819.3515294571471
 21
336.2346735410627
 31
0.0
  0
TEXT
  5
6909
  8
OVERLAY-A3
 10
2844.4832191031091
 20
47.922488065357683
 30
0.0
 40
20.0
  1
Scale
 41
1.3701747965659781
  7
SIMPLEX
 72
     5
 11
2944.9627041846138
 21
47.922488065357683
 31
0.0
  0
TEXT
  5
690A
  8
OVERLAY-A3
 10
3474.8591236007969
 20
128.8934315067097
 30
0.0
 40
20.0
  1
Drawing No.
  7
SIMPLEX
 72
     2
 11
3649.1448378865111
 21
128.8934315067097
 31
0.0
  0
LINE
  5
690B
  8
OVERLAY-A3
 10
1019.56237816698
 20
0.0
 30
0.0
 11
3890.0
 21
0.0
 31
0.0
  0
LINE
  5
690C
  8
OVERLAY-A3
 10
3890.0
 20
0.0
 30
0.0
 11
3890.0
 21
2508.1488385565358
 31
0.0
  0
LINE
  5
690D
  8
OVERLAY-A3
 10
3890.0
 20
2508.1488385565358
 30
0.0
 11
1019.56237816698
 21
2508.1488385565358
 31
0.0
  0
LINE
  5
690E
  8
OVERLAY-A3
 10
1019.56237816698
 20
2508.1488385565358
 30
0.0
 11
1019.56237816698
 21
0.0
 31
0.0
  0
TEXT
  5
690F
  8
TEXT
 10
2983.685619329126
 20
46.79993077133895
 30
0.0
 40
30.0
  1
1:10
  7
TITLE3
  0
TEXT
  5
6910
  8
TEXT
 10
3474.287616474197
 20
52.85264810448826
 30
0.0
 40
30.0
  1
IMD280
  7
TITLE3
  0
TEXT
  5
6911
  8
TEXT
 10
3183.5605195740741
 20
219.30232166006209
 30
0.0
 40
60.0
  1
IMD280
  7
TITLE3
  0
LINE
  5
6912
  8
OUTLINE
 10
1758.883085184041
 20
1087.7764717790651
 30
0.0
 11
1758.883085184041
 21
1172.8199653658
 31
0.0
  0
LINE
  5
6913
  8
OUTLINE
 10
1131.7933964362001
 20
1068.2764717790651
 30
0.0
 11
1131.7933964362001
 21
951.31996536580175
 31
0.0
  0
LINE
  5
6914
  8
DIM
 62
    52
 10
1131.7933964362001
 20
1196.3199653658021
 30
0.0
 11
1131.7933964362001
 21
1301.771077437814
 31
0.0
  0
LINE
  5
6915
  8
DIM
 62
    52
 10
1758.883085184041
 20
1192.819965365801
 30
0.0
 11
1758.883085184041
 21
1301.771077437814
 31
0.0
  0
LINE
  5
6916
  8
DIM
 62
    52
 10
1161.7933964362001
 20
1281.771077437814
 30
0.0
 11
1386.766812238692
 21
1281.771077437814
 31
0.0
  0
LINE
  5
6917
  8
DIM
 62
    52
 10
1728.883085184041
 20
1281.771077437814
 30
0.0
 11
1503.9096693815491
 21
1281.771077437814
 31
0.0
  0
SOLID
  5
6918
  8
DIM
 62
    52
 10
1161.7933964362001
 20
1286.771077437814
 30
0.0
 11
1161.7933964362001
 21
1276.771077437814
 31
0.0
 12
1131.7933964362001
 22
1281.771077437814
 32
0.0
 13
1131.7933964362001
 23
1281.771077437814
 33
0.0
  0
SOLID
  5
6919
  8
DIM
 62
    52
 10
1728.883085184041
 20
1286.771077437814
 30
0.0
 11
1728.883085184041
 21
1276.771077437814
 31
0.0
 12
1758.883085184041
 22
1281.771077437814
 32
0.0
 13
1758.883085184041
 23
1281.771077437814
 33
0.0
  0
TEXT
  5
691A
  8
CLEAR
 62
    50
 10
1406.766812238692
 20
1266.771077437814
 30
0.0
 40
30.0
  1
627
  7
TITLE3
  0
TEXT
  5
691B
  8
TEXT
 10
2444.0135885132522
 20
976.82489069737585
 30
0.0
 40
60.0
  1
IMD280
  7
TITLE3
  0
TEXT
  5
691C
  8
TEXT
 10
2444.0135885132522
 20
1928.347140909565
 30
0.0
 40
60.0
  1
IMD280
  7
TITLE3
  0
TEXT
  5
691D
  8
TEXT
 10
1302.3380172892339
 20
976.82489069737585
 30
0.0
 40
60.0
  1
IMD280
  7
TITLE3
  0
LINE
  5
691E
  8
CLEAR
 10
1465.2347788898901
 20
1684.461040963886
 30
0.0
 11
1465.2347788898901
 21
2187.4610409638872
 31
0.0
  0
LINE
  5
691F
  8
CLEAR
 10
3776.2347788898901
 20
2187.4610409638881
 30
0.0
 11
3776.2347788898901
 21
1684.4640753629351
 31
0.0
  0
INSERT
  5
6920
  8
DIM
  2
NEW_BLOCK0
 10
1045.039163833444
 20
30.01122471209964
 30
0.0
  0
LINE
  5
6921
  8
DIM
 10
2645.6783997472689
 20
1693.5185242868281
 30
0.0
 11
2617.1024033956051
 21
1646.5144427945081
 31
0.0
  0
LINE
  5
6922
  8
DIM
 10
2645.6783997472689
 20
1693.5185242868281
 30
0.0
 11
2674.2543960989342
 21
1646.5144427945081
 31
0.0
  0
LINE
  5
6923
  8
DIM
 10
2617.1024033956051
 20
1646.5144427945081
 30
0.0
 11
2634.8513859492382
 21
1646.5144427945081
 31
0.0
  0
LINE
  5
6924
  8
DIM
 10
2634.8513859492382
 20
1646.5144427945081
 30
0.0
 11
2634.8513859492382
 21
1591.528540086962
 31
0.0
  0
LINE
  5
6925
  8
DIM
 10
2656.5054135453029
 20
1646.5144427945081
 30
0.0
 11
2656.5054135453029
 21
1591.528540086962
 31
0.0
  0
LINE
  5
6926
  8
DIM
 10
2634.8513859492382
 20
1591.528540086962
 30
0.0
 11
2656.5054135453029
 21
1591.528540086962
 31
0.0
  0
LINE
  5
6927
  8
DIM
 10
2674.2543960989342
 20
1646.5144427945081
 30
0.0
 11
2656.5054135453029
 21
1646.5144427945081
 31
0.0
  0
LINE
  5
6928
  8
DIM
 10
2713.4282519048952
 20
2225.5043830937998
 30
0.0
 11
2713.4282519048952
 21
2170.5184803862562
 31
0.0
  0
LINE
  5
6929
  8
DIM
 10
2735.0822795009608
 20
2225.5043830937998
 30
0.0
 11
2735.0822795009608
 21
2170.5184803862562
 31
0.0
  0
LINE
  5
692A
  8
DIM
 10
2713.4282519048952
 20
2170.5184803862562
 30
0.0
 11
2735.0822795009608
 21
2170.5184803862562
 31
0.0
  0
LINE
  5
692B
  8
DIM
 10
2724.2552657029269
 20
2272.5084645861189
 30
0.0
 11
2695.679269351263
 21
2225.5043830937998
 31
0.0
  0
LINE
  5
692C
  8
DIM
 10
2695.679269351263
 20
2225.5043830937998
 30
0.0
 11
2713.4282519048952
 21
2225.5043830937998
 31
0.0
  0
LINE
  5
692D
  8
DIM
 10
2752.8312620545912
 20
2225.5043830937998
 30
0.0
 11
2735.0822795009608
 21
2225.5043830937998
 31
0.0
  0
LINE
  5
692E
  8
DIM
 10
2724.2552657029269
 20
2272.5084645861189
 30
0.0
 11
2752.8312620545912
 21
2225.5043830937998
 31
0.0
  0
LINE
  5
692F
  8
CLEAR
 10
1965.2347788898901
 20
2187.4610409638881
 30
0.0
 11
1465.2347788898901
 21
2187.4610409638872
 31
0.0
  0
LINE
  5
6930
  8
CLEAR
 10
1965.2347788898901
 20
1684.461040963886
 30
0.0
 11
1465.2347788898901
 21
1684.461040963886
 31
0.0
  0
LINE
  5
6931
  8
CLEAR
 10
3276.2347788898901
 20
2187.4610409638881
 30
0.0
 11
3776.2347788898901
 21
2187.4610409638881
 31
0.0
  0
LINE
  5
6932
  8
CLEAR
 10
3274.2347788898901
 20
1684.4640753629351
 30
0.0
 11
3776.2347788898901
 21
1684.4640753629351
 31
0.0
  0
TEXT
  5
6933
  8
TEXT
  6
PHANTOM2
 10
1514.473366075691
 20
1847.615195437726
 30
0.0
 40
30.0
  1
500 min 
 50
90.0
  7
TITLE3
  0
TEXT
  5
6934
  8
TEXT
  6
PHANTOM2
 10
1565.9019375042619
 20
1826.1236632758801
 30
0.0
 40
30.0
  1
CLEARANCE
 50
90.0
  7
TITLE3
  0
TEXT
  5
6935
  8
TEXT
  6
PHANTOM2
 10
3752.1875467607192
 20
1826.1236632758801
 30
0.0
 40
30.0
  1
CLEARANCE
 50
90.0
  7
TITLE3
  0
TEXT
  5
6936
  8
TEXT
  6
PHANTOM2
 10
3700.7589753321472
 20
1847.615195437726
 30
0.0
 40
30.0
  1
500 min 
 50
90.0
  7
TITLE3
  0
ENDSEC
  0
EOF
