  0
SECTION
  2
HEADER
  9
$ACADVER
  1
AC1009
  9
$INSBASE
 10
0.0
 20
0.0
 30
0.0
  9
$EXTMIN
 10
1299.00131440671
 20
0.0
 30
0.0
  9
$EXTMAX
 10
3890.0
 20
2351.389827572144
 30
0.0
  9
$LIMMIN
 10
0.0
 20
0.0
  9
$LIMMAX
 10
3890.0
 20
2660.0
  9
$ORTHOMODE
 70
     0
  9
$REGENMODE
 70
     1
  9
$FILLMODE
 70
     1
  9
$QTEXTMODE
 70
     0
  9
$MIRRTEXT
 70
     0
  9
$DRAGMODE
 70
     2
  9
$LTSCALE
 40
50.0
  9
$OSMODE
 70
     0
  9
$ATTMODE
 70
     1
  9
$TEXTSIZE
 40
30.0
  9
$TRACEWID
 40
0.05
  9
$TEXTSTYLE
  7
TITLE3
  9
$CLAYER
  8
CLEAR
  9
$CELTYPE
  6
BYLAYER
  9
$CECOLOR
 62
   256
  9
$DIMSCALE
 40
1.0
  9
$DIMASZ
 40
30.0
  9
$DIMEXO
 40
20.0
  9
$DIMDLI
 40
0.38
  9
$DIMRND
 40
0.0
  9
$DIMDLE
 40
0.0
  9
$DIMEXE
 40
20.0
  9
$DIMTP
 40
0.0
  9
$DIMTM
 40
0.0
  9
$DIMTXT
 40
30.0
  9
$DIMCEN
 40
0.09
  9
$DIMTSZ
 40
0.0
  9
$DIMTOL
 70
     0
  9
$DIMLIM
 70
     0
  9
$DIMTIH
 70
     0
  9
$DIMTOH
 70
     0
  9
$DIMSE1
 70
     0
  9
$DIMSE2
 70
     0
  9
$DIMTAD
 70
     0
  9
$DIMZIN
 70
     0
  9
$DIMBLK
  1

  9
$DIMASO
 70
     0
  9
$DIMSHO
 70
     0
  9
$DIMPOST
  1

  9
$DIMAPOST
  1

  9
$DIMALT
 70
     0
  9
$DIMALTD
 70
     2
  9
$DIMALTF
 40
25.399999999999999
  9
$DIMLFAC
 40
1.0
  9
$DIMTOFL
 70
     0
  9
$DIMTVP
 40
0.0
  9
$DIMTIX
 70
     0
  9
$DIMSOXD
 70
     0
  9
$DIMSAH
 70
     0
  9
$DIMBLK1
  1

  9
$DIMBLK2
  1

  9
$DIMSTYLE
  2
STANDARD
  9
$DIMCLRD
 70
    52
  9
$DIMCLRE
 70
    52
  9
$DIMCLRT
 70
    50
  9
$DIMTFAC
 40
1.0
  9
$DIMGAP
 40
20.0
  9
$LUNITS
 70
     2
  9
$LUPREC
 70
     2
  9
$SKETCHINC
 40
0.1
  9
$FILLETRAD
 40
0.0
  9
$AUNITS
 70
     0
  9
$AUPREC
 70
     2
  9
$MENU
  1
\acad12\support\cnc
  9
$ELEVATION
 40
0.0
  9
$PELEVATION
 40
0.0
  9
$THICKNESS
 40
0.0
  9
$LIMCHECK
 70
     0
  9
$BLIPMODE
 70
     0
  9
$CHAMFERA
 40
0.0
  9
$CHAMFERB
 40
0.0
  9
$SKPOLY
 70
     0
  9
$TDCREATE
 40
2451407.7046237262
  9
$TDUPDATE
 40
2452929.4610691541
  9
$TDINDWG
 40
0.2766768056
  9
$TDUSRTIMER
 40
0.2766766319
  9
$USRTIMER
 70
     1
  9
$ANGBASE
 50
0.0
  9
$ANGDIR
 70
     0
  9
$PDMODE
 70
     2
  9
$PDSIZE
 40
10.0
  9
$PLINEWID
 40
0.0
  9
$COORDS
 70
     2
  9
$SPLFRAME
 70
     0
  9
$SPLINETYPE
 70
     6
  9
$SPLINESEGS
 70
     8
  9
$ATTDIA
 70
     0
  9
$ATTREQ
 70
     1
  9
$HANDLING
 70
 22529
  9
$HANDSEED
  5
266D
  9
$SURFTAB1
 70
     6
  9
$SURFTAB2
 70
     6
  9
$SURFTYPE
 70
     6
  9
$SURFU
 70
     6
  9
$SURFV
 70
     6
  9
$UCSNAME
  2

  9
$UCSORG
 10
0.0
 20
0.0
 30
0.0
  9
$UCSXDIR
 10
1.0
 20
0.0
 30
0.0
  9
$UCSYDIR
 10
0.0
 20
1.0
 30
0.0
  9
$PUCSNAME
  2

  9
$PUCSORG
 10
0.0
 20
0.0
 30
0.0
  9
$PUCSXDIR
 10
1.0
 20
0.0
 30
0.0
  9
$PUCSYDIR
 10
0.0
 20
1.0
 30
0.0
  9
$USERI1
 70
     0
  9
$USERI2
 70
     0
  9
$USERI3
 70
     0
  9
$USERI4
 70
     0
  9
$USERI5
 70
     0
  9
$USERR1
 40
0.0
  9
$USERR2
 40
0.0
  9
$USERR3
 40
0.0
  9
$USERR4
 40
0.0
  9
$USERR5
 40
0.0
  9
$WORLDVIEW
 70
     1
  9
$SHADEDGE
 70
     3
  9
$SHADEDIF
 70
    70
  9
$TILEMODE
 70
     1
  9
$MAXACTVP
 70
    16
  9
$PLIMCHECK
 70
     0
  9
$PEXTMIN
 10
1.0000000000000000E+020
 20
1.0000000000000000E+020
 30
1.0000000000000000E+020
  9
$PEXTMAX
 10
-1.0000000000000000E+020
 20
-1.0000000000000000E+020
 30
-1.0000000000000000E+020
  9
$PLIMMIN
 10
0.0
 20
0.0
  9
$PLIMMAX
 10
12.0
 20
9.0
  9
$UNITMODE
 70
     0
  9
$VISRETAIN
 70
     0
  9
$PLINEGEN
 70
     0
  9
$PSLTSCALE
 70
     0
  0
ENDSEC
  0
SECTION
  2
TABLES
  0
TABLE
  2
VPORT
 70
     2
  0
VPORT
  2
*ACTIVE
 70
     0
 10
0.0
 20
0.0
 11
1.0
 21
1.0
 12
2594.5105841540621
 22
1175.662695222607
 13
0.0
 23
0.0
 14
25.0
 24
25.0
 15
100.0
 25
100.0
 16
0.0
 26
0.0
 36
1.0
 17
0.0
 27
0.0
 37
0.0
 40
2377.1870510451972
 41
1.5912408759124079
 42
50.0
 43
0.0
 44
0.0
 50
0.0
 51
0.0
 71
     0
 72
   100
 73
     1
 74
     0
 75
     0
 76
     0
 77
     0
 78
     0
  0
ENDTAB
  0
TABLE
  2
LTYPE
 70
     3
  0
LTYPE
  2
CONTINUOUS
 70
     0
  3
Solid line
 72
    65
 73
     0
 40
0.0
  0
LTYPE
  2
PHANTOMX2
 70
     0
  3
Phantom (2x) ____________    ____    ____   _
 72
    65
 73
     6
 40
5.0
 49
2.5
 49
-0.5
 49
0.5
 49
-0.5
 49
0.5
 49
-0.5
  0
LTYPE
  2
PHANTOM2
 70
     0
  3
Phantom (.5x) ___ _ _ ___ _ _ ___ _ _ ___ _ _
 72
    65
 73
     6
 40
1.25
 49
0.625
 49
-0.125
 49
0.125
 49
-0.125
 49
0.125
 49
-0.125
  0
ENDTAB
  0
TABLE
  2
LAYER
 70
     6
  0
LAYER
  2
0
 70
     0
 62
     7
  6
CONTINUOUS
  0
LAYER
  2
CLEAR
 70
     0
 62
     1
  6
PHANTOMX2
  0
LAYER
  2
OUTLINE
 70
     0
 62
     7
  6
CONTINUOUS
  0
LAYER
  2
TEXT
 70
     0
 62
   100
  6
CONTINUOUS
  0
LAYER
  2
DIM
 70
     0
 62
    50
  6
CONTINUOUS
  0
LAYER
  2
OVERLAY-A3
 70
     0
 62
     7
  6
CONTINUOUS
  0
ENDTAB
  0
TABLE
  2
STYLE
 70
     3
  0
STYLE
  2
STANDARD
 70
     0
 40
0.0
 41
1.0
 50
0.0
 71
     0
 42
0.2
  3
txt
  4

  0
STYLE
  2
TITLE3
 70
     0
 40
30.0
 41
1.0
 50
0.0
 71
     0
 42
30.0
  3
SIMPLEX
  4

  0
STYLE
  2
SIMPLEX
 70
     0
 40
40.0
 41
1.0
 50
0.0
 71
     0
 42
25.0
  3
SIMPLEX
  4

  0
ENDTAB
  0
TABLE
  2
VIEW
 70
     0
  0
ENDTAB
  0
TABLE
  2
UCS
 70
     0
  0
ENDTAB
  0
TABLE
  2
APPID
 70
     1
  0
APPID
  2
ACAD
 70
     0
  0
ENDTAB
  0
TABLE
  2
DIMSTYLE
 70
     1
  0
DIMSTYLE
  2
STANDARD
 70
     0
  3

  4

  5

  6

  7

 40
1.0
 41
0.18
 42
0.0625
 43
0.38
 44
0.18
 45
0.0
 46
0.0
 47
0.0
 48
0.0
140
0.18
141
0.09
142
0.0
143
25.399999999999999
144
1.0
145
0.0
146
1.0
147
0.09
 71
     0
 72
     0
 73
     1
 74
     1
 75
     0
 76
     0
 77
     0
 78
     0
170
     0
171
     2
172
     0
173
     0
174
     0
175
     0
176
     0
177
     0
178
     0
  0
ENDTAB
  0
ENDSEC
  0
SECTION
  2
BLOCKS
  0
BLOCK
  8
0
  2
$MODEL_SPACE
 70
     0
 10
0.0
 20
0.0
 30
0.0
  3
$MODEL_SPACE
  1

  0
ENDBLK
  5
232C
  8
0
  0
BLOCK
 67
     1
  8
0
  2
$PAPER_SPACE
 70
     0
 10
0.0
 20
0.0
 30
0.0
  3
$PAPER_SPACE
  1

  0
ENDBLK
  5
2328
 67
     1
  8
0
  0
BLOCK
  8
0
  2
RO42
 70
     0
 10
0.0
 20
0.0
 30
0.0
  3
RO42
  1

  0
CIRCLE
  5
2343
  8
0
 10
0.0
 20
0.0
 30
0.0
 40
12.699999999999999
  0
ENDBLK
  5
2344
  8
0
  0
BLOCK
  8
0
  2
NEW_BLOCK
 70
     0
 10
0.0
 20
0.0
 30
0.0
  3
NEW_BLOCK
  1

  0
TEXT
  5
2347
  8
TEXT
 10
27.285946821803002
 20
25.27142175952417
 30
0.0
 40
40.0
  1
available on request
  7
TITLE3
  0
TEXT
  5
2348
  8
TEXT
 10
27.285946821803002
 20
93.842850330952714
 30
0.0
 40
40.0
  1
Certified dimensions
  7
TITLE3
  0
TEXT
  5
2349
  8
TEXT
 10
27.285946821803002
 20
162.4142789023812
 30
0.0
 40
40.0
  1
without notice or obligation.
  7
TITLE3
  0
TEXT
  5
234A
  8
TEXT
 10
27.285946821803002
 20
230.9857074738097
 30
0.0
 40
40.0
  1
specifications at any time
  7
TITLE3
  0
TEXT
  5
234B
  8
TEXT
 10
27.285946821803002
 20
299.55713604523839
 30
0.0
 40
40.0
  1
the right to change 
  7
TITLE3
  0
TEXT
  5
234C
  8
TEXT
 10
27.285946821803002
 20
436.69999318809528
 30
0.0
 40
40.0
  1
NOTE
  7
TITLE3
  0
TEXT
  5
234D
  8
TEXT
 10
27.285946821803002
 20
368.12856461666672
 30
0.0
 40
40.0
  1
The manufacturer reserves
  7
TITLE3
  0
ENDBLK
  5
234E
  8
0
  0
BLOCK
  8
0
  2
NEW_BLOCK0
 70
     0
 10
0.0
 20
0.0
 30
0.0
  3
NEW_BLOCK0
  1

  0
INSERT
  5
2351
  8
DIM
  2
NEW_BLOCK
 10
13.048098169647799
 20
6.0725618626865971
 30
0.0
 41
0.7000000000000455
 42
0.6999999999999993
 43
0.7
  0
ENDBLK
  5
2352
  8
0
  0
ENDSEC
  0
SECTION
  2
ENTITIES
  0
LINE
  5
2591
  8
OUTLINE
 10
3358.2149560073922
 20
562.85343228570468
 30
0.0
 11
3358.2149560073899
 21
799.80993869896895
 31
0.0
  0
LINE
  5
2592
  8
OUTLINE
 10
3383.2149560073908
 20
920.85343228570468
 30
0.0
 11
2438.2149560073922
 21
920.85343228570559
 31
0.0
  0
LINE
  5
2593
  8
OUTLINE
 10
2463.2149560073922
 20
562.85343228570559
 30
0.0
 11
2463.2149560073922
 21
799.80993869896895
 31
0.0
  0
LINE
  5
2594
  8
OUTLINE
 10
3368.2149560073908
 20
562.85343228570468
 30
0.0
 11
2453.2149560073922
 21
562.85343228570559
 31
0.0
  0
LINE
  5
2595
  8
OUTLINE
 10
2537.7149560073908
 20
904.3534322857048
 30
0.0
 11
3301.7149560073908
 21
904.35343228570525
 31
0.0
  0
LINE
  5
2596
  8
OUTLINE
 10
2537.7149560073922
 20
620.35343228570503
 30
0.0
 11
3301.7149560073908
 21
620.35343228570468
 31
0.0
  0
LINE
  5
2597
  8
OUTLINE
 10
2537.7149560073908
 20
904.3534322857048
 30
0.0
 11
2537.7149560073922
 21
620.35343228570503
 31
0.0
  0
LINE
  5
2598
  8
OUTLINE
 10
3301.7149560073908
 20
904.35343228570525
 30
0.0
 11
3301.7149560073908
 21
620.35343228570468
 31
0.0
  0
LINE
  5
2599
  8
OUTLINE
 10
3367.2149560073922
 20
876.80993869896895
 30
0.0
 11
3367.2149560073922
 21
806.80993869896895
 31
0.0
  0
LINE
  5
259A
  8
OUTLINE
 10
3320.2149560073922
 20
876.80993869896895
 30
0.0
 11
3320.2149560073899
 21
806.80993869896895
 31
0.0
  0
LINE
  5
259B
  8
OUTLINE
 10
3320.2149560073899
 20
806.80993869896895
 30
0.0
 11
3367.2149560073922
 21
806.80993869896895
 31
0.0
  0
LINE
  5
259C
  8
OUTLINE
 10
3361.2149560073899
 20
799.80993869896895
 30
0.0
 11
3326.2149560073899
 21
799.80993869896895
 31
0.0
  0
LINE
  5
259D
  8
OUTLINE
 10
3326.2149560073899
 20
799.80993869896884
 30
0.0
 11
3326.2149560073899
 21
806.80993869896895
 31
0.0
  0
LINE
  5
259E
  8
OUTLINE
 10
3361.2149560073899
 20
799.80993869896884
 30
0.0
 11
3361.2149560073899
 21
806.80993869896895
 31
0.0
  0
LINE
  5
259F
  8
OUTLINE
 10
3320.2149560073922
 20
876.80993869896895
 30
0.0
 11
3367.2149560073922
 21
876.80993869896895
 31
0.0
  0
LINE
  5
25A0
  8
OUTLINE
 10
2454.2149560073908
 20
876.80993869896895
 30
0.0
 11
2454.2149560073908
 21
806.80993869896895
 31
0.0
  0
LINE
  5
25A1
  8
OUTLINE
 10
2501.2149560073908
 20
876.80993869896895
 30
0.0
 11
2501.2149560073908
 21
806.80993869896895
 31
0.0
  0
LINE
  5
25A2
  8
OUTLINE
 10
2495.2149560073908
 20
799.80993869896895
 30
0.0
 11
2460.2149560073908
 21
799.80993869896895
 31
0.0
  0
LINE
  5
25A3
  8
OUTLINE
 10
2454.2149560073908
 20
806.80993869896895
 30
0.0
 11
2501.2149560073908
 21
806.80993869896895
 31
0.0
  0
LINE
  5
25A4
  8
OUTLINE
 10
2460.2149560073908
 20
799.80993869896884
 30
0.0
 11
2460.2149560073908
 21
806.80993869896895
 31
0.0
  0
LINE
  5
25A5
  8
OUTLINE
 10
2495.2149560073908
 20
799.80993869896884
 30
0.0
 11
2495.2149560073908
 21
806.80993869896895
 31
0.0
  0
LINE
  5
25A6
  8
OUTLINE
 10
2454.2149560073908
 20
876.80993869896895
 30
0.0
 11
2501.2149560073908
 21
876.80993869896895
 31
0.0
  0
LINE
  5
25A7
  8
OUTLINE
 10
3358.2149560073899
 20
876.80993869896895
 30
0.0
 11
3358.214956007389
 21
920.85343228570434
 31
0.0
  0
LINE
  5
25A8
  8
OUTLINE
 62
   111
 10
2463.2149560073922
 20
876.80993869896895
 30
0.0
 11
2463.2149560073922
 21
920.85343228570559
 31
0.0
  0
LINE
  5
25A9
  8
OUTLINE
 10
2463.0540206383262
 20
918.85343228570548
 30
0.0
 11
2463.0540206383262
 21
876.80993869896895
 31
0.0
  0
TEXT
  5
25AA
  8
DIM
 62
    50
 10
3479.3217451013388
 20
703.28200371427624
 30
0.0
 40
30.0
  1
358
 50
90.0
  7
TITLE3
 72
     1
 11
3464.3217451013388
 21
741.85343228570468
 31
0.0
 73
     2
  0
LINE
  5
25AB
  8
DIM
 62
    52
 10
3385.4090308780092
 20
562.85343228570468
 30
0.0
 11
3484.321745101337
 21
562.85343228570468
 31
0.0
  0
LINE
  5
25AC
  8
DIM
 62
    52
 10
3464.3217451013388
 20
592.85343228570491
 30
0.0
 11
3464.3217451013388
 21
684.82825042679337
 31
0.0
  0
SOLID
  5
25AD
  8
DIM
 62
     7
 10
3459.321745101337
 20
592.85343228570491
 30
0.0
 11
3469.3217451013388
 21
592.85343228570491
 31
0.0
 12
3464.3217451013388
 22
562.85343228570468
 32
0.0
 13
3464.3217451013388
 23
562.85343228570468
 33
0.0
  0
SOLID
  5
25AE
  8
DIM
 62
     7
 10
3459.321745101337
 20
890.85343228570491
 30
0.0
 11
3469.3217451013388
 21
890.85343228570491
 31
0.0
 12
3464.3217451013388
 22
920.85343228570468
 32
0.0
 13
3464.3217451013388
 23
920.85343228570468
 33
0.0
  0
LINE
  5
25AF
  8
DIM
 62
    52
 10
3401.4090308780101
 20
920.85343228570468
 30
0.0
 11
3484.321745101337
 21
920.85343228570468
 31
0.0
  0
LINE
  5
25B0
  8
DIM
 62
    52
 10
3464.3217451013388
 20
890.85343228570491
 30
0.0
 11
3464.3217451013388
 21
796.14060059831888
 31
0.0
  0
LINE
  5
25B1
  8
DIM
 62
    52
 10
2438.2149560073922
 20
940.85343228570559
 30
0.0
 11
2438.2149560073922
 21
1036.0954275962081
 31
0.0
  0
LINE
  5
25B2
  8
DIM
 62
    52
 10
3383.2149560073908
 20
940.85343228570491
 30
0.0
 11
3383.2149560073908
 21
1036.0954275962081
 31
0.0
  0
LINE
  5
25B3
  8
DIM
 62
    52
 10
2468.2149560073922
 20
1016.095427596208
 30
0.0
 11
2812.1435274359628
 21
1016.095427596208
 31
0.0
  0
LINE
  5
25B4
  8
DIM
 62
    52
 10
3353.2149560073908
 20
1016.095427596208
 30
0.0
 11
2965.4484880432292
 21
1016.095427596208
 31
0.0
  0
SOLID
  5
25B5
  8
DIM
 62
     7
 10
2468.2149560073922
 20
1021.095427596208
 30
0.0
 11
2468.2149560073922
 21
1011.095427596208
 31
0.0
 12
2438.2149560073922
 22
1016.095427596208
 32
0.0
 13
2438.2149560073922
 23
1016.095427596208
 33
0.0
  0
SOLID
  5
25B6
  8
DIM
 62
     7
 10
3353.2149560073908
 20
1021.095427596208
 30
0.0
 11
3353.2149560073908
 21
1011.095427596208
 31
0.0
 12
3383.2149560073908
 22
1016.095427596208
 32
0.0
 13
3383.2149560073908
 23
1016.095427596208
 33
0.0
  0
TEXT
  5
25B7
  8
DIM
 62
    50
 10
2854.2863845788202
 20
1001.095427596208
 30
0.0
 40
30.0
  1
945 
  7
TITLE3
 72
     1
 11
2910.7149560073922
 21
1016.095427596208
 31
0.0
 73
     2
  0
CIRCLE
  5
25B8
  8
OUTLINE
 10
3323.8249560073918
 20
1468.0977531689141
 30
0.0
 40
4.75
  0
CIRCLE
  5
25B9
  8
OUTLINE
 10
2498.624956007392
 20
1468.0977531689141
 30
0.0
 40
4.75
  0
LINE
  5
25BA
  8
OUTLINE
 10
3332.2149560073922
 20
1454.5977531689159
 30
0.0
 11
2489.2149560073908
 21
1454.597753168915
 31
0.0
  0
LINE
  5
25BB
  8
OUTLINE
 10
3358.2149560073922
 20
1480.5977531689159
 30
0.0
 11
2463.2149560073908
 21
1480.5977531689159
 31
0.0
  0
LINE
  5
25BC
  8
OUTLINE
 10
3332.2149560073922
 20
1454.5977531689159
 30
0.0
 11
3383.2149560073922
 21
1505.597753168915
 31
0.0
  0
LINE
  5
25BD
  8
OUTLINE
 10
3333.214956007394
 20
2010.5977531689141
 30
0.0
 11
3383.2149560073908
 21
1960.597753168913
 31
0.0
  0
LINE
  5
25BE
  8
OUTLINE
 10
2438.2149560073922
 20
1505.597753168913
 30
0.0
 11
2489.2149560073908
 21
1454.597753168915
 31
0.0
  0
LINE
  5
25BF
  8
OUTLINE
 10
2463.2149560073922
 20
1985.597753168915
 30
0.0
 11
2463.2149560073908
 21
1480.5977531689159
 31
0.0
  0
LINE
  5
25C0
  8
OUTLINE
 10
2463.2149560073922
 20
1985.597753168915
 30
0.0
 11
3358.2149560073922
 21
1985.597753168915
 31
0.0
  0
LINE
  5
25C1
  8
OUTLINE
 10
2488.2149560073922
 20
2010.5977531689141
 30
0.0
 11
2438.2149560073922
 21
1960.597753168915
 31
0.0
  0
CIRCLE
  5
25C2
  8
OUTLINE
 10
2498.624956007392
 20
1998.097753168915
 30
0.0
 40
4.75
  0
CIRCLE
  5
25C3
  8
OUTLINE
 10
3323.8249560073918
 20
1998.097753168915
 30
0.0
 40
4.75
  0
LINE
  5
25C4
  8
OUTLINE
 10
2454.2149560073908
 20
2050.597753168915
 30
0.0
 11
2454.2149560073922
 21
1976.597753168915
 31
0.0
  0
LINE
  5
25C5
  8
OUTLINE
 10
2501.2149560073908
 20
2050.597753168915
 30
0.0
 11
2501.2149560073922
 21
2010.5977531689141
 31
0.0
  0
LINE
  5
25C6
  8
OUTLINE
 10
2454.2149560073908
 20
2050.597753168915
 30
0.0
 11
2501.2149560073908
 21
2050.597753168915
 31
0.0
  0
CIRCLE
  5
25C7
  8
OUTLINE
 10
2477.7149560073908
 20
2030.597753168915
 30
0.0
 40
5.0
  0
LINE
  5
25C8
  8
OUTLINE
 10
3367.2149560073922
 20
2050.597753168915
 30
0.0
 11
3320.2149560073922
 21
2050.597753168915
 31
0.0
  0
LINE
  5
25C9
  8
OUTLINE
 10
3367.2149560073922
 20
2050.597753168915
 30
0.0
 11
3367.2149560073922
 21
1976.597753168913
 31
0.0
  0
LINE
  5
25CA
  8
OUTLINE
 10
3320.2149560073922
 20
2050.597753168915
 30
0.0
 11
3320.2149560073922
 21
2010.5977531689141
 31
0.0
  0
CIRCLE
  5
25CB
  8
OUTLINE
 10
3343.7149560073922
 20
2030.597753168915
 30
0.0
 40
5.0
  0
LINE
  5
25CC
  8
OUTLINE
 10
2454.2149560073908
 20
1415.5977531689159
 30
0.0
 11
2501.2149560073908
 21
1415.5977531689141
 31
0.0
  0
LINE
  5
25CD
  8
OUTLINE
 10
2454.2149560073908
 20
1415.5977531689159
 30
0.0
 11
2454.2149560073922
 21
1489.597753168915
 31
0.0
  0
LINE
  5
25CE
  8
OUTLINE
 10
2501.2149560073908
 20
1415.5977531689141
 30
0.0
 11
2501.2149560073922
 21
1454.5977531689159
 31
0.0
  0
CIRCLE
  5
25CF
  8
OUTLINE
 10
2477.7149560073908
 20
1435.5977531689159
 30
0.0
 40
5.0
  0
LINE
  5
25D0
  8
OUTLINE
 10
3320.2149560073922
 20
1415.5977531689141
 30
0.0
 11
3320.2149560073922
 21
1454.5977531689159
 31
0.0
  0
LINE
  5
25D1
  8
OUTLINE
 10
3367.2149560073922
 20
1415.5977531689159
 30
0.0
 11
3367.2149560073922
 21
1489.597753168915
 31
0.0
  0
CIRCLE
  5
25D2
  8
OUTLINE
 10
3343.7149560073922
 20
1435.5977531689159
 30
0.0
 40
5.0
  0
LINE
  5
25D3
  8
OUTLINE
 10
3367.2149560073922
 20
1415.5977531689159
 30
0.0
 11
3320.2149560073922
 21
1415.5977531689141
 31
0.0
  0
LINE
  5
25D4
  8
OUTLINE
 10
2720.2184307678281
 20
2046.597753168915
 30
0.0
 11
2720.2184307678281
 21
2010.5977531689141
 31
0.0
  0
LINE
  5
25D5
  8
OUTLINE
 10
3120.2184307678281
 20
2046.597753168915
 30
0.0
 11
3120.2184307678281
 21
2010.5977531689141
 31
0.0
  0
LINE
  5
25D6
  8
OUTLINE
 10
3120.2184307678281
 20
2046.597753168915
 30
0.0
 11
2720.2184307678281
 21
2046.597753168915
 31
0.0
  0
LINE
  5
25D7
  8
OUTLINE
 10
2538.7149560073922
 20
1419.5977531689159
 30
0.0
 11
2538.7149560073922
 21
1479.597753168915
 31
0.0
  0
LINE
  5
25D8
  8
OUTLINE
 10
3301.7149560073922
 20
1419.5977531689159
 30
0.0
 11
3301.7149560073922
 21
1454.5977531689159
 31
0.0
  0
LINE
  5
25D9
  8
OUTLINE
 10
2538.7149560073922
 20
1419.5977531689159
 30
0.0
 11
3301.7149560073922
 21
1419.5977531689159
 31
0.0
  0
LINE
  5
25DA
  8
OUTLINE
 10
3383.2149560073922
 20
1505.597753168915
 30
0.0
 11
3383.2149560073908
 21
1960.597753168913
 31
0.0
  0
LINE
  5
25DB
  8
OUTLINE
 10
3358.2149560073922
 20
1480.5977531689159
 30
0.0
 11
3358.2149560073922
 21
1985.597753168915
 31
0.0
  0
LINE
  5
25DC
  8
DIM
 62
    52
 10
2477.7149560073908
 20
2050.597753168915
 30
0.0
 11
2477.7149560073908
 21
2238.8806714496341
 31
0.0
  0
LINE
  5
25DD
  8
DIM
 62
    52
 10
3343.7149560073922
 20
2050.597753168915
 30
0.0
 11
3343.7149560073922
 21
2238.8806714496341
 31
0.0
  0
LINE
  5
25DE
  8
DIM
 62
    52
 10
2507.7149560073908
 20
2218.8806714496341
 30
0.0
 11
2842.5679866091609
 21
2218.8806714496341
 31
0.0
  0
LINE
  5
25DF
  8
DIM
 62
    52
 10
3313.7149560073922
 20
2218.8806714496341
 30
0.0
 11
2971.1585324442949
 21
2218.8806714496341
 31
0.0
  0
SOLID
  5
25E0
  8
DIM
 62
     7
 10
2507.7149560073908
 20
2223.8806714496341
 30
0.0
 11
2507.7149560073908
 21
2213.8806714496341
 31
0.0
 12
2477.7149560073908
 22
2218.8806714496341
 32
0.0
 13
2477.7149560073908
 23
2218.8806714496341
 33
0.0
  0
SOLID
  5
25E1
  8
DIM
 62
     7
 10
3313.7149560073922
 20
2223.8806714496341
 30
0.0
 11
3313.7149560073922
 21
2213.8806714496341
 31
0.0
 12
3343.7149560073922
 22
2218.8806714496341
 32
0.0
 13
3343.7149560073922
 23
2218.8806714496341
 33
0.0
  0
TEXT
  5
25E2
  8
DIM
 62
    50
 10
2872.8578131502491
 20
2203.8806714496341
 30
0.0
 40
30.0
  1
866
  7
TITLE3
 72
     1
 11
2910.7149560073922
 21
2218.8806714496341
 31
0.0
 73
     2
  0
LINE
  5
25E3
  8
DIM
 62
    52
 10
2473.1149560073932
 20
1468.0977531689141
 30
0.0
 11
2331.8602580726269
 21
1468.0977531689141
 31
0.0
  0
LINE
  5
25E4
  8
DIM
 62
    52
 10
2473.1349560073918
 20
1998.097753168915
 30
0.0
 11
2331.8602580726269
 21
1998.097753168915
 31
0.0
  0
LINE
  5
25E5
  8
DIM
 62
    52
 10
2351.8602580726269
 20
1498.0977531689159
 30
0.0
 11
2351.8602580726269
 21
1674.5263245974861
 31
0.0
  0
LINE
  5
25E6
  8
DIM
 62
    52
 10
2351.8602580726269
 20
1968.097753168915
 30
0.0
 11
2351.8602580726269
 21
1791.6691817403439
 31
0.0
  0
SOLID
  5
25E7
  8
DIM
 62
     7
 10
2346.8602580726279
 20
1498.0977531689159
 30
0.0
 11
2356.8602580726269
 21
1498.0977531689159
 31
0.0
 12
2351.8602580726269
 22
1468.0977531689141
 32
0.0
 13
2351.8602580726269
 23
1468.0977531689141
 33
0.0
  0
SOLID
  5
25E8
  8
DIM
 62
     7
 10
2346.8602580726279
 20
1968.097753168915
 30
0.0
 11
2356.8602580726269
 21
1968.097753168915
 31
0.0
 12
2351.8602580726269
 22
1998.097753168915
 32
0.0
 13
2351.8602580726269
 23
1998.097753168915
 33
0.0
  0
TEXT
  5
25E9
  8
DIM
 62
    50
 10
2366.8602580726279
 20
1694.526324597487
 30
0.0
 40
30.0
  1
530
 50
90.0
  7
TITLE3
 72
     1
 11
2351.8602580726269
 21
1733.0977531689159
 31
0.0
 73
     2
  0
LINE
  5
25EA
  8
DIM
 62
    52
 10
2457.7149560073908
 20
1435.5977531689159
 30
0.0
 11
2255.6178492621038
 21
1435.5977531689159
 31
0.0
  0
LINE
  5
25EB
  8
DIM
 62
    52
 10
2457.7149560073908
 20
2030.597753168915
 30
0.0
 11
2255.6178492621038
 21
2030.597753168915
 31
0.0
  0
LINE
  5
25EC
  8
DIM
 62
    52
 10
2275.6178492621038
 20
1465.5977531689159
 30
0.0
 11
2275.6178492621038
 21
1674.5263245974861
 31
0.0
  0
LINE
  5
25ED
  8
DIM
 62
    52
 10
2275.6178492621038
 20
2000.597753168915
 30
0.0
 11
2275.6178492621038
 21
1791.6691817403439
 31
0.0
  0
SOLID
  5
25EE
  8
DIM
 62
     7
 10
2270.6178492621052
 20
1465.5977531689159
 30
0.0
 11
2280.6178492621038
 21
1465.5977531689159
 31
0.0
 12
2275.6178492621038
 22
1435.5977531689159
 32
0.0
 13
2275.6178492621038
 23
1435.5977531689159
 33
0.0
  0
SOLID
  5
25EF
  8
DIM
 62
     7
 10
2270.6178492621052
 20
2000.597753168915
 30
0.0
 11
2280.6178492621038
 21
2000.597753168915
 31
0.0
 12
2275.6178492621038
 22
2030.597753168915
 32
0.0
 13
2275.6178492621038
 23
2030.597753168915
 33
0.0
  0
TEXT
  5
25F0
  8
DIM
 62
    50
 10
2290.6178492621029
 20
1694.526324597487
 30
0.0
 40
30.0
  1
595
 50
90.0
  7
TITLE3
 72
     1
 11
2275.6178492621038
 21
1733.0977531689159
 31
0.0
 73
     2
  0
LINE
  5
25F1
  8
DIM
 62
    52
 10
2498.6249560073929
 20
1443.71442110301
 30
0.0
 11
2498.6249560073929
 21
1279.834475726783
 31
0.0
  0
LINE
  5
25F2
  8
DIM
 62
    52
 10
3323.8249560073918
 20
1443.71442110301
 30
0.0
 11
3323.8249560073918
 21
1279.834475726783
 31
0.0
  0
LINE
  5
25F3
  8
DIM
 62
    52
 10
2528.6249560073929
 20
1299.834475726783
 30
0.0
 11
2852.653527435963
 21
1299.834475726783
 31
0.0
  0
LINE
  5
25F4
  8
DIM
 62
    52
 10
3293.8249560073918
 20
1299.834475726783
 30
0.0
 11
2969.7963845788199
 21
1299.834475726783
 31
0.0
  0
SOLID
  5
25F5
  8
DIM
 62
     7
 10
2528.6249560073929
 20
1304.834475726783
 30
0.0
 11
2528.6249560073929
 21
1294.834475726783
 31
0.0
 12
2498.6249560073929
 22
1299.834475726783
 32
0.0
 13
2498.6249560073929
 23
1299.834475726783
 33
0.0
  0
SOLID
  5
25F6
  8
DIM
 62
     7
 10
3293.8249560073918
 20
1304.834475726783
 30
0.0
 11
3293.8249560073918
 21
1294.834475726783
 31
0.0
 12
3323.8249560073918
 22
1299.834475726783
 32
0.0
 13
3323.8249560073918
 23
1299.834475726783
 33
0.0
  0
TEXT
  5
25F7
  8
DIM
 62
    50
 10
2872.653527435963
 20
1284.834475726783
 30
0.0
 40
30.0
  1
825
  7
TITLE3
 72
     1
 11
2911.2249560073919
 21
1299.834475726783
 31
0.0
 73
     2
  0
TEXT
  5
25F8
  8
TEXT
 10
2950.4121747342469
 20
110.0
 30
0.0
 40
30.0
  1
16.10.03
 41
0.8888888888888891
  7
TITLE3
 72
     5
 11
3110.4121747342469
 21
110.0
 31
0.0
  0
LINE
  5
25F9
  8
OUTLINE
 10
2396.4649560073922
 20
1663.597753168915
 30
0.0
 11
2438.2149560073922
 21
1663.597753168915
 31
0.0
  0
LINE
  5
25FA
  8
OUTLINE
 10
2396.4649560073922
 20
1683.597753168915
 30
0.0
 11
2438.2149560073922
 21
1683.597753168915
 31
0.0
  0
LINE
  5
25FB
  8
OUTLINE
 10
2396.4649560073922
 20
1683.597753168915
 30
0.0
 11
2396.4649560073922
 21
1663.597753168915
 31
0.0
  0
LINE
  5
25FC
  8
OUTLINE
 10
2396.4649560073922
 20
594.80993869896815
 30
0.0
 11
2396.4649560073922
 21
574.80993869896815
 31
0.0
  0
LINE
  5
25FD
  8
OUTLINE
 10
2396.4649560073922
 20
574.80993869896815
 30
0.0
 11
2463.2149560073922
 21
574.80993869896793
 31
0.0
  0
LINE
  5
25FE
  8
OUTLINE
 10
2396.4649560073922
 20
594.80993869896815
 30
0.0
 11
2463.2149560073922
 21
594.80993869896815
 31
0.0
  0
LINE
  5
25FF
  8
OUTLINE
 10
2081.7893032415341
 20
629.10199332817183
 30
0.0
 11
2020.7893032415341
 21
629.10199332817183
 31
0.0
  0
LINE
  5
2600
  8
OUTLINE
 10
2081.789303241535
 20
913.10199332817183
 30
0.0
 11
2020.7893032415341
 21
913.10199332817183
 31
0.0
  0
LINE
  5
2601
  8
OUTLINE
 10
2033.2893032415341
 20
828.05849974143575
 30
0.0
 11
2085.789303241535
 21
828.05849974143575
 31
0.0
  0
LINE
  5
2602
  8
OUTLINE
 10
2048.2893032415341
 20
808.55849974143575
 30
0.0
 11
2083.2893032415341
 21
808.55849974143575
 31
0.0
  0
LINE
  5
2603
  8
OUTLINE
 10
2020.789303241535
 20
815.55849974143575
 30
0.0
 11
2085.789303241535
 21
815.55849974143575
 31
0.0
  0
LINE
  5
2604
  8
OUTLINE
 10
1515.6996144936929
 20
916.60199332817183
 30
0.0
 11
1454.699614493692
 21
916.60199332817183
 31
0.0
  0
LINE
  5
2605
  8
OUTLINE
 10
1514.6996144936929
 20
691.60199332817228
 30
0.0
 11
1454.699614493692
 21
691.60199332817228
 31
0.0
  0
LINE
  5
2606
  8
OUTLINE
 10
1515.6996144936929
 20
815.55849974143575
 30
0.0
 11
1450.699614493695
 21
815.55849974143575
 31
0.0
  0
LINE
  5
2607
  8
OUTLINE
 10
1488.1996144936929
 20
808.55849974143575
 30
0.0
 11
1453.1996144936929
 21
808.55849974143575
 31
0.0
  0
LINE
  5
2608
  8
OUTLINE
 10
1503.1996144936929
 20
828.05849974143575
 30
0.0
 11
1450.699614493695
 21
828.05849974143575
 31
0.0
  0
LINE
  5
2609
  8
OUTLINE
 10
1454.699614493692
 20
916.60199332817183
 30
0.0
 11
1454.699614493692
 21
828.05849974143575
 31
0.0
  0
LINE
  5
260A
  8
OUTLINE
 10
1453.1996144936929
 20
808.55849974143575
 30
0.0
 11
1453.1996144936929
 21
815.55849974143609
 31
0.0
  0
LINE
  5
260B
  8
OUTLINE
 10
1450.699614493695
 20
815.55849974143575
 30
0.0
 11
1450.699614493695
 21
828.05849974143575
 31
0.0
  0
LINE
  5
260C
  8
OUTLINE
 10
1515.6996144936929
 20
571.55849974143575
 30
0.0
 11
1515.6996144936929
 21
929.60199332817263
 31
0.0
  0
LINE
  5
260D
  8
OUTLINE
 10
2020.789303241535
 20
571.55849974143575
 30
0.0
 11
2020.789303241535
 21
929.60199332817263
 31
0.0
  0
LINE
  5
260E
  8
OUTLINE
 10
1505.6996144936941
 20
571.55849974143575
 30
0.0
 11
2030.7893032415341
 21
571.55849974143575
 31
0.0
  0
LINE
  5
260F
  8
OUTLINE
 10
1515.6996144936929
 20
676.60199332817217
 30
0.0
 11
1514.6996144936929
 21
676.60199332817217
 31
0.0
  0
CIRCLE
  5
2610
  8
OUTLINE
 10
1933.2056875069291
 20
670.90655010701425
 30
0.0
 40
16.542141810320611
  0
INSERT
  5
2611
  8
OUTLINE
  2
RO42
 10
1828.1996144936941
 20
593.55849974143484
 30
0.0
 41
-1.0
  0
LINE
  5
2612
  8
OUTLINE
 10
2045.789303241535
 20
929.60199332817263
 30
0.0
 11
1490.6996144936929
 21
929.60199332817263
 31
0.0
  0
LINE
  5
2613
  8
OUTLINE
 10
1503.1996144936929
 20
828.05849974143575
 30
0.0
 11
1503.1996144936929
 21
885.55849974143587
 31
0.0
  0
LINE
  5
2614
  8
OUTLINE
 10
1488.1996144936929
 20
808.55849974143575
 30
0.0
 11
1488.1996144936929
 21
815.55849974143609
 31
0.0
  0
LINE
  5
2615
  8
OUTLINE
 10
1515.6996144936929
 20
885.55849974143587
 30
0.0
 11
1503.1996144936929
 21
885.55849974143587
 31
0.0
  0
CIRCLE
  5
2616
  8
OUTLINE
 10
1960.69468750693
 20
844.76808137585533
 30
0.0
 40
16.542141810320611
  0
LINE
  5
2617
  8
OUTLINE
 10
2033.2893032415341
 20
828.05849974143575
 30
0.0
 11
2033.2893032415341
 21
885.55849974143587
 31
0.0
  0
LINE
  5
2618
  8
OUTLINE
 10
2020.789303241535
 20
838.05849974143575
 30
0.0
 11
2020.789303241535
 21
885.55849974143587
 31
0.0
  0
LINE
  5
2619
  8
OUTLINE
 10
2048.2893032415341
 20
808.55849974143575
 30
0.0
 11
2048.2893032415341
 21
815.55849974143575
 31
0.0
  0
LINE
  5
261A
  8
OUTLINE
 10
2020.789303241535
 20
885.55849974143587
 30
0.0
 11
2033.2893032415341
 21
885.55849974143587
 31
0.0
  0
LINE
  5
261B
  8
OUTLINE
 10
2081.7893032415341
 20
629.10199332817183
 30
0.0
 11
2081.789303241535
 21
808.55849974143575
 31
0.0
  0
LINE
  5
261C
  8
OUTLINE
 10
2085.789303241535
 20
815.55849974143575
 30
0.0
 11
2085.789303241535
 21
828.05849974143575
 31
0.0
  0
LINE
  5
261D
  8
OUTLINE
 10
2083.2893032415341
 20
808.55849974143575
 30
0.0
 11
2083.2893032415341
 21
815.55849974143575
 31
0.0
  0
LINE
  5
261E
  8
OUTLINE
  6
CONTINUOUS
 10
2392.7688244131132
 20
678.37000909297444
 30
0.0
 11
2392.7688244131132
 21
647.07589032257465
 31
0.0
  0
LINE
  5
261F
  8
OUTLINE
 10
2392.7688244131132
 20
647.07589032257465
 30
0.0
 11
2393.6177947154119
 21
646.22692002027475
 31
0.0
  0
LINE
  5
2620
  8
OUTLINE
 10
2392.7688244131132
 20
678.37000909297444
 30
0.0
 11
2393.6177947154119
 21
679.21897939527491
 31
0.0
  0
LINE
  5
2621
  8
OUTLINE
 10
2418.762568163113
 20
643.72752158277444
 30
0.0
 11
2463.2149560073931
 21
643.72752158277478
 31
0.0
  0
LINE
  5
2622
  8
OUTLINE
 10
2418.762568163113
 20
681.71837783277476
 30
0.0
 11
2418.762568163113
 21
643.72752158277444
 31
0.0
  0
LINE
  5
2623
  8
OUTLINE
 62
   141
 10
2418.762568163113
 20
643.72752158277444
 30
0.0
 11
2418.762568163113
 21
649.43622495823661
 31
0.0
  0
LINE
  5
2624
  8
OUTLINE
 10
2418.762568163113
 20
646.22692002027475
 30
0.0
 11
2393.6177947154119
 21
646.22692002027475
 31
0.0
  0
LINE
  5
2625
  8
OUTLINE
 62
   141
 10
2418.762568163113
 20
681.71837783277476
 30
0.0
 11
2418.762568163113
 21
676.00967445731283
 31
0.0
  0
LINE
  5
2626
  8
OUTLINE
 10
2418.762568163113
 20
679.21897939527491
 30
0.0
 11
2393.6177947154119
 21
679.21897939527491
 31
0.0
  0
LINE
  5
2627
  8
OUTLINE
 62
   141
 10
2418.762568163113
 20
643.72752158277444
 30
0.0
 11
2423.7613650381131
 21
643.72752158277433
 31
0.0
  0
LINE
  5
2628
  8
OUTLINE
 10
2418.762568163113
 20
681.71837783277476
 30
0.0
 11
2463.2149560073922
 21
681.71837783277476
 31
0.0
  0
LINE
  5
2629
  8
OUTLINE
 10
2419.5726050381131
 20
855.54176897661603
 30
0.0
 11
2419.5726050381131
 21
817.62719297661602
 31
0.0
  0
LINE
  5
262A
  8
OUTLINE
  6
CONTINUOUS
 10
2393.6310530381129
 20
850.30357097661613
 30
0.0
 11
2393.6310530381129
 21
822.86539097661603
 31
0.0
  0
LINE
  5
262B
  8
OUTLINE
 10
2419.5726050381131
 20
820.12157297661611
 30
0.0
 11
2395.6265570381129
 21
820.12157297661611
 31
0.0
  0
LINE
  5
262C
  8
OUTLINE
 10
2395.6265570381129
 20
820.12157297661611
 30
0.0
 11
2393.6310530381129
 21
822.86539097661603
 31
0.0
  0
LINE
  5
262D
  8
OUTLINE
 10
2419.5726050381131
 20
817.62719297661602
 30
0.0
 11
2419.5726050381131
 21
823.32443408553195
 31
0.0
  0
LINE
  5
262E
  8
OUTLINE
 10
2419.5726050381131
 20
817.62719297661602
 30
0.0
 11
2454.2149560073908
 21
817.62719297661715
 31
0.0
  0
LINE
  5
262F
  8
OUTLINE
 10
2419.5726050381131
 20
853.04738897661605
 30
0.0
 11
2395.6265570381129
 21
853.04738897661605
 31
0.0
  0
LINE
  5
2630
  8
OUTLINE
 10
2395.6265570381129
 20
853.04738897661605
 30
0.0
 11
2393.6310530381129
 21
850.30357097661613
 31
0.0
  0
LINE
  5
2631
  8
OUTLINE
 62
   141
 10
2419.5726050381131
 20
855.54176897661603
 30
0.0
 11
2419.5726050381131
 21
849.84452786769975
 31
0.0
  0
LINE
  5
2632
  8
OUTLINE
 10
2419.5726050381131
 20
855.54176897661603
 30
0.0
 11
2454.2149560073908
 21
855.54176897661603
 31
0.0
  0
LINE
  5
2633
  8
OUTLINE
 10
2438.2149560073922
 20
1960.597753168915
 30
0.0
 11
2438.2149560073922
 21
1505.597753168913
 31
0.0
  0
LINE
  5
2634
  8
OUTLINE
 10
2488.2149560073922
 20
2010.5977531689141
 30
0.0
 11
3333.214956007394
 21
2010.5977531689141
 31
0.0
  0
TEXT
  5
2635
  8
OVERLAY-A3
 10
2846.9972182164529
 20
110.8312138601009
 30
0.0
 40
24.0
  1
Date
  7
SIMPLEX
  0
TEXT
  5
2636
  8
OVERLAY-A3
 10
3746.1111923736021
 20
129.50330202341121
 30
0.0
 40
24.0
  1
Revision
 41
0.7812095035934772
  7
SIMPLEX
 72
     5
 11
3851.4628740010648
 21
129.50330202341121
 31
0.0
  0
LINE
  5
2637
  8
OVERLAY-A3
 10
3734.49134999016
 20
20.842492848317129
 30
0.0
 11
3734.49134999016
 21
168.2686557085465
 31
0.0
  0
LINE
  5
2638
  8
OVERLAY-A3
 10
2819.3515294571471
 20
332.873036718999
 30
0.0
 11
2819.3515294571471
 21
20.842492848317129
 31
0.0
  0
LINE
  5
2639
  8
OVERLAY-A3
 10
3416.913678013093
 20
20.842492848317129
 30
0.0
 11
3416.913678013093
 21
168.2686557085465
 31
0.0
  0
LINE
  5
263A
  8
OVERLAY-A3
 10
3416.913678013093
 20
93.312599269463774
 30
0.0
 11
2819.3515294571471
 21
93.312599269463774
 31
0.0
  0
LINE
  5
263B
  8
OVERLAY-A3
 10
3861.5754652378419
 20
168.26865570854659
 30
0.0
 11
2819.3515294571471
 21
168.26865570854659
 31
0.0
  0
LINE
  5
263C
  8
OVERLAY-A3
 10
2819.3515294571471
 20
20.842492848317129
 30
0.0
 11
3861.2779580594911
 21
20.842492848317129
 31
0.0
  0
LINE
  5
263D
  8
OVERLAY-A3
 10
3861.2779580594911
 20
20.842492848317129
 30
0.0
 11
3861.2779580594911
 21
332.873036718999
 31
0.0
  0
LINE
  5
263E
  8
OVERLAY-A3
 10
3861.2779580594911
 20
332.873036718999
 30
0.0
 11
2819.3515294571471
 21
332.873036718999
 31
0.0
  0
TEXT
  5
263F
  8
OVERLAY-A3
 10
2844.4832191031091
 20
47.922488065357683
 30
0.0
 40
20.0
  1
Scale
 41
1.3701747965659781
  7
SIMPLEX
 72
     5
 11
2944.9627041846138
 21
47.922488065357683
 31
0.0
  0
TEXT
  5
2640
  8
OVERLAY-A3
 10
3474.8591236007969
 20
128.8934315067097
 30
0.0
 40
20.0
  1
Drawing No.
  7
SIMPLEX
 72
     2
 11
3649.1448378865111
 21
128.8934315067097
 31
0.0
  0
LINE
  5
2641
  8
OVERLAY-A3
 10
1299.00131440671
 20
0.0
 30
0.0
 11
3890.0
 21
0.0
 31
0.0
  0
LINE
  5
2642
  8
OVERLAY-A3
 10
3890.0
 20
0.0
 30
0.0
 11
3890.0
 21
2351.389827572144
 31
0.0
  0
LINE
  5
2643
  8
OVERLAY-A3
 10
3890.0
 20
2351.389827572144
 30
0.0
 11
1299.00131440671
 21
2351.389827572144
 31
0.0
  0
LINE
  5
2644
  8
OVERLAY-A3
 10
1299.00131440671
 20
2351.389827572144
 30
0.0
 11
1299.00131440671
 21
0.0
 31
0.0
  0
TEXT
  5
2645
  8
TEXT
 10
2968.5043546283009
 20
46.660565996795398
 30
0.0
 40
30.0
  1
1:10
  7
TITLE3
  0
TEXT
  5
2646
  8
TEXT
 10
3475.959645272545
 20
56.126653445833661
 30
0.0
 40
30.0
  1
IMD135
  7
TITLE3
  0
TEXT
  5
2647
  8
TEXT
 10
3185.0186122349728
 20
229.22081947957119
 30
0.0
 40
60.0
  1
IMD135
  7
TITLE3
  0
LINE
  5
2648
  8
OUTLINE
 10
1454.699614493692
 20
808.55849974143575
 30
0.0
 11
1454.699614493692
 21
691.60199332817228
 31
0.0
  0
LINE
  5
2649
  8
OUTLINE
 10
2081.789303241535
 20
828.05849974143575
 30
0.0
 11
2081.789303241535
 21
913.10199332817183
 31
0.0
  0
INSERT
  5
264A
  8
OUTLINE
  2
NEW_BLOCK0
 10
1316.198214876372
 20
10.7630978985444
 30
0.0
  0
LINE
  5
264B
  8
CLEAR
 10
1963.2149560073919
 20
1985.597753168915
 30
0.0
 11
1963.214956007391
 21
1480.5977531689159
 31
0.0
  0
LINE
  5
264C
  8
CLEAR
 10
3858.2149560073899
 20
1480.5977531689159
 30
0.0
 11
3858.2149560073922
 21
1985.597753168915
 31
0.0
  0
LINE
  5
264D
  8
CLEAR
 10
2463.2149560073922
 20
1985.597753168915
 30
0.0
 11
1963.2149560073919
 21
1985.597753168915
 31
0.0
  0
LINE
  5
264E
  8
CLEAR
 10
3358.2149560073922
 20
1985.597753168915
 30
0.0
 11
3858.2149560073922
 21
1985.597753168915
 31
0.0
  0
LINE
  5
264F
  8
CLEAR
 10
2463.2149560073908
 20
1480.5977531689159
 30
0.0
 11
1963.214956007391
 21
1480.5977531689159
 31
0.0
  0
LINE
  5
2650
  8
CLEAR
 10
3358.2149560073922
 20
1480.5977531689159
 30
0.0
 11
3858.2149560073899
 21
1480.5977531689159
 31
0.0
  0
LINE
  5
2651
  8
DIM
 10
2918.2202945072809
 20
1511.599821939828
 30
0.0
 11
2889.644298155617
 21
1464.595740447508
 31
0.0
  0
LINE
  5
2652
  8
DIM
 10
2918.2202945072809
 20
1511.599821939828
 30
0.0
 11
2946.7962908589438
 21
1464.595740447508
 31
0.0
  0
LINE
  5
2653
  8
DIM
 10
2889.644298155617
 20
1464.595740447508
 30
0.0
 11
2907.3932807092501
 21
1464.595740447508
 31
0.0
  0
LINE
  5
2654
  8
DIM
 10
2907.3932807092501
 20
1464.595740447508
 30
0.0
 11
2907.3932807092501
 21
1409.609837739964
 31
0.0
  0
LINE
  5
2655
  8
DIM
 10
2929.0473083053139
 20
1464.595740447508
 30
0.0
 11
2929.0473083053139
 21
1409.609837739964
 31
0.0
  0
LINE
  5
2656
  8
DIM
 10
2907.3932807092501
 20
1409.609837739964
 30
0.0
 11
2929.0473083053139
 21
1409.609837739964
 31
0.0
  0
LINE
  5
2657
  8
DIM
 10
2946.7962908589438
 20
1464.595740447508
 30
0.0
 11
2929.0473083053139
 21
1464.595740447508
 31
0.0
  0
LINE
  5
2658
  8
DIM
 10
2907.3932807092501
 20
2020.799905228969
 30
0.0
 11
2907.3932807092501
 21
1965.8140025214241
 31
0.0
  0
LINE
  5
2659
  8
DIM
 10
2929.0473083053139
 20
2020.799905228969
 30
0.0
 11
2929.0473083053139
 21
1965.8140025214241
 31
0.0
  0
LINE
  5
265A
  8
DIM
 10
2907.3932807092501
 20
1965.8140025214241
 30
0.0
 11
2929.0473083053139
 21
1965.8140025214241
 31
0.0
  0
LINE
  5
265B
  8
DIM
 10
2918.2202945072809
 20
2067.8039867212901
 30
0.0
 11
2889.644298155617
 21
2020.799905228969
 31
0.0
  0
LINE
  5
265C
  8
DIM
 10
2889.644298155617
 20
2020.799905228969
 30
0.0
 11
2907.3932807092501
 21
2020.799905228969
 31
0.0
  0
LINE
  5
265D
  8
DIM
 10
2946.7962908589438
 20
2020.799905228969
 30
0.0
 11
2929.0473083053139
 21
2020.799905228969
 31
0.0
  0
LINE
  5
265E
  8
DIM
 10
2918.2202945072809
 20
2067.8039867212901
 30
0.0
 11
2946.7962908589438
 21
2020.799905228969
 31
0.0
  0
TEXT
  5
265F
  8
TEXT
  6
PHANTOM2
 10
2004.494345602013
 20
1619.2059243106851
 30
0.0
 40
30.0
  1
500 min 
 50
90.0
  7
TITLE3
  0
TEXT
  5
2660
  8
TEXT
  6
PHANTOM2
 10
2055.9229170305862
 20
1597.714392148838
 30
0.0
 40
30.0
  1
CLEARANCE
 50
90.0
  7
TITLE3
  0
TEXT
  5
2661
  8
TEXT
  6
PHANTOM2
 10
3776.6764460618042
 20
1619.2059243106851
 30
0.0
 40
30.0
  1
500 min 
 50
90.0
  7
TITLE3
  0
TEXT
  5
2662
  8
TEXT
  6
PHANTOM2
 10
3828.1050174903762
 20
1597.714392148838
 30
0.0
 40
30.0
  1
CLEARANCE
 50
90.0
  7
TITLE3
  0
TEXT
  5
2663
  8
TEXT
 10
2756.0552245825479
 20
744.49451747748935
 30
0.0
 40
60.0
  1
IMD135
  7
TITLE3
  0
TEXT
  5
2664
  8
TEXT
 10
2764.721144488547
 20
1714.4214761355991
 30
0.0
 40
60.0
  1
IMD135
  7
TITLE3
  0
TEXT
  5
2665
  8
TEXT
 10
1577.489122103719
 20
744.49451747748935
 30
0.0
 40
60.0
  1
IMD135
  7
TITLE3
  0
ENDSEC
  0
EOF
