  0
SECTION
  2
HEADER
  9
$ACADVER
  1
AC1009
  9
$INSBASE
 10
0.0
 20
0.0
 30
0.0
  9
$EXTMIN
 10
2518.986414032252
 20
-0.0811296882584429
 30
-0.0000000000112498
  9
$EXTMAX
 10
7780.0327870591054
 20
4419.0453699401442
 30
0.0000000000002956
  9
$LIMMIN
 10
0.0
 20
0.0
  9
$LIMMAX
 10
7780.0
 20
5320.0
  9
$ORTHOMODE
 70
     1
  9
$REGENMODE
 70
     1
  9
$FILLMODE
 70
     1
  9
$QTEXTMODE
 70
     0
  9
$MIRRTEXT
 70
     0
  9
$DRAGMODE
 70
     2
  9
$LTSCALE
 40
250.0
  9
$OSMODE
 70
   679
  9
$ATTMODE
 70
     1
  9
$TEXTSIZE
 40
60.0
  9
$TRACEWID
 40
0.05
  9
$TEXTSTYLE
  7
TITLE3
  9
$CLAYER
  8
OUTLINE
  9
$CELTYPE
  6
BYLAYER
  9
$CECOLOR
 62
   256
  9
$DIMSCALE
 40
1.0
  9
$DIMASZ
 40
60.0
  9
$DIMEXO
 40
40.0
  9
$DIMDLI
 40
0.38
  9
$DIMRND
 40
0.0
  9
$DIMDLE
 40
0.0
  9
$DIMEXE
 40
40.0
  9
$DIMTP
 40
0.0
  9
$DIMTM
 40
0.0
  9
$DIMTXT
 40
60.0
  9
$DIMCEN
 40
0.09
  9
$DIMTSZ
 40
0.0
  9
$DIMTOL
 70
     0
  9
$DIMLIM
 70
     0
  9
$DIMTIH
 70
     0
  9
$DIMTOH
 70
     0
  9
$DIMSE1
 70
     0
  9
$DIMSE2
 70
     0
  9
$DIMTAD
 70
     0
  9
$DIMZIN
 70
     0
  9
$DIMBLK
  1

  9
$DIMASO
 70
     0
  9
$DIMSHO
 70
     0
  9
$DIMPOST
  1

  9
$DIMAPOST
  1

  9
$DIMALT
 70
     0
  9
$DIMALTD
 70
     2
  9
$DIMALTF
 40
25.399999999999999
  9
$DIMLFAC
 40
1.0
  9
$DIMTOFL
 70
     0
  9
$DIMTVP
 40
0.0
  9
$DIMTIX
 70
     0
  9
$DIMSOXD
 70
     0
  9
$DIMSAH
 70
     0
  9
$DIMBLK1
  1

  9
$DIMBLK2
  1

  9
$DIMSTYLE
  2
STANDARD
  9
$DIMCLRD
 70
    52
  9
$DIMCLRE
 70
    52
  9
$DIMCLRT
 70
    50
  9
$DIMTFAC
 40
1.0
  9
$DIMGAP
 40
40.0
  9
$LUNITS
 70
     2
  9
$LUPREC
 70
     2
  9
$SKETCHINC
 40
0.1
  9
$FILLETRAD
 40
0.0
  9
$AUNITS
 70
     0
  9
$AUPREC
 70
     2
  9
$MENU
  1
\acad12\support\cnc
  9
$ELEVATION
 40
0.0
  9
$PELEVATION
 40
0.0
  9
$THICKNESS
 40
0.0
  9
$LIMCHECK
 70
     0
  9
$BLIPMODE
 70
     0
  9
$CHAMFERA
 40
0.0
  9
$CHAMFERB
 40
0.0
  9
$SKPOLY
 70
     0
  9
$TDCREATE
 40
2451256.4746530098
  9
$TDUPDATE
 40
2454599.6583941788
  9
$TDINDWG
 40
2.193287963
  9
$TDUSRTIMER
 40
2.1932593749999998
  9
$USRTIMER
 70
     1
  9
$ANGBASE
 50
0.0
  9
$ANGDIR
 70
     0
  9
$PDMODE
 70
     2
  9
$PDSIZE
 40
20.0
  9
$PLINEWID
 40
0.0
  9
$COORDS
 70
     2
  9
$SPLFRAME
 70
     0
  9
$SPLINETYPE
 70
     6
  9
$SPLINESEGS
 70
     8
  9
$ATTDIA
 70
     0
  9
$ATTREQ
 70
     1
  9
$HANDLING
 70
     1
  9
$HANDSEED
  5
67C2
  9
$SURFTAB1
 70
     6
  9
$SURFTAB2
 70
     6
  9
$SURFTYPE
 70
     6
  9
$SURFU
 70
     6
  9
$SURFV
 70
     6
  9
$UCSNAME
  2

  9
$UCSORG
 10
0.0
 20
0.0
 30
0.0
  9
$UCSXDIR
 10
1.0
 20
0.0
 30
0.0
  9
$UCSYDIR
 10
0.0
 20
1.0
 30
0.0
  9
$PUCSNAME
  2

  9
$PUCSORG
 10
0.0
 20
0.0
 30
0.0
  9
$PUCSXDIR
 10
1.0
 20
0.0
 30
0.0
  9
$PUCSYDIR
 10
0.0
 20
1.0
 30
0.0
  9
$USERI1
 70
     0
  9
$USERI2
 70
     0
  9
$USERI3
 70
     0
  9
$USERI4
 70
     0
  9
$USERI5
 70
     0
  9
$USERR1
 40
0.0
  9
$USERR2
 40
0.0
  9
$USERR3
 40
0.0
  9
$USERR4
 40
0.0
  9
$USERR5
 40
0.0
  9
$WORLDVIEW
 70
     0
  9
$SHADEDGE
 70
     3
  9
$SHADEDIF
 70
    70
  9
$TILEMODE
 70
     1
  9
$MAXACTVP
 70
    16
  9
$PLIMCHECK
 70
     0
  9
$PEXTMIN
 10
1.0000000000000000E+020
 20
1.0000000000000000E+020
 30
1.0000000000000000E+020
  9
$PEXTMAX
 10
-1.0000000000000000E+020
 20
-1.0000000000000000E+020
 30
-1.0000000000000000E+020
  9
$PLIMMIN
 10
0.0
 20
0.0
  9
$PLIMMAX
 10
12.0
 20
9.0
  9
$UNITMODE
 70
     0
  9
$VISRETAIN
 70
     0
  9
$PLINEGEN
 70
     0
  9
$PSLTSCALE
 70
     0
  0
ENDSEC
  0
SECTION
  2
TABLES
  0
TABLE
  2
VPORT
 70
     1
  0
VPORT
  2
*ACTIVE
 70
     0
 10
0.0
 20
0.0
 11
1.0
 21
1.0
 12
5149.509600545678
 22
2209.4821201259419
 13
0.0
 23
0.0
 14
50.0
 24
50.0
 15
100.0
 25
100.0
 16
0.0
 26
0.0
 36
1.0
 17
0.0
 27
0.0
 37
0.0
 40
4458.4076240695422
 41
1.66320474777448
 42
50.0
 43
0.0
 44
0.0
 50
0.0
 51
0.0
 71
     0
 72
   100
 73
     1
 74
     0
 75
     0
 76
     0
 77
     0
 78
     1
  0
ENDTAB
  0
TABLE
  2
LTYPE
 70
     2
  0
LTYPE
  2
CONTINUOUS
 70
     0
  3
Solid line
 72
    65
 73
     0
 40
0.0
  0
LTYPE
  2
PHANTOM2
 70
     0
  3
Phantom (.5x) ___ _ _ ___ _ _ ___ _ _ ___ _ _
 72
    65
 73
     6
 40
1.25
 49
0.625
 49
-0.125
 49
0.125
 49
-0.125
 49
0.125
 49
-0.125
  0
ENDTAB
  0
TABLE
  2
LAYER
 70
     7
  0
LAYER
  2
0
 70
     0
 62
     7
  6
CONTINUOUS
  0
LAYER
  2
OUTLINE
 70
     0
 62
     7
  6
CONTINUOUS
  0
LAYER
  2
DIM
 70
     0
 62
     7
  6
CONTINUOUS
  0
LAYER
  2
CLEAR
 70
     0
 62
     1
  6
PHANTOM2
  0
LAYER
  2
TEXT
 70
     0
 62
   100
  6
CONTINUOUS
  0
LAYER
  2
OVERLAY-A3
 70
     0
 62
     7
  6
CONTINUOUS
  0
LAYER
  2
10
 70
     0
 62
    10
  6
CONTINUOUS
  0
ENDTAB
  0
TABLE
  2
STYLE
 70
     6
  0
STYLE
  2
STANDARD
 70
     0
 40
0.0
 41
1.0
 50
0.0
 71
     0
 42
0.2
  3
txt
  4

  0
STYLE
  2
ANNOTATIVE
 70
     0
 40
0.0
 41
1.0
 50
0.0
 71
     0
 42
0.2
  3
txt
  4

  0
STYLE
  2
TITLE3
 70
     0
 40
60.0
 41
1.0
 50
0.0
 71
     0
 42
60.0
  3
SIMPLEX
  4

  0
STYLE
  2
TITLE5
 70
     0
 40
100.0
 41
1.0
 50
0.0
 71
     0
 42
100.0
  3
SIMPLEX
  4

  0
STYLE
  2
SIMPLEX
 70
     0
 40
60.0
 41
1.0
 50
0.0
 71
     0
 42
60.0
  3
simplex
  4

  0
ENDTAB
  0
TABLE
  2
VIEW
 70
     0
  0
ENDTAB
  0
TABLE
  2
UCS
 70
     0
  0
ENDTAB
  0
TABLE
  2
APPID
 70
     5
  0
APPID
  2
ACAD
 70
     0
  0
APPID
  2
ACADANNOTATIVE
 70
     0
  0
APPID
  2
ACAD_MLEADERVER
 70
     0
  0
APPID
  2
ACAECLAYERSTANDARD
 70
     0
  0
APPID
  2
ACAD_PSEXT
 70
     0
  0
ENDTAB
  0
TABLE
  2
DIMSTYLE
 70
     3
  0
DIMSTYLE
  2
STANDARD
 70
     0
  3

  4

  5

  6

  7

 40
1.0
 41
0.18
 42
0.0625
 43
0.38
 44
0.18
 45
0.0
 46
0.0
 47
0.0
 48
0.0
140
0.18
141
0.09
142
0.0
143
25.399999999999999
144
1.0
145
0.0
146
1.0
147
0.09
 71
     0
 72
     0
 73
     1
 74
     1
 75
     0
 76
     0
 77
     0
 78
     0
170
     0
171
     2
172
     0
173
     0
174
     0
175
     0
176
     0
177
     0
178
     0
  0
DIMSTYLE
  2
ANNOTATIVE
 70
     0
  3

  4

  5

  6

  7

 40
1.0
 41
0.18
 42
0.0625
 43
0.38
 44
0.18
 45
0.0
 46
0.0
 47
0.0
 48
0.0
140
0.18
141
0.09
142
0.0
143
25.399999999999999
144
1.0
145
0.0
146
1.0
147
0.09
 71
     0
 72
     0
 73
     1
 74
     1
 75
     0
 76
     0
 77
     0
 78
     0
170
     0
171
     2
172
     0
173
     0
174
     0
175
     0
176
     0
177
     0
178
     0
  0
ENDTAB
  0
ENDSEC
  0
SECTION
  2
BLOCKS
  0
BLOCK
  8
0
  2
$MODEL_SPACE
 70
     0
 10
0.0
 20
0.0
 30
0.0
  3
$MODEL_SPACE
  1

  0
ENDBLK
  5
64FD
  8
0
  0
BLOCK
 67
     1
  8
0
  2
$PAPER_SPACE
 70
     0
 10
0.0
 20
0.0
 30
0.0
  3
$PAPER_SPACE
  1

  0
ENDBLK
  5
64F9
 67
     1
  8
0
  0
BLOCK
  8
0
  2
NEW_BLOCK
 70
     0
 10
0.0
 20
0.0
 30
0.0
  3
NEW_BLOCK
  1

  0
TEXT
  5
2B89
  8
TEXT
 10
27.285946821803002
 20
25.27142175952417
 30
0.0
 40
40.0
  1
available on request
  7
TITLE3
  0
TEXT
  5
2B8A
  8
TEXT
 10
27.285946821803002
 20
93.842850330952714
 30
0.0
 40
40.0
  1
Certified dimensions
  7
TITLE3
  0
TEXT
  5
2B8B
  8
TEXT
 10
27.285946821803002
 20
162.4142789023812
 30
0.0
 40
40.0
  1
without notice or obligation.
  7
TITLE3
  0
TEXT
  5
2B8C
  8
TEXT
 10
27.285946821803002
 20
230.9857074738097
 30
0.0
 40
40.0
  1
specifications at any time
  7
TITLE3
  0
TEXT
  5
2B8D
  8
TEXT
 10
27.285946821803002
 20
299.55713604523839
 30
0.0
 40
40.0
  1
the right to change 
  7
TITLE3
  0
TEXT
  5
2B8E
  8
TEXT
 10
27.285946821803002
 20
436.69999318809488
 30
0.0
 40
40.0
  1
NOTE
  7
TITLE3
  0
TEXT
  5
2B8F
  8
TEXT
 10
27.285946821803002
 20
368.12856461666672
 30
0.0
 40
40.0
  1
The manufacturer reserves
  7
TITLE3
  0
ENDBLK
  5
2B90
  8
0
  0
BLOCK
  8
0
  2
NEW_BLOCK0
 70
     0
 10
0.0
 20
0.0
 30
0.0
  3
NEW_BLOCK0
  1

  0
INSERT
  5
2B93
  8
DIM
  2
NEW_BLOCK
 10
13.048098169647799
 20
6.0725618626865971
 30
0.0
 41
0.7000000000000455
 42
0.6999999999999993
 43
0.7
  0
ENDBLK
  5
2B94
  8
0
  0
BLOCK
  8
0
  2
*U4
 70
     1
 10
0.0
 20
0.0
 30
0.0
  3
*U4
  1

  0
TEXT
  5
62BE
  8
OUTLINE
 62
    50
 10
4838.0369439711139
 20
1074.7803245743501
 30
0.0
 40
30.0
  1
673
  7
TITLE3
  0
ENDBLK
  5
62C0
  8
0
  0
BLOCK
  8
0
  2
*U5
 70
     1
 10
0.0
 20
0.0
 30
0.0
  3
*U5
  1

  0
TEXT
  5
62C2
  8
OUTLINE
 62
    50
 10
4043.2747483569651
 20
2004.048805778936
 30
0.0
 40
30.0
  1
613
 50
90.0
  7
TITLE3
  0
ENDBLK
  5
62C4
  8
0
  0
BLOCK
  8
0
  2
*U6
 70
     1
 10
0.0
 20
0.0
 30
0.0
  3
*U6
  1

  0
TEXT
  5
62C6
  8
OUTLINE
 62
    50
 10
1590.5240413266069
 20
1639.984939979274
 30
0.0
 40
30.0
  1
119
 50
90.0
  7
TITLE3
  0
ENDBLK
  5
62C8
  8
0
  0
BLOCK
  8
0
  2
*U7
 70
     1
 10
0.0
 20
0.0
 30
0.0
  3
*U7
  1

  0
TEXT
  5
62CA
  8
OUTLINE
 62
    50
 10
4342.3205684641052
 20
516.18198072942675
 30
0.0
 40
30.0
  1
300
 50
90.0
  7
TITLE3
  0
ENDBLK
  5
62CC
  8
0
  0
BLOCK
  8
0
  2
*U8
 70
     1
 10
0.0
 20
0.0
 30
0.0
  3
*U8
  1

  0
TEXT
  5
62CE
  8
OUTLINE
 62
    50
 10
4259.1732638837484
 20
495.44129674784898
 30
0.0
 40
30.0
  1
633
 50
90.0
  7
TITLE3
  0
ENDBLK
  5
62D0
  8
0
  0
BLOCK
  8
0
  2
*U9
 70
     1
 10
0.0
 20
0.0
 30
0.0
  3
*U9
  1

  0
TEXT
  5
62D2
  8
OUTLINE
 62
    50
 10
3980.4467443209141
 20
485.14181537833281
 30
0.0
 40
30.0
  1
653
 50
90.0
  7
TITLE3
  0
ENDBLK
  5
62D4
  8
0
  0
BLOCK
  8
0
  2
*U10
 70
     1
 10
0.0
 20
0.0
 30
0.0
  3
*U10
  1

  0
TEXT
  5
62D6
  8
OUTLINE
 62
    50
 10
1549.6581569115981
 20
475.61839689178282
 30
0.0
 40
30.0
  1
673
 50
90.0
  7
TITLE3
  0
ENDBLK
  5
62D8
  8
0
  0
BLOCK
  8
0
  2
*U11
 70
     1
 10
0.0
 20
0.0
 30
0.0
  3
*U11
  1

  0
TEXT
  5
62DA
  8
OUTLINE
 62
    50
 10
3616.047137290117
 20
933.84824685755007
 30
0.0
 40
30.0
  1
410
  7
TITLE3
  0
ENDBLK
  5
62DC
  8
0
  0
BLOCK
  8
0
  2
*U12
 70
     1
 10
0.0
 20
0.0
 30
0.0
  3
*U12
  1

  0
TEXT
  5
62DE
  8
OUTLINE
 62
    50
 10
2604.0760832622941
 20
2837.4742051790931
 30
0.0
 40
30.0
  1
2280 O/A
  7
TITLE3
  0
ENDBLK
  5
62E0
  8
0
  0
BLOCK
  8
0
  2
*U13
 70
     1
 10
0.0
 20
0.0
 30
0.0
  3
*U13
  1

  0
TEXT
  5
62E2
  8
10
 62
    50
 10
1663.217840389292
 20
1446.5384858714519
 30
0.0
 40
30.0
  1
120
  7
TITLE3
  0
ENDBLK
  5
62E4
  8
0
  0
BLOCK
  8
0
  2
*U14
 70
     1
 10
0.0
 20
0.0
 30
0.0
  3
*U14
  1

  0
TEXT
  5
62E6
  8
10
 62
    50
 10
2460.8008762937329
 20
1446.5384858714519
 30
0.0
 40
30.0
  1
1491
  7
TITLE3
  0
ENDBLK
  5
62E8
  8
0
  0
BLOCK
  8
0
  2
*U15
 70
     1
 10
0.0
 20
0.0
 30
0.0
  3
*U15
  1

  0
SOLID
  5
62EA
  8
OUTLINE
 10
753.52955077535967
 20
144.3736018402289
 30
0.0
 11
741.08238888387405
 21
172.12370383728739
 31
0.0
 12
761.85676429378509
 22
149.91052472379499
 32
0.0
 13
761.85676429378509
 23
149.91052472379499
 33
0.0
  0
POLYLINE
  5
62EB
  8
OUTLINE
 66
     1
 10
0.0
 20
0.0
 30
0.0
  0
VERTEX
  5
62EC
  8
OUTLINE
 10
757.69315753457238
 20
147.142063282012
 30
0.0
  0
VERTEX
  5
62ED
  8
OUTLINE
 10
839.2402013786774
 20
24.500000142261801
 30
0.0
  0
VERTEX
  5
62EE
  8
OUTLINE
 10
890.06814151902245
 20
24.500000142261801
 30
0.0
  0
SEQEND
  5
62EF
  8
OUTLINE
  0
ENDBLK
  5
62F1
  8
0
  0
BLOCK
  8
0
  2
*U16
 70
     1
 10
0.0
 20
0.0
 30
0.0
  3
*U16
  1

  0
TEXT
  5
62F3
  8
OUTLINE
 62
    50
 10
910.06814151902233
 20
9.500000142261797
 30
0.0
 40
30.0
  1
DRAIN 1
  7
TITLE3
  0
TEXT
  5
62F4
  8
OUTLINE
 62
    50
 10
1098.8538558047369
 20
28.000000142261801
 30
0.0
 40
21.0
  1
1
  7
TITLE3
  0
LINE
  5
62F5
  8
OUTLINE
 62
    50
 10
1094.3538558047369
 20
24.500000142261801
 30
0.0
 11
1108.3538558047369
 21
24.500000142261801
 31
0.0
  0
TEXT
  5
62F6
  8
OUTLINE
 62
    50
 10
1094.3538558047369
 20
0.000000142261797
 30
0.0
 40
21.0
  1
8
  7
TITLE3
  0
TEXT
  5
62F7
  8
OUTLINE
 62
    50
 10
1114.3538558047369
 20
9.500000142261797
 30
0.0
 40
30.0
  1
" OD TUBE
  7
TITLE3
  0
ENDBLK
  5
62F9
  8
0
  0
BLOCK
  8
0
  2
*U17
 70
     1
 10
0.0
 20
0.0
 30
0.0
  3
*U17
  1

  0
TEXT
  5
6377
  8
DIM
 10
4538.6263640181696
 20
2341.4832305983609
 30
0.0
 40
21.565440000001718
  1
PUSH TUBE INTO RUBBER CONNECTOR
  7
TITLE3
  0
TEXT
  5
6378
  8
DIM
 10
4538.6263640181696
 20
2305.540830598356
 30
0.0
 40
21.565440000001718
  1
UNTIL FLUSH WITH END
  7
TITLE3
  0
ENDBLK
  5
637A
  8
0
  0
BLOCK
  8
0
  2
*U18
 70
     1
 10
0.0
 20
0.0
 30
0.0
  3
*U18
  1

  0
SOLID
  5
637C
  8
TEXT
  6
CONTINUOUS
 10
5157.8256171800176
 20
2780.8267196063898
 30
0.0
 11
5157.7216674235306
 21
2780.976701099004
 31
0.0
 12
5157.8686409205138
 22
2780.8685401486359
 32
0.0
 13
5157.8686409205138
 23
2780.8685401486359
 33
0.0
  0
POLYLINE
  5
637D
  8
TEXT
  6
CONTINUOUS
 66
     1
 10
0.0
 20
0.0
 30
0.0
  0
VERTEX
  5
637E
  8
TEXT
  6
CONTINUOUS
 10
5157.8471290502639
 20
2780.8476298775131
 30
0.0
  0
VERTEX
  5
637F
  8
TEXT
  6
CONTINUOUS
 10
5301.2384325949752
 20
2633.330885666418
 30
0.0
  0
VERTEX
  5
6380
  8
TEXT
  6
CONTINUOUS
 10
5301.4184325949736
 20
2633.330885666418
 30
0.0
  0
SEQEND
  5
6381
  8
TEXT
  6
CONTINUOUS
  0
ENDBLK
  5
6383
  8
0
  0
BLOCK
  8
0
  2
*U19
 70
     1
 10
0.0
 20
0.0
 30
0.0
  3
*U19
  1

  0
TEXT
  5
6385
  8
TEXT
 10
5301.5084325949747
 20
2641.6508856664191
 30
0.0
 40
24.960000000003021
  1
CONDENSER
  7
TITLE3
  0
TEXT
  5
6386
  8
TEXT
 10
5301.5084325949747
 20
2600.0508856664151
 30
0.0
 40
24.960000000003021
  1
TRAY
  7
TITLE3
  0
ENDBLK
  5
6388
  8
0
  0
BLOCK
  8
0
  2
*U20
 70
     1
 10
0.0
 20
0.0
 30
0.0
  3
*U20
  1

  0
TEXT
  5
638A
  8
DIM
 62
    50
 10
911.63071255784155
 20
83.076457854917393
 30
0.0
 40
30.0
  1
FIT PLASTIC BUNG
  7
TITLE3
  0
ENDBLK
  5
638C
  8
0
  0
BLOCK
  8
0
  2
*U21
 70
     1
 10
0.0
 20
0.0
 30
0.0
  3
*U21
  1

  0
SOLID
  5
638E
  8
DIM
 10
4583.1788957055014
 20
285.76653702150782
 30
0.0
 11
4590.631888212858
 21
315.25302380249423
 31
0.0
 12
4593.1449450672999
 22
284.94321441268869
 32
0.0
 13
4593.1449450672999
 23
284.94321441268869
 33
0.0
  0
POLYLINE
  5
638F
  8
DIM
 66
     1
 10
0.0
 20
0.0
 30
0.0
  0
VERTEX
  5
6390
  8
DIM
 10
4588.161920386402
 20
285.35487571709831
 30
0.0
  0
VERTEX
  5
6391
  8
DIM
 10
4569.7574422844491
 20
62.574722132737861
 30
0.0
  0
VERTEX
  5
6392
  8
DIM
 10
4539.7574422844491
 20
62.574722132737861
 30
0.0
  0
SEQEND
  5
6393
  8
DIM
  0
ENDBLK
  5
6395
  8
0
  0
BLOCK
  8
0
  2
*U22
 70
     1
 10
0.0
 20
0.0
 30
0.0
  3
*U22
  1

  0
TEXT
  5
6397
  8
DIM
 62
    50
 10
4374.0431565701638
 20
72.574722132737861
 30
0.0
 40
30.0
  1
SERIAL
  7
TITLE3
  0
TEXT
  5
6398
  8
DIM
 62
    50
 10
4389.7574422844491
 20
22.574722132737861
 30
0.0
 40
30.0
  1
PLATE
  7
TITLE3
  0
ENDBLK
  5
639A
  8
0
  0
BLOCK
  8
0
  2
*U23
 70
     1
 10
0.0
 20
0.0
 30
0.0
  3
*U23
  1

  0
SOLID
  5
639C
  8
OUTLINE
 10
5288.625649091683
 20
222.71558516274109
 30
0.0
 11
5277.567054132971
 21
251.04767787646691
 31
0.0
 12
5297.2166740280963
 22
227.833620971714
 32
0.0
 13
5297.2166740280963
 23
227.833620971714
 33
0.0
  0
POLYLINE
  5
639D
  8
OUTLINE
 66
     1
 10
0.0
 20
0.0
 30
0.0
  0
VERTEX
  5
639E
  8
OUTLINE
 10
5292.9211615598879
 20
225.2746030672275
 30
0.0
  0
VERTEX
  5
639F
  8
OUTLINE
 10
5355.6186395302484
 20
120.0319637427383
 30
0.0
  0
VERTEX
  5
63A0
  8
OUTLINE
 10
5400.7376181677573
 20
120.0319637427383
 30
0.0
  0
SEQEND
  5
63A1
  8
OUTLINE
  0
ENDBLK
  5
63A3
  8
0
  0
BLOCK
  8
0
  2
*U24
 70
     1
 10
0.0
 20
0.0
 30
0.0
  3
*U24
  1

  0
TEXT
  5
63A5
  8
OUTLINE
 62
    50
 10
5420.7376181677573
 20
130.0319637427383
 30
0.0
 40
30.0
  1
OPTIONAL
  7
TITLE3
  0
TEXT
  5
63A6
  8
OUTLINE
 62
    50
 10
5420.7376181677573
 20
80.031963742738299
 30
0.0
 40
30.0
  1
FILTER
  7
TITLE3
  0
ENDBLK
  5
63A8
  8
0
  0
BLOCK
  8
0
  2
*U25
 70
     1
 10
0.0
 20
0.0
 30
0.0
  3
*U25
  1

  0
SOLID
  5
63AA
  8
10
 10
771.4772351588058
 20
467.39533972437317
 30
0.0
 11
768.82966476473666
 21
497.69369563700411
 31
0.0
 12
781.16061705511493
 22
469.89176017178119
 32
0.0
 13
781.16061705511493
 23
469.89176017178119
 33
0.0
  0
POLYLINE
  5
63AB
  8
10
 66
     1
 10
0.0
 20
0.0
 30
0.0
  0
VERTEX
  5
63AC
  8
10
 10
776.31892610696013
 20
468.64354994807712
 30
0.0
  0
VERTEX
  5
63AD
  8
10
 10
871.797301283872
 20
98.291844714653053
 30
0.0
  0
VERTEX
  5
63AE
  8
10
 10
900.2973934734564
 20
98.291844714653053
 30
0.0
  0
SEQEND
  5
63AF
  8
10
  0
ENDBLK
  5
63B1
  8
0
  0
BLOCK
  8
0
  2
*U26
 70
     1
 10
0.0
 20
0.0
 30
0.0
  3
*U26
  1

  0
TEXT
  5
63B8
  8
10
 62
    50
 10
1517.3901547157079
 20
2631.352961859307
 30
0.0
 40
30.0
  1
76
  7
TITLE3
  0
ENDBLK
  5
63BA
  8
0
  0
BLOCK
  8
0
  2
*U27
 70
     1
 10
0.0
 20
0.0
 30
0.0
  3
*U27
  1

  0
TEXT
  5
63BC
  8
10
 62
    50
 10
2524.4364230043998
 20
2604.2653538226609
 30
0.0
 40
30.0
  1
1780
  7
TITLE3
  0
ENDBLK
  5
63BE
  8
0
  0
BLOCK
  8
0
  2
*U28
 70
     1
 10
0.0
 20
0.0
 30
0.0
  3
*U28
  1

  0
TEXT
  5
63C0
  8
10
 62
    50
 10
2363.685851093087
 20
2722.568392198948
 30
0.0
 40
30.0
  1
1833 MTG CENTRES
  7
TITLE3
  0
ENDBLK
  5
63C2
  8
0
  0
BLOCK
  8
0
  2
*U29
 70
     1
 10
0.0
 20
0.0
 30
0.0
  3
*U29
  1

  0
TEXT
  5
63C4
  8
10
 62
    50
 10
3623.697137290118
 20
2722.568392198948
 30
0.0
 40
30.0
  1
315
  7
TITLE3
  0
ENDBLK
  5
63C6
  8
0
  0
BLOCK
  8
0
  2
*U30
 70
     1
 10
0.0
 20
0.0
 30
0.0
  3
*U30
  1

  0
TEXT
  5
63C8
  8
10
 62
    50
 10
3527.4725270676809
 20
2681.0262197359211
 30
0.0
 40
25.649999999999999
  1
MTG CENTRES
  7
TITLE3
  0
ENDBLK
  5
63CA
  8
0
  0
BLOCK
  8
0
  2
*U31
 70
     1
 10
0.0
 20
0.0
 30
0.0
  3
*U31
  1

  0
TEXT
  5
63CC
  8
10
 62
    50
 10
700.80823619330795
 20
931.07735490190873
 30
0.0
 40
30.0
  1
707
  7
TITLE3
  0
ENDBLK
  5
63CE
  8
0
  0
BLOCK
  8
0
  2
*U32
 70
     1
 10
0.0
 20
0.0
 30
0.0
  3
*U32
  1

  0
TEXT
  5
63D0
  8
10
 62
    50
 10
585.0939504790224
 20
893.0665567573086
 30
0.0
 40
30.0
  1
MTG CENTRES
  7
TITLE3
  0
ENDBLK
  5
63D2
  8
0
  0
BLOCK
  8
0
  2
*U33
 70
     1
 10
0.0
 20
0.0
 30
0.0
  3
*U33
  1

  0
TEXT
  5
63D4
  8
10
 62
    50
 10
628.54395047902335
 20
1063.9318492025959
 30
0.0
 40
30.0
  1
876 O/A
  7
TITLE3
  0
ENDBLK
  5
63D6
  8
0
  0
BLOCK
  8
0
  2
*U34
 70
     1
 10
0.0
 20
0.0
 30
0.0
  3
*U34
  1

  0
TEXT
  5
63D8
  8
10
 62
    50
 10
4342.3205684641052
 20
742.23912358658015
 30
0.0
 40
30.0
  1
147
 50
90.0
  7
TITLE3
  0
ENDBLK
  5
63DA
  8
0
  0
BLOCK
  8
0
  2
*U35
 70
     1
 10
0.0
 20
0.0
 30
0.0
  3
*U35
  1

  0
TEXT
  5
63DC
  8
10
 62
    50
 10
5448.3119436943562
 20
445.21153396036738
 30
0.0
 40
30.0
  1
500
 50
90.0
  7
TITLE3
  0
ENDBLK
  5
63DE
  8
0
  0
BLOCK
  8
0
  2
*U36
 70
     1
 10
0.0
 20
0.0
 30
0.0
  3
*U36
  1

  0
TEXT
  5
63E0
  8
10
 62
    50
 10
5448.3119436943562
 20
759.67532877347901
 30
0.0
 40
30.0
  1
119
 50
90.0
  7
TITLE3
  0
ENDBLK
  5
63E2
  8
0
  0
BLOCK
  8
0
  2
*U37
 70
     1
 10
0.0
 20
0.0
 30
0.0
  3
*U37
  1

  0
TEXT
  5
63E4
  8
10
 62
    50
 10
4832.9409948510329
 20
736.86769501516164
 30
0.0
 40
30.0
  1
90
 50
90.0
  7
TITLE3
  0
ENDBLK
  5
63E6
  8
0
  0
BLOCK
  8
0
  2
*U38
 70
     1
 10
0.0
 20
0.0
 30
0.0
  3
*U38
  1

  0
TEXT
  5
63E8
  8
10
 62
    50
 10
4929.9520014528389
 20
875.19447149732639
 30
0.0
 40
30.0
  1
45
 50
90.0
  7
TITLE3
  0
ENDBLK
  5
63EA
  8
0
  0
BLOCK
  8
0
  2
*U39
 70
     1
 10
0.0
 20
0.0
 30
0.0
  3
*U39
  1

  0
TEXT
  5
63EC
  8
10
 62
    50
 10
2326.9858510930881
 20
1098.97712743374
 30
0.0
 40
30.0
  1
1760 MTG CENTRES
  7
TITLE3
  0
ENDBLK
  5
63EE
  8
0
  0
BLOCK
  8
0
  2
*U40
 70
     1
 10
0.0
 20
0.0
 30
0.0
  3
*U40
  1

  0
TEXT
  5
63F0
  8
10
 62
    50
 10
2344.8429939502312
 20
1052.681551246751
 30
0.0
 40
30.0
  1
(SOLID & SPRING)
  7
TITLE3
  0
ENDBLK
  5
63F2
  8
0
  0
BLOCK
  8
0
  2
*U41
 70
     1
 10
0.0
 20
0.0
 30
0.0
  3
*U41
  1

  0
TEXT
  5
63F4
  8
10
 62
    50
 10
3583.539994432977
 20
1077.603970689162
 30
0.0
 40
30.0
  1
387
  7
TITLE3
  0
ENDBLK
  5
63F6
  8
0
  0
BLOCK
  8
0
  2
*U42
 70
     1
 10
0.0
 20
0.0
 30
0.0
  3
*U42
  1

  0
TEXT
  5
63F8
  8
10
 62
    50
 10
3467.8257087186912
 20
1036.647269153214
 30
0.0
 40
30.0
  1
MTG CENTRES
  7
TITLE3
  0
ENDBLK
  5
63FA
  8
0
  0
BLOCK
  8
0
  2
*U43
 70
     1
 10
0.0
 20
0.0
 30
0.0
  3
*U43
  1

  0
TEXT
  5
63FC
  8
10
 62
    50
 10
4669.1869439711154
 20
972.86947450978357
 30
0.0
 40
30.0
  1
335
  7
TITLE3
  0
ENDBLK
  5
63FE
  8
0
  0
BLOCK
  8
0
  2
*U44
 70
     1
 10
0.0
 20
0.0
 30
0.0
  3
*U44
  1

  0
TEXT
  5
6400
  8
10
 62
    50
 10
326.47885076825162
 20
101.12310186554519
 30
0.0
 40
30.0
  1
140
  7
TITLE3
  0
ENDBLK
  5
6402
  8
0
  0
BLOCK
  8
0
  2
*U45
 70
     1
 10
0.0
 20
0.0
 30
0.0
  3
*U45
  1

  0
SOLID
  5
6404
  8
OUTLINE
 10
3922.4630192343848
 20
2056.9999478633872
 30
0.0
 11
3909.6053587771371
 21
2029.4376444842039
 31
0.0
 12
3912.828885140746
 22
2059.6801456668632
 32
0.0
 13
3912.828885140746
 23
2059.6801456668632
 33
0.0
  0
POLYLINE
  5
6405
  8
OUTLINE
 66
     1
 10
0.0
 20
0.0
 30
0.0
  0
VERTEX
  5
6406
  8
OUTLINE
 10
3917.6459521875659
 20
2058.340046765125
 30
0.0
  0
VERTEX
  5
6407
  8
OUTLINE
 10
4021.718890313181
 20
2432.4365556574248
 30
0.0
  0
VERTEX
  5
6408
  8
OUTLINE
 10
4049.4344924517081
 20
2432.4365556574248
 30
0.0
  0
SEQEND
  5
6409
  8
OUTLINE
  0
ENDBLK
  5
640B
  8
0
  0
BLOCK
  8
0
  2
*U46
 70
     1
 10
0.0
 20
0.0
 30
0.0
  3
*U46
  1

  0
TEXT
  5
640D
  8
OUTLINE
 62
    50
 10
4069.4344924517081
 20
2417.4365556574248
 30
0.0
 40
30.0
  1
1 
  7
TITLE3
  0
TEXT
  5
640E
  8
OUTLINE
 62
    50
 10
4124.4344924517072
 20
2435.9365556574248
 30
0.0
 40
21.0
  1
1
  7
TITLE3
  0
LINE
  5
640F
  8
OUTLINE
 62
    50
 10
4119.4344924517081
 20
2432.4365556574248
 30
0.0
 11
4134.4344924517081
 21
2432.4365556574248
 31
0.0
  0
TEXT
  5
6410
  8
OUTLINE
 62
    50
 10
4119.4344924517081
 20
2407.9365556574248
 30
0.0
 40
21.0
  1
4
  7
TITLE3
  0
TEXT
  5
6411
  8
OUTLINE
 62
    50
 10
4140.4344924517081
 20
2417.4365556574248
 30
0.0
 40
30.0
  1
" BSP NIPPLE
  7
TITLE3
  0
ENDBLK
  5
6413
  8
0
  0
BLOCK
  8
0
  2
*U47
 70
     1
 10
0.0
 20
0.0
 30
0.0
  3
*U47
  1

  0
TEXT
  5
6415
  8
OUTLINE
 62
    50
 10
7025.8661859943304
 20
2088.6676850473968
 30
0.0
 40
30.0
  1
673
  7
TITLE3
  0
ENDBLK
  5
6417
  8
0
  0
BLOCK
  8
0
  2
*U48
 70
     1
 10
0.0
 20
0.0
 30
0.0
  3
*U48
  1

  0
TEXT
  5
6419
  8
OUTLINE
 62
    50
 10
6283.9740020454947
 20
3318.9019765325088
 30
0.0
 40
30.0
  1
670
 50
90.0
  7
TITLE3
  0
ENDBLK
  5
641B
  8
0
  0
BLOCK
  8
0
  2
*U49
 70
     1
 10
0.0
 20
0.0
 30
0.0
  3
*U49
  1

  0
TEXT
  5
641D
  8
OUTLINE
 62
    50
 10
6530.1498104873199
 20
1530.069341202473
 30
0.0
 40
30.0
  1
300
 50
90.0
  7
TITLE3
  0
ENDBLK
  5
641F
  8
0
  0
BLOCK
  8
0
  2
*U50
 70
     1
 10
0.0
 20
0.0
 30
0.0
  3
*U50
  1

  0
TEXT
  5
6421
  8
OUTLINE
 62
    50
 10
6447.0025059069649
 20
1509.328657220896
 30
0.0
 40
30.0
  1
633
 50
90.0
  7
TITLE3
  0
ENDBLK
  5
6423
  8
0
  0
BLOCK
  8
0
  2
*U51
 70
     1
 10
0.0
 20
0.0
 30
0.0
  3
*U51
  1

  0
TEXT
  5
6425
  8
OUTLINE
 62
    50
 10
6267.4072474266504
 20
1499.0291758513799
 30
0.0
 40
30.0
  1
653
 50
90.0
  7
TITLE3
  0
ENDBLK
  5
6427
  8
0
  0
BLOCK
  8
0
  2
*U52
 70
     1
 10
0.0
 20
0.0
 30
0.0
  3
*U52
  1

  0
TEXT
  5
6429
  8
OUTLINE
 62
    50
 10
3786.3921670623881
 20
1489.5057573648289
 30
0.0
 40
30.0
  1
673
 50
90.0
  7
TITLE3
  0
ENDBLK
  5
642B
  8
0
  0
BLOCK
  8
0
  2
*U53
 70
     1
 10
0.0
 20
0.0
 30
0.0
  3
*U53
  1

  0
TEXT
  5
642D
  8
OUTLINE
 62
    50
 10
4891.0365863680281
 20
4155.1845187898107
 30
0.0
 40
30.0
  1
2280 O/A
  7
TITLE3
  0
ENDBLK
  5
642F
  8
0
  0
BLOCK
  8
0
  2
*U54
 70
     1
 10
0.0
 20
0.0
 30
0.0
  3
*U54
  1

  0
TEXT
  5
6431
  8
10
 62
    50
 10
3950.1783434950271
 20
2817.0875743921929
 30
0.0
 40
30.0
  1
120
  7
TITLE3
  0
ENDBLK
  5
6433
  8
0
  0
BLOCK
  8
0
  2
*U55
 70
     1
 10
0.0
 20
0.0
 30
0.0
  3
*U55
  1

  0
TEXT
  5
6435
  8
10
 62
    50
 10
4747.7613793994669
 20
2817.0875743921929
 30
0.0
 40
30.0
  1
1491
  7
TITLE3
  0
ENDBLK
  5
6437
  8
0
  0
BLOCK
  8
0
  2
*U56
 70
     1
 10
0.0
 20
0.0
 30
0.0
  3
*U56
  1

  0
TEXT
  5
6439
  8
10
 62
    50
 10
3807.063083938569
 20
3949.0632754700218
 30
0.0
 40
30.0
  1
76
  7
TITLE3
  0
ENDBLK
  5
643B
  8
0
  0
BLOCK
  8
0
  2
*U57
 70
     1
 10
0.0
 20
0.0
 30
0.0
  3
*U57
  1

  0
TEXT
  5
643D
  8
10
 62
    50
 10
4813.5869261101334
 20
3921.975667433378
 30
0.0
 40
30.0
  1
1780
  7
TITLE3
  0
ENDBLK
  5
643F
  8
0
  0
BLOCK
  8
0
  2
*U58
 70
     1
 10
0.0
 20
0.0
 30
0.0
  3
*U58
  1

  0
TEXT
  5
6441
  8
10
 62
    50
 10
4650.6463541988223
 20
4040.2787058096628
 30
0.0
 40
30.0
  1
1833 MTG CENTRES
  7
TITLE3
  0
ENDBLK
  5
6443
  8
0
  0
BLOCK
  8
0
  2
*U59
 70
     1
 10
0.0
 20
0.0
 30
0.0
  3
*U59
  1

  0
TEXT
  5
6445
  8
10
 62
    50
 10
5846.3719261101378
 20
4064.2315733681321
 30
0.0
 40
30.0
  1
315 MTG.
  7
TITLE3
  0
ENDBLK
  5
6447
  8
0
  0
BLOCK
  8
0
  2
*U60
 70
     1
 10
0.0
 20
0.0
 30
0.0
  3
*U60
  1

  0
TEXT
  5
6449
  8
10
 62
    50
 10
5887.775887316272
 20
4013.1442941978239
 30
0.0
 40
30.0
  1
CTRS.
  7
TITLE3
  0
ENDBLK
  5
644B
  8
0
  0
BLOCK
  8
0
  2
*U61
 70
     1
 10
0.0
 20
0.0
 30
0.0
  3
*U61
  1

  0
TEXT
  5
644D
  8
10
 62
    50
 10
3080.291238133459
 20
1969.260773754821
 30
0.0
 40
30.0
  1
707
  7
TITLE3
  0
ENDBLK
  5
644F
  8
0
  0
BLOCK
  8
0
  2
*U62
 70
     1
 10
0.0
 20
0.0
 30
0.0
  3
*U62
  1

  0
TEXT
  5
6451
  8
10
 62
    50
 10
2957.4340952763159
 20
1914.429618718086
 30
0.0
 40
30.0
  1
MTG. CENTRES
  7
TITLE3
  0
ENDBLK
  5
6453
  8
0
  0
BLOCK
  8
0
  2
*U63
 70
     1
 10
0.0
 20
0.0
 30
0.0
  3
*U63
  1

  0
TEXT
  5
6455
  8
10
 62
    50
 10
3008.026952419174
 20
2077.819209675642
 30
0.0
 40
30.0
  1
876 O/A
  7
TITLE3
  0
ENDBLK
  5
6457
  8
0
  0
BLOCK
  8
0
  2
*U64
 70
     1
 10
0.0
 20
0.0
 30
0.0
  3
*U64
  1

  0
TEXT
  5
6459
  8
10
 62
    50
 10
6530.1498104873217
 20
1756.126484059627
 30
0.0
 40
30.0
  1
147
 50
90.0
  7
TITLE3
  0
ENDBLK
  5
645B
  8
0
  0
BLOCK
  8
0
  2
*U65
 70
     1
 10
0.0
 20
0.0
 30
0.0
  3
*U65
  1

  0
TEXT
  5
645D
  8
10
 62
    50
 10
7636.1411857175708
 20
1459.098894433414
 30
0.0
 40
30.0
  1
500
 50
90.0
  7
TITLE3
  0
ENDBLK
  5
645F
  8
0
  0
BLOCK
  8
0
  2
*U66
 70
     1
 10
0.0
 20
0.0
 30
0.0
  3
*U66
  1

  0
TEXT
  5
6461
  8
10
 62
    50
 10
7636.1411857175708
 20
1773.5626892465259
 30
0.0
 40
30.0
  1
119
 50
90.0
  7
TITLE3
  0
ENDBLK
  5
6463
  8
0
  0
BLOCK
  8
0
  2
*U67
 70
     1
 10
0.0
 20
0.0
 30
0.0
  3
*U67
  1

  0
TEXT
  5
6465
  8
10
 62
    50
 10
7020.7702368742484
 20
1750.755055488208
 30
0.0
 40
30.0
  1
90
 50
90.0
  7
TITLE3
  0
ENDBLK
  5
6467
  8
0
  0
BLOCK
  8
0
  2
*U68
 70
     1
 10
0.0
 20
0.0
 30
0.0
  3
*U68
  1

  0
TEXT
  5
6469
  8
10
 62
    50
 10
7117.7812434760544
 20
1889.081831970374
 30
0.0
 40
30.0
  1
45
 50
90.0
  7
TITLE3
  0
ENDBLK
  5
646B
  8
0
  0
BLOCK
  8
0
  2
*U69
 70
     1
 10
0.0
 20
0.0
 30
0.0
  3
*U69
  1

  0
TEXT
  5
646D
  8
10
 62
    50
 10
4613.9463541988207
 20
2020.396624029313
 30
0.0
 40
30.0
  1
1760 MTG CENTRES
  7
TITLE3
  0
ENDBLK
  5
646F
  8
0
  0
BLOCK
  8
0
  2
*U70
 70
     1
 10
0.0
 20
0.0
 30
0.0
  3
*U70
  1

  0
TEXT
  5
6471
  8
10
 62
    50
 10
4631.8034970559638
 20
1974.101047842325
 30
0.0
 40
30.0
  1
(SOLID & SPRING)
  7
TITLE3
  0
ENDBLK
  5
6473
  8
0
  0
BLOCK
  8
0
  2
*U71
 70
     1
 10
0.0
 20
0.0
 30
0.0
  3
*U71
  1

  0
TEXT
  5
6475
  8
10
 62
    50
 10
5870.500497538711
 20
1999.0234672847359
 30
0.0
 40
30.0
  1
387
  7
TITLE3
  0
ENDBLK
  5
6477
  8
0
  0
BLOCK
  8
0
  2
*U72
 70
     1
 10
0.0
 20
0.0
 30
0.0
  3
*U72
  1

  0
TEXT
  5
6479
  8
10
 62
    50
 10
5754.7862118244229
 20
1958.0667657487879
 30
0.0
 40
30.0
  1
MTG CENTRES
  7
TITLE3
  0
ENDBLK
  5
647B
  8
0
  0
BLOCK
  8
0
  2
*U73
 70
     1
 10
0.0
 20
0.0
 30
0.0
  3
*U73
  1

  0
TEXT
  5
647D
  8
10
 62
    50
 10
6857.0161859943291
 20
1986.7568349828309
 30
0.0
 40
30.0
  1
335
  7
TITLE3
  0
ENDBLK
  5
647F
  8
0
  0
BLOCK
  8
0
  2
*U74
 70
     1
 10
0.0
 20
0.0
 30
0.0
  3
*U74
  1

  0
TEXT
  5
6481
  8
OUTLINE
 62
    50
 10
3878.9146831607118
 20
1775.0503413196509
 30
0.0
 40
30.0
  1
102
 50
90.0
  7
TITLE3
  0
ENDBLK
  5
6483
  8
0
  0
BLOCK
  8
0
  2
*U75
 70
     1
 10
0.0
 20
0.0
 30
0.0
  3
*U75
  1

  0
TEXT
  5
6485
  8
OUTLINE
 62
    50
 10
5632.8099335122379
 20
1701.66458982687
 30
0.0
 40
30.0
  1
253
 50
90.0
  7
TITLE3
  0
ENDBLK
  5
6487
  8
0
  0
BLOCK
  8
0
  2
*U77
 70
     1
 10
0.0
 20
0.0
 30
0.0
  3
*U77
  1

  0
TEXT
  5
6753
  8
OUTLINE
 62
    50
 10
2869.1875236943711
 20
2005.2282158140481
 30
0.0
 40
60.0
  1
876 O/A
  7
TITLE3
  0
ENDBLK
  5
6755
  8
0
  0
BLOCK
  8
0
  2
*U78
 70
     1
 10
0.0
 20
0.0
 30
0.0
  3
*U78
  1

  0
TEXT
  5
6757
  8
OUTLINE
 62
    50
 10
2873.4946665515122
 20
1843.2637006513939
 30
0.0
 40
60.0
  1
707 MTG.
  7
TITLE3
  0
ENDBLK
  5
6759
  8
0
  0
BLOCK
  8
0
  2
*U79
 70
     1
 10
0.0
 20
0.0
 30
0.0
  3
*U79
  1

  0
TEXT
  5
675B
  8
OUTLINE
 62
    50
 10
2887.7803808372259
 20
1762.554907402131
 30
0.0
 40
60.0
  1
CENTRES
  7
TITLE3
  0
ENDBLK
  5
675D
  8
0
  0
BLOCK
  8
0
  2
*U80
 70
     1
 10
0.0
 20
0.0
 30
0.0
  3
*U80
  1

  0
TEXT
  5
675F
  8
OUTLINE
 62
    50
 10
3681.515705304118
 20
1251.9461201316919
 30
0.0
 40
60.0
  1
673
 50
90.0
  7
TITLE3
  0
ENDBLK
  5
6761
  8
0
  0
BLOCK
  8
0
  2
*U81
 70
     1
 10
0.0
 20
0.0
 30
0.0
  3
*U81
  1

  0
TEXT
  5
6763
  8
OUTLINE
 62
    50
 10
3807.7553963929349
 20
1268.6973762771329
 30
0.0
 40
60.0
  1
102
 50
90.0
  7
TITLE3
  0
ENDBLK
  5
6765
  8
0
  0
BLOCK
  8
0
  2
*U82
 70
     1
 10
0.0
 20
0.0
 30
0.0
  3
*U82
  1

  0
TEXT
  5
6767
  8
OUTLINE
 62
    50
 10
6246.8629948252892
 20
1263.2956801980031
 30
0.0
 40
60.0
  1
653
 50
90.0
  7
TITLE3
  0
ENDBLK
  5
6769
  8
0
  0
BLOCK
  8
0
  2
*U83
 70
     1
 10
0.0
 20
0.0
 30
0.0
  3
*U83
  1

  0
TEXT
  5
676B
  8
OUTLINE
 62
    50
 10
5647.5664918007278
 20
1989.354604197777
 30
0.0
 40
60.0
  1
387 MTG.
  7
TITLE3
  0
ENDBLK
  5
676D
  8
0
  0
BLOCK
  8
0
  2
*U84
 70
     1
 10
0.0
 20
0.0
 30
0.0
  3
*U84
  1

  0
TEXT
  5
676F
  8
OUTLINE
 62
    50
 10
5736.1379203721563
 20
1854.259341421362
 30
0.0
 40
60.0
  1
CTRS.
  7
TITLE3
  0
ENDBLK
  5
6771
  8
0
  0
BLOCK
  8
0
  2
*U85
 70
     1
 10
0.0
 20
0.0
 30
0.0
  3
*U85
  1

  0
TEXT
  5
6773
  8
OUTLINE
 62
    50
 10
3560.5466027452499
 20
2449.9182264132401
 30
0.0
 40
60.0
  1
120
  7
TITLE3
  0
ENDBLK
  5
6775
  8
0
  0
BLOCK
  8
0
  2
*U86
 70
     1
 10
0.0
 20
0.0
 30
0.0
  3
*U86
  1

  0
TEXT
  5
6777
  8
OUTLINE
 62
    50
 10
4644.9993619049692
 20
2449.9182264132401
 30
0.0
 40
60.0
  1
1491
  7
TITLE3
  0
ENDBLK
  5
6779
  8
0
  0
BLOCK
  8
0
  2
*U87
 70
     1
 10
0.0
 20
0.0
 30
0.0
  3
*U87
  1

  0
TEXT
  5
677B
  8
OUTLINE
 62
    50
 10
6317.4977900526601
 20
3010.7235617590291
 30
0.0
 40
60.0
  1
670
 50
90.0
  7
TITLE3
  0
ENDBLK
  5
677D
  8
0
  0
BLOCK
  8
0
  2
*U88
 70
     1
 10
0.0
 20
0.0
 30
0.0
  3
*U88
  1

  0
TEXT
  5
677F
  8
OUTLINE
 62
    50
 10
4391.4598138571782
 20
1962.312764978233
 30
0.0
 40
60.0
  1
1760 MTG. CTRS.
  7
TITLE3
  0
ENDBLK
  5
6781
  8
0
  0
BLOCK
  8
0
  2
*U89
 70
     1
 10
0.0
 20
0.0
 30
0.0
  3
*U89
  1

  0
TEXT
  5
6783
  8
OUTLINE
 62
    50
 10
4367.1740995714636
 20
1846.805080459842
 30
0.0
 40
60.0
  1
(SOLID & SPRING)
  7
TITLE3
  0
ENDBLK
  5
6785
  8
0
  0
BLOCK
  8
0
  2
*U90
 70
     1
 10
0.0
 20
0.0
 30
0.0
  3
*U90
  1

  0
TEXT
  5
6787
  8
OUTLINE
 62
    50
 10
5576.3453579032866
 20
1462.9950726420229
 30
0.0
 40
60.0
  1
253
 50
90.0
  7
TITLE3
  0
ENDBLK
  5
6789
  8
0
  0
BLOCK
  8
0
  2
*U91
 70
     1
 10
0.0
 20
0.0
 30
0.0
  3
*U91
  1

  0
TEXT
  5
678B
  8
OUTLINE
 62
    50
 10
4704.1063371870623
 20
3709.1434029256129
 30
0.0
 40
60.0
  1
1780
  7
TITLE3
  0
ENDBLK
  5
678D
  8
0
  0
BLOCK
  8
0
  2
*U92
 70
     1
 10
0.0
 20
0.0
 30
0.0
  3
*U92
  1

  0
TEXT
  5
678F
  8
OUTLINE
 62
    50
 10
4428.757908132894
 20
3892.336360516334
 30
0.0
 40
60.0
  1
1833 MTG. CTRS.
  7
TITLE3
  0
ENDBLK
  5
6791
  8
0
  0
BLOCK
  8
0
  2
*U93
 70
     1
 10
0.0
 20
0.0
 30
0.0
  3
*U93
  1

  0
TEXT
  5
6793
  8
OUTLINE
 62
    50
 10
6143.6527800456843
 20
3892.336360516334
 30
0.0
 40
60.0
  1
315 MTG. CTRS.
  7
TITLE3
  0
ENDBLK
  5
6795
  8
0
  0
BLOCK
  8
0
  2
*U94
 70
     1
 10
0.0
 20
0.0
 30
0.0
  3
*U94
  1

  0
TEXT
  5
6797
  8
OUTLINE
 62
    50
 10
4750.8813464625482
 20
4104.0913564054981
 30
0.0
 40
60.0
  1
2280 O/A
  7
TITLE3
  0
ENDBLK
  5
6799
  8
0
  0
BLOCK
  8
0
  2
*U95
 70
     1
 10
0.0
 20
0.0
 30
0.0
  3
*U95
  1

  0
TEXT
  5
679B
  8
OUTLINE
 62
    50
 10
3580.8875595211089
 20
3709.1434029256129
 30
0.0
 40
60.0
  1
76
  7
TITLE3
  0
ENDBLK
  5
679D
  8
0
  0
BLOCK
  8
0
  2
*U96
 70
     1
 10
0.0
 20
0.0
 30
0.0
  3
*U96
  1

  0
TEXT
  5
679F
  8
OUTLINE
 62
    50
 10
7693.7411690032213
 20
1221.0760160878781
 30
0.0
 40
60.0
  1
500
 50
90.0
  7
TITLE3
  0
ENDBLK
  5
67A1
  8
0
  0
BLOCK
  8
0
  2
*U97
 70
     1
 10
0.0
 20
0.0
 30
0.0
  3
*U97
  1

  0
TEXT
  5
67A3
  8
OUTLINE
 62
    50
 10
7693.7411690032213
 20
1795.096468737345
 30
0.0
 40
60.0
  1
119
 50
90.0
  7
TITLE3
  0
ENDBLK
  5
67A5
  8
0
  0
BLOCK
  8
0
  2
*U98
 70
     1
 10
0.0
 20
0.0
 30
0.0
  3
*U98
  1

  0
TEXT
  5
67A7
  8
OUTLINE
 62
    50
 10
6986.1097574229052
 20
1967.0084289540059
 30
0.0
 40
60.0
  1
673
  7
TITLE3
  0
ENDBLK
  5
67A9
  8
0
  0
BLOCK
  8
0
  2
*U99
 70
     1
 10
0.0
 20
0.0
 30
0.0
  3
*U99
  1

  0
TEXT
  5
67AB
  8
OUTLINE
 62
    50
 10
6817.8447574229031
 20
1832.4904830080591
 30
0.0
 40
60.0
  1
335
  7
TITLE3
  0
ENDBLK
  5
67AD
  8
0
  0
BLOCK
  8
0
  2
*U100
 70
     1
 10
0.0
 20
0.0
 30
0.0
  3
*U100
  1

  0
TEXT
  5
67AF
  8
OUTLINE
 62
    50
 10
6390.4883347296854
 20
1273.2057788753591
 30
0.0
 40
60.0
  1
633
 50
90.0
  7
TITLE3
  0
ENDBLK
  5
67B1
  8
0
  0
BLOCK
  8
0
  2
*U101
 70
     1
 10
0.0
 20
0.0
 30
0.0
  3
*U101
  1

  0
TEXT
  5
67B3
  8
OUTLINE
 62
    50
 10
6494.1754768315041
 20
1292.7464628569369
 30
0.0
 40
60.0
  1
300
 50
90.0
  7
TITLE3
  0
ENDBLK
  5
67B5
  8
0
  0
BLOCK
  8
0
  2
*U102
 70
     1
 10
0.0
 20
0.0
 30
0.0
  3
*U102
  1

  0
TEXT
  5
67B7
  8
OUTLINE
 62
    50
 10
6553.9693634604382
 20
1826.8893199998149
 30
0.0
 40
60.0
  1
147
 50
90.0
  0
ENDBLK
  5
67B9
  8
0
  0
BLOCK
  8
0
  2
*U103
 70
     1
 10
0.0
 20
0.0
 30
0.0
  3
*U103
  1

  0
TEXT
  5
67BB
  8
OUTLINE
 62
    50
 10
7015.3616535725887
 20
1304.1047688773249
 30
0.0
 40
60.0
  1
90
 50
90.0
  7
TITLE3
  0
ENDBLK
  5
67BD
  8
0
  0
BLOCK
  8
0
  2
*U104
 70
     1
 10
0.0
 20
0.0
 30
0.0
  3
*U104
  1

  0
TEXT
  5
67BF
  8
OUTLINE
 62
    50
 10
7271.8967105489764
 20
1500.6096399733481
 30
0.0
 40
60.0
  1
45
 50
90.0
  7
TITLE3
  0
ENDBLK
  5
67C1
  8
0
  0
ENDSEC
  0
SECTION
  2
ENTITIES
  0
TEXT
  5
2C66
  8
TEXT
  6
CONTINUOUS
 10
5821.99538748546
 20
463.60048355040448
 30
0.0
 40
100.0
  1
temperzone HWP 445K
  7
TITLE5
 72
     1
 11
6688.662054152127
 21
463.60048355040448
 31
0.0
  0
TEXT
  5
2C67
  8
TEXT
  6
CONTINUOUS
 10
5899.2876043925653
 20
220.0
 30
0.0
 40
60.0
  1
12.05.08
 41
0.8615384615384618
  7
TITLE3
 72
     5
 11
6219.2876043925644
 21
220.0
 31
0.0
  0
TEXT
  5
2C68
  8
TEXT
  6
CONTINUOUS
 10
5940.0
 20
80.611361330295765
 30
0.0
 40
60.0
  1
1=20
  7
TITLE3
  0
TEXT
  5
2D0E
  8
OVERLAY-A3
 10
5692.4576913569772
 20
221.6624277202018
 30
0.0
 40
48.0
  1
Date
  7
SIMPLEX
  0
TEXT
  5
2D0F
  8
OVERLAY-A3
 10
7492.2223847472042
 20
259.00660404682242
 30
0.0
 40
48.0
  1
Revision
 41
0.7812095035934775
  7
SIMPLEX
 72
     5
 11
7702.9257480021297
 21
259.00660404682242
 31
0.0
  0
LINE
  5
2D10
  8
OVERLAY-A3
 10
7468.9826999803199
 20
41.684985696634271
 30
0.0
 11
7468.982699980319
 21
336.53731141709312
 31
0.0
  0
LINE
  5
2D11
  8
OVERLAY-A3
 10
5638.7030589142951
 20
650.42893966234385
 30
0.0
 11
5638.7030589142951
 21
41.684985696634271
 31
0.0
  0
LINE
  5
2D12
  8
OVERLAY-A3
 10
6833.8273560261878
 20
41.684985696634271
 30
0.0
 11
6833.8273560261878
 21
336.53731141709312
 31
0.0
  0
LINE
  5
2D13
  8
OVERLAY-A3
 10
6833.8273560261869
 20
186.62519853892741
 30
0.0
 11
5638.7030589142951
 21
186.62519853892741
 31
0.0
  0
LINE
  5
2D14
  8
OVERLAY-A3
 10
7723.1509304756837
 20
336.53731141709312
 30
0.0
 11
5638.7030589142951
 21
336.53731141709312
 31
0.0
  0
LINE
  5
2D15
  8
OVERLAY-A3
 10
5638.7030589142951
 20
41.684985696634271
 30
0.0
 11
7722.5559161189822
 21
41.684985696634271
 31
0.0
  0
LINE
  5
2D16
  8
OVERLAY-A3
 10
7722.5559161189822
 20
41.684985696634271
 30
0.0
 11
7722.5559161189822
 21
650.42893966234385
 31
0.0
  0
LINE
  5
2D17
  8
OVERLAY-A3
 10
7722.5559161189822
 20
650.42893966234385
 30
0.0
 11
5638.7030589142951
 21
650.42893966234385
 31
0.0
  0
TEXT
  5
2D18
  8
OVERLAY-A3
 10
5688.9664382062192
 20
95.844976130715395
 30
0.0
 40
40.0
  1
Scale
 41
1.3701747965659721
  7
SIMPLEX
 72
     5
 11
5889.9254083692276
 21
95.844976130715395
 31
0.0
  0
TEXT
  5
2D19
  8
OVERLAY-A3
 10
6949.7182472015938
 20
257.78686301341941
 30
0.0
 40
40.0
  1
Drawing No.
  7
SIMPLEX
 72
     2
 11
7298.2896757730232
 21
257.78686301341941
 31
0.0
  0
LINE
  5
2D1A
  8
OVERLAY-A3
 10
2519.572367563937
 20
0.0
 30
0.0
 11
7780.000000000312
 21
0.0
 31
0.0
  0
LINE
  5
2D1B
  8
OVERLAY-A3
 10
7780.000000000312
 20
0.0
 30
0.0
 11
7780.000000000312
 21
4418.6623601792389
 31
0.0
  0
LINE
  5
2D1C
  8
OVERLAY-A3
 10
7780.000000000312
 20
4418.6623601792389
 30
0.0
 11
2519.572367563937
 21
4418.6623601792389
 31
0.0
  0
LINE
  5
2D1D
  8
OVERLAY-A3
 10
2519.572367563937
 20
4418.6623601792389
 30
0.0
 11
2519.572367563937
 21
0.0
 31
0.0
  0
TEXT
  5
2D1E
  8
TEXT
  6
CONTINUOUS
 10
6935.9253342302454
 20
107.8471538600423
 30
0.0
 40
60.0
  1
HWP 445K
  7
TITLE3
  0
INSERT
  5
2D2C
  8
CLEAR
  2
NEW_BLOCK0
 10
2572.737093874382
 20
44.774680967014312
 30
0.0
 41
1.5
 42
1.5
 43
1.5
  0
LINE
  5
43AD
  8
OUTLINE
 10
6756.7376145657609
 20
995.08931999981587
 30
0.0
 11
7369.7376145657609
 21
995.08931999981439
 31
0.0
  0
LINE
  5
43C2
  8
OUTLINE
 10
6086.7179905468447
 20
2751.36641890186
 30
0.0
 11
3866.6413371870681
 21
2751.36641890186
 31
0.0
  0
LINE
  5
43C7
  8
OUTLINE
 10
6039.0413371870918
 20
2771.86641890186
 30
0.0
 11
6047.0413371870918
 21
2771.86641890186
 31
0.0
  0
LINE
  5
43C8
  8
OUTLINE
 10
6047.0413371870918
 20
2759.86641890186
 30
0.0
 11
6039.0413371870918
 21
2759.86641890186
 31
0.0
  0
ARC
  5
43C9
  8
OUTLINE
 10
6039.0413371870918
 20
2765.86641890186
 30
0.0
 40
6.0
 50
90.0
 51
270.0
  0
ARC
  5
43CA
  8
OUTLINE
 10
6047.0413371870918
 20
2765.86641890186
 30
0.0
 40
6.0
 50
270.0
 51
90.0
  0
LINE
  5
43CB
  8
OUTLINE
 10
5652.1413371870713
 20
2771.86641890186
 30
0.0
 11
5660.1413371870667
 21
2771.86641890186
 31
0.0
  0
LINE
  5
43CC
  8
OUTLINE
 10
5660.1413371870667
 20
2759.86641890186
 30
0.0
 11
5652.1413371870713
 21
2759.86641890186
 31
0.0
  0
ARC
  5
43CD
  8
OUTLINE
 10
5660.1413371870667
 20
2765.86641890186
 30
0.0
 40
6.0
 50
270.0
 51
90.0
  0
ARC
  5
43CE
  8
OUTLINE
 10
5652.1413371870713
 20
2765.86641890186
 30
0.0
 40
6.0
 50
90.0
 51
270.0
  0
ARC
  5
43D2
  8
OUTLINE
 10
3893.075907650149
 20
2765.86641890186
 30
0.0
 40
6.0
 50
90.0
 51
270.0
  0
ARC
  5
43D3
  8
OUTLINE
 10
3901.0759076501499
 20
2765.86641890186
 30
0.0
 40
6.0
 50
270.0
 51
90.0
  0
LINE
  5
43D4
  8
OUTLINE
 10
3893.075907650149
 20
2759.86641890186
 30
0.0
 11
3901.0759076501499
 21
2759.86641890186
 31
0.0
  0
LINE
  5
43D5
  8
OUTLINE
 10
3901.0759076501499
 20
2771.86641890186
 30
0.0
 11
3893.075907650149
 21
2771.86641890186
 31
0.0
  0
LINE
  5
43D6
  8
OUTLINE
 10
3866.6413371870681
 20
2780.1664189018838
 30
0.0
 11
3866.6413371870681
 21
2751.36641890186
 31
0.0
  0
LINE
  5
43DB
  8
OUTLINE
 10
5672.4079887291318
 20
3394.3664189018841
 30
0.0
 11
3867.9079887291282
 21
3394.3664189018841
 31
0.0
  0
LINE
  5
447F
  8
OUTLINE
 10
3986.6427433854178
 20
2662.566418901883
 30
0.0
 11
5477.9816947102336
 21
2662.566418901883
 31
0.0
  0
LINE
  5
4482
  8
OUTLINE
 10
3986.6427433854178
 20
2662.566418901883
 30
0.0
 11
3986.6427433854178
 21
2751.36641890186
 31
0.0
  0
LINE
  5
4487
  8
OUTLINE
 10
5477.6416947102362
 20
2751.36641890186
 30
0.0
 11
5477.6416947102362
 21
2662.566418901883
 31
0.0
  0
LINE
  5
44BC
  8
OUTLINE
 10
6086.7179905468429
 20
3394.3664189018841
 30
0.0
 11
6086.7179905468447
 21
2751.36641890186
 31
0.0
  0
LINE
  5
44C9
  8
OUTLINE
 10
3888.917990546845
 20
3394.3664189018809
 30
0.0
 11
5675.1179905468434
 21
3394.3664189018809
 31
0.0
  0
LINE
  5
44E0
  8
OUTLINE
 10
3865.4413371870678
 20
3394.366418901885
 30
0.0
 11
6084.2413371870662
 21
3394.366418901885
 31
0.0
  0
LINE
  5
44E1
  8
OUTLINE
 10
3866.6413371870658
 20
3424.36641890191
 30
0.0
 11
6084.2413371870662
 21
3424.36641890191
 31
0.0
  0
LINE
  5
44E4
  8
OUTLINE
 10
3838.0304166639662
 20
3394.366418901885
 30
0.0
 11
6118.017990546844
 21
3394.3664189018841
 31
0.0
  0
LINE
  5
44E7
  8
OUTLINE
 10
3866.1113371870661
 20
3424.36641890191
 30
0.0
 11
3866.1113371870661
 21
3393.1664189018861
 31
0.0
  0
ARC
  5
44E8
  8
OUTLINE
 10
3890.945907650173
 20
3408.6664189019111
 30
0.0
 40
6.0
 50
90.0
 51
270.0
  0
ARC
  5
44E9
  8
OUTLINE
 10
3898.9459076501712
 20
3408.6664189019111
 30
0.0
 40
6.0
 50
270.0
 51
90.0
  0
LINE
  5
44EA
  8
OUTLINE
 10
3890.945907650173
 20
3414.6664189019111
 30
0.0
 11
3898.9459076501712
 21
3414.6664189019111
 31
0.0
  0
LINE
  5
44EB
  8
OUTLINE
 10
3898.9459076501712
 20
3402.6664189019102
 30
0.0
 11
3890.945907650173
 21
3402.6664189019102
 31
0.0
  0
LINE
  5
44EE
  8
OUTLINE
 10
6040.5413371870682
 20
3402.6664189019089
 30
0.0
 11
6048.5413371870682
 21
3402.6664189019089
 31
0.0
  0
LINE
  5
44EF
  8
OUTLINE
 10
6048.5413371870682
 20
3414.6664189019089
 30
0.0
 11
6040.5413371870682
 21
3414.6664189019089
 31
0.0
  0
ARC
  5
44F0
  8
OUTLINE
 10
6040.5413371870682
 20
3408.6664189019111
 30
0.0
 40
6.0
 50
90.0
 51
270.0
  0
ARC
  5
44F1
  8
OUTLINE
 10
6048.5413371870682
 20
3408.6664189019111
 30
0.0
 40
6.0
 50
270.0
 51
90.0
  0
LINE
  5
44F4
  8
OUTLINE
 10
6084.2413371870662
 20
3395.566418901883
 30
0.0
 11
6084.2413371870662
 21
3424.36641890191
 31
0.0
  0
LINE
  5
4547
  8
OUTLINE
 10
3838.0304166639612
 20
2779.5664189018839
 30
0.0
 11
3838.0304166639662
 21
3394.366418901885
 31
0.0
  0
LINE
  5
4553
  8
OUTLINE
 10
6118.017990546844
 20
2779.5664189018839
 30
0.0
 11
3838.0304166639612
 21
2779.5664189018839
 31
0.0
  0
LINE
  5
4575
  8
OUTLINE
 10
5702.5191240978293
 20
2684.1664189018579
 30
0.0
 11
5702.5191240978293
 21
2751.36641890186
 31
0.0
  0
LINE
  5
4576
  8
OUTLINE
 10
6076.0476966069482
 20
2684.166418901857
 30
0.0
 11
6076.0476966069482
 21
2751.3664189018609
 31
0.0
  0
LINE
  5
457F
  8
OUTLINE
 10
5702.5191240978293
 20
2684.1664189018579
 30
0.0
 11
6076.0476966069482
 21
2684.166418901857
 31
0.0
  0
LINE
  5
4583
  8
OUTLINE
 10
6068.54133718707
 20
3424.3664189019109
 30
0.0
 11
6068.54133718707
 21
3457.9664189018581
 31
0.0
  0
LINE
  5
4584
  8
OUTLINE
 10
6020.5413371870691
 20
3424.3664189019109
 30
0.0
 11
6020.5413371870691
 21
3457.9664189018581
 31
0.0
  0
LINE
  5
4585
  8
OUTLINE
 10
6068.54133718707
 20
3457.9664189018581
 30
0.0
 11
6020.5413371870691
 21
3457.9664189018581
 31
0.0
  0
CIRCLE
  5
4586
  8
OUTLINE
 10
6044.5413371870691
 20
3437.9664189018581
 30
0.0
 40
9.5
  0
LINE
  5
4587
  8
OUTLINE
 10
5753.54133718707
 20
3424.3664189019109
 30
0.0
 11
5753.5413371870691
 21
3457.9664189018581
 31
0.0
  0
LINE
  5
4588
  8
OUTLINE
 10
5705.5413371870691
 20
3424.3664189019109
 30
0.0
 11
5705.5413371870691
 21
3457.9664189018581
 31
0.0
  0
LINE
  5
4589
  8
OUTLINE
 10
5753.5413371870691
 20
3457.9664189018581
 30
0.0
 11
5705.5413371870691
 21
3457.9664189018581
 31
0.0
  0
CIRCLE
  5
458A
  8
OUTLINE
 10
5729.5413371870691
 20
3437.9664189018581
 30
0.0
 40
9.5
  0
LINE
  5
458B
  8
OUTLINE
 10
6067.04133718707
 20
2751.36641890186
 30
0.0
 11
6067.04133718707
 21
2711.3664189018582
 31
0.0
  0
LINE
  5
458C
  8
OUTLINE
 10
6019.0413371870691
 20
2751.36641890186
 30
0.0
 11
6019.0413371870691
 21
2711.3664189018568
 31
0.0
  0
LINE
  5
458D
  8
OUTLINE
 10
6067.04133718707
 20
2711.3664189018582
 30
0.0
 11
6019.0413371870691
 21
2711.3664189018568
 31
0.0
  0
CIRCLE
  5
458E
  8
OUTLINE
 10
6043.0413371870691
 20
2731.3664189018582
 30
0.0
 40
9.5
  0
LINE
  5
458F
  8
OUTLINE
 10
5680.1413371870703
 20
2751.36641890186
 30
0.0
 11
5680.1413371870703
 21
2711.3664189018582
 31
0.0
  0
LINE
  5
4590
  8
OUTLINE
 10
5632.1413371870703
 20
2751.36641890186
 30
0.0
 11
5632.1413371870703
 21
2711.3664189018568
 31
0.0
  0
LINE
  5
4591
  8
OUTLINE
 10
5680.1413371870703
 20
2711.3664189018582
 30
0.0
 11
5632.1413371870703
 21
2711.3664189018568
 31
0.0
  0
CIRCLE
  5
4592
  8
OUTLINE
 10
5656.1413371870713
 20
2731.3664189018582
 30
0.0
 40
9.5
  0
LINE
  5
4593
  8
OUTLINE
 10
3920.5459076501488
 20
3424.36641890191
 30
0.0
 11
3920.5459076501488
 21
3461.1664189018829
 31
0.0
  0
LINE
  5
4594
  8
OUTLINE
 10
3872.5459076501488
 20
3424.36641890191
 30
0.0
 11
3872.5459076501488
 21
3461.1664189018838
 31
0.0
  0
LINE
  5
4595
  8
OUTLINE
 10
3920.5459076501488
 20
3461.1664189018829
 30
0.0
 11
3872.5459076501488
 21
3461.1664189018838
 31
0.0
  0
CIRCLE
  5
4596
  8
OUTLINE
 10
3896.5459076501488
 20
3441.1664189018838
 30
0.0
 40
9.5
  0
LINE
  5
4597
  8
OUTLINE
 10
3921.0759076501508
 20
2751.36641890186
 30
0.0
 11
3921.0759076501508
 21
2714.566418901883
 31
0.0
  0
LINE
  5
4598
  8
OUTLINE
 10
3873.0759076501499
 20
2751.36641890186
 30
0.0
 11
3873.0759076501499
 21
2714.5664189018821
 31
0.0
  0
LINE
  5
4599
  8
OUTLINE
 10
3921.0759076501508
 20
2714.566418901883
 30
0.0
 11
3873.0759076501499
 21
2714.5664189018821
 31
0.0
  0
CIRCLE
  5
459A
  8
OUTLINE
 10
3897.0759076501499
 20
2734.566418901883
 30
0.0
 40
9.5
  0
LINE
  5
45AA
  8
OUTLINE
 10
6069.0476966069491
 20
1078.5747386695989
 30
0.0
 11
6049.0476966069491
 21
1078.5747386696
 31
0.0
  0
LINE
  5
45BD
  8
OUTLINE
 10
4066.6413371870672
 20
1031.325947705704
 30
0.0
 11
6084.2413371870689
 21
1031.325947705704
 31
0.0
  0
LINE
  5
45D0
  8
OUTLINE
 10
3840.064497320483
 20
1021.981656907803
 30
0.0
 11
3839.9601162491558
 21
1031.3259477057029
 31
0.0
  0
LINE
  5
45DB
  8
OUTLINE
 10
3840.064497320483
 20
1021.981656907803
 30
0.0
 11
6110.6610240318869
 21
1022.528956790077
 31
0.0
  0
LINE
  5
45E1
  8
OUTLINE
 10
6113.0413371870918
 20
1666.889319999814
 30
0.0
 11
3836.2413371870421
 21
1666.8893199998149
 31
0.0
  0
LINE
  5
45E4
  8
OUTLINE
 10
6113.0413371870918
 20
1657.6893199998131
 30
0.0
 11
6111.8413371870938
 21
1657.6893199998131
 31
0.0
  0
LINE
  5
45E5
  8
OUTLINE
 10
6113.0413371870918
 20
1657.6893199998131
 30
0.0
 11
6113.0413371870918
 21
1666.889319999814
 31
0.0
  0
LINE
  5
45E9
  8
OUTLINE
 10
6097.4413371870678
 20
1013.987754681905
 30
0.0
 11
6097.4413371870678
 21
1022.5257703441511
 31
0.0
  0
LINE
  5
45EC
  8
OUTLINE
 10
3836.2413371870421
 20
1657.6893199998131
 30
0.0
 11
3836.2413371870421
 21
1666.889319999812
 31
0.0
  0
LINE
  5
45F5
  8
OUTLINE
 10
6756.7376145657609
 20
995.08931999981587
 30
0.0
 11
6756.7376145657572
 21
1666.889319999814
 31
0.0
  0
LINE
  5
45F6
  8
OUTLINE
 10
7369.7376145657609
 20
1666.889319999814
 30
0.0
 11
7369.7376145657609
 21
995.08931999981439
 31
0.0
  0
CIRCLE
  5
4609
  8
OUTLINE
 10
7063.237614565759
 20
1621.889319999814
 30
0.0
 40
24.0
  0
CIRCLE
  5
460A
  8
OUTLINE
 10
7063.237614565759
 20
1531.889319999814
 30
0.0
 40
24.0
  0
LINE
  5
4666
  8
OUTLINE
 10
6637.7376145657572
 20
1519.8893199997931
 30
0.0
 11
6637.7376145657572
 21
1219.8893199997931
 31
0.0
  0
LINE
  5
4667
  8
OUTLINE
 10
6637.7376145657572
 20
1519.8893199997931
 30
0.0
 11
6756.7376145657609
 21
1519.8893199997931
 31
0.0
  0
LINE
  5
466B
  8
OUTLINE
 10
6914.2090420565564
 20
1473.260747490611
 30
0.0
 11
6914.2090420565564
 21
1107.260747490611
 31
0.0
  0
LINE
  5
466D
  8
OUTLINE
 10
7313.7090420565573
 20
1107.260747490611
 30
0.0
 11
7313.7090420565537
 21
1473.260747490611
 31
0.0
  0
LINE
  5
466E
  8
OUTLINE
 10
6914.2090420565564
 20
1107.260747490611
 30
0.0
 11
7313.7090420565573
 21
1107.260747490611
 31
0.0
  0
LINE
  5
466F
  8
OUTLINE
 10
6932.2090420565573
 20
1107.260747490611
 30
0.0
 11
6914.2090420565564
 21
1107.260747490611
 31
0.0
  0
LINE
  5
4670
  8
OUTLINE
 10
6914.2090420565564
 20
1473.260747490611
 30
0.0
 11
7313.7090420565537
 21
1473.260747490611
 31
0.0
  0
LINE
  5
4681
  8
OUTLINE
 10
6664.3376145657576
 20
1462.8398795608121
 30
0.0
 11
6664.3376145657576
 21
1080.4398795608131
 31
0.0
  0
LINE
  5
4685
  8
OUTLINE
 10
6664.3376145657576
 20
1462.8398795608121
 30
0.0
 11
6756.737614565759
 21
1462.8398795608121
 31
0.0
  0
LINE
  5
4686
  8
OUTLINE
 10
6664.3376145657594
 20
1080.4398795608131
 30
0.0
 11
6756.7376145657609
 21
1080.4398795608131
 31
0.0
  0
LINE
  5
4691
  8
OUTLINE
 10
6734.5869331419872
 20
1024.808513501607
 30
0.0
 11
6734.4864042676254
 21
1033.8079520366171
 31
0.0
  0
LINE
  5
4698
  8
OUTLINE
 10
7395.7827561433151
 20
1024.808513501607
 30
0.0
 11
7395.8832850176777
 21
1033.8079520366171
 31
0.0
  0
LINE
  5
469B
  8
OUTLINE
 10
6726.7376145657581
 20
1658.889319999814
 30
0.0
 11
6726.7376145657599
 21
1666.889319999814
 31
0.0
  0
LINE
  5
469D
  8
OUTLINE
 10
7399.7676145657597
 20
1666.889319999814
 30
0.0
 11
7399.7676145657597
 21
1658.889319999814
 31
0.0
  0
LINE
  5
469F
  8
OUTLINE
 10
7399.7676145657597
 20
1666.889319999814
 30
0.0
 11
6726.7376145657599
 21
1666.889319999814
 31
0.0
  0
LINE
  5
46B2
  8
OUTLINE
 10
3413.958952265798
 20
1660.3296063359451
 30
0.0
 11
2743.3589522657971
 21
1660.3296063359439
 31
0.0
  0
LINE
  5
46BC
  8
OUTLINE
 10
3386.3589522657981
 20
1030.0296063359431
 30
0.0
 11
2772.1589522657978
 21
1030.0296063359431
 31
0.0
  0
LINE
  5
46BF
  8
OUTLINE
 10
2772.1589522657978
 20
1660.329606335943
 30
0.0
 11
2772.1589522657978
 21
1030.0296063359431
 31
0.0
  0
LINE
  5
46C1
  8
OUTLINE
 10
3386.3589522657981
 20
1660.329606335943
 30
0.0
 11
3386.3589522657981
 21
988.52960633594284
 31
0.0
  0
LINE
  5
4708
  8
OUTLINE
 10
3505.7589522658
 20
1513.9296063359409
 30
0.0
 11
3505.7589522658
 21
1213.929606335942
 31
0.0
  0
LINE
  5
470B
  8
OUTLINE
 10
3505.7589522658
 20
1513.9296063359409
 30
0.0
 11
3386.3589522657981
 21
1513.9296063359409
 31
0.0
  0
LINE
  5
4710
  8
OUTLINE
 10
3386.3589522657981
 20
1213.929606335942
 30
0.0
 11
3505.7589522658
 21
1213.929606335942
 31
0.0
  0
LINE
  5
4729
  8
OUTLINE
 10
6756.737614565759
 20
1012.272361591695
 30
0.0
 11
7369.7376145657609
 21
1012.272361591695
 31
0.0
  0
LINE
  5
4746
  8
OUTLINE
 10
2772.1589522657978
 20
988.52960633594375
 30
0.0
 11
3386.3589522657981
 21
988.52960633594284
 31
0.0
  0
LINE
  5
47B6
  8
OUTLINE
 10
3839.7164542769769
 20
1019.2886345492821
 30
0.0
 11
3839.7164542769769
 21
991.28863454928182
 31
0.0
  0
LINE
  5
47B7
  8
OUTLINE
 10
3864.3530004050272
 20
991.28863454928182
 30
0.0
 11
3839.7164542769769
 21
991.28863454928182
 31
0.0
  0
LINE
  5
47B8
  8
OUTLINE
 10
3866.6413371870681
 20
1019.2886345492821
 30
0.0
 11
3839.7164542769769
 21
1019.2886345492821
 31
0.0
  0
LINE
  5
47BC
  8
OUTLINE
 10
2743.358952265794
 20
1652.3296063359419
 30
0.0
 11
2743.3589522657971
 21
1660.3296063359439
 31
0.0
  0
LINE
  5
47BE
  8
OUTLINE
 10
3413.958952265798
 20
1660.3296063359451
 30
0.0
 11
3413.958952265798
 21
1652.3296063359419
 31
0.0
  0
CIRCLE
  5
49FB
  8
OUTLINE
 10
3080.106151148243
 20
1002.829606335943
 30
0.0
 40
14.300000000000001
  0
LINE
  5
4A10
  8
OUTLINE
 10
5725.54133718707
 20
3402.6664189019089
 30
0.0
 11
5733.54133718707
 21
3402.6664189019089
 31
0.0
  0
LINE
  5
4A11
  8
OUTLINE
 10
5733.54133718707
 20
3414.6664189019089
 30
0.0
 11
5725.54133718707
 21
3414.6664189019089
 31
0.0
  0
ARC
  5
4A12
  8
OUTLINE
 10
5725.54133718707
 20
3408.6664189019111
 30
0.0
 40
6.0
 50
90.0
 51
270.0
  0
ARC
  5
4A13
  8
OUTLINE
 10
5733.54133718707
 20
3408.6664189019111
 30
0.0
 40
6.0
 50
270.0
 51
90.0
  0
LINE
  5
4A16
  8
OUTLINE
 10
3914.0313371870652
 20
3539.5664189018839
 30
0.0
 11
5694.1813371870594
 21
3539.5664189018839
 31
0.0
  0
LINE
  5
4A18
  8
OUTLINE
 10
3929.0313371870652
 20
3539.5664189018839
 30
0.0
 11
3929.0313371870652
 21
3424.3664189019091
 31
0.0
  0
LINE
  5
4A19
  8
OUTLINE
 10
5679.1813371870603
 20
3539.5664189018839
 30
0.0
 11
5679.1813371870603
 21
3424.36641890191
 31
0.0
  0
LINE
  5
4A43
  8
OUTLINE
 10
2772.1589522657978
 20
1533.218873230735
 30
0.0
 11
2629.7589522657991
 21
1533.2188732307341
 31
0.0
  0
LINE
  5
4A49
  8
OUTLINE
 10
2772.1589522657978
 20
1065.818873230734
 30
0.0
 11
2629.7589522657991
 21
1065.818873230734
 31
0.0
  0
LINE
  5
4A4D
  8
OUTLINE
 10
2629.7589522657991
 20
1548.2188732307341
 30
0.0
 11
2629.7589522657991
 21
1050.818873230734
 31
0.0
  0
LINE
  5
4A5A
  8
10
 62
    52
 10
2629.7589522657991
 20
1568.2188732307341
 30
0.0
 11
2629.7589522657991
 21
1909.667759901535
 31
0.0
  0
LINE
  5
4A5B
  8
10
 62
    52
 10
3505.7589522658
 20
1533.929606335942
 30
0.0
 11
3505.7589522658
 21
1909.667759901535
 31
0.0
  0
LINE
  5
4A69
  8
OUTLINE
 10
7369.7376145657609
 20
1533.2188732307341
 30
0.0
 11
7513.3376145657603
 21
1533.2188732307341
 31
0.0
  0
LINE
  5
4A6D
  8
OUTLINE
 10
7369.7376145657609
 20
1063.2188732307341
 30
0.0
 11
7513.3376145657594
 21
1063.2188732307341
 31
0.0
  0
LINE
  5
4A73
  8
OUTLINE
 10
7513.3376145657594
 20
1548.2188732307341
 30
0.0
 11
7513.3376145657594
 21
1048.2188732307341
 31
0.0
  0
LINE
  5
4A99
  8
10
 62
    52
 10
3895.74590765015
 20
1642.625947705704
 30
0.0
 11
3895.74590765015
 21
1959.2133496094591
 31
0.0
  0
LINE
  5
4A9A
  8
10
 62
    52
 10
5656.1413371870713
 20
1490.8865395699429
 30
0.0
 11
5656.1413371870713
 21
1959.2133496094591
 31
0.0
  0
LINE
  5
4AA1
  8
10
 62
    52
 10
5656.1413371870713
 20
1510.886539569944
 30
0.0
 11
5656.1413371870713
 21
1959.2133496094591
 31
0.0
  0
LINE
  5
4ABE
  8
OUTLINE
 10
3839.9601162491558
 20
1031.3259477057029
 30
0.0
 11
6110.6610240318869
 21
1031.325947705704
 31
0.0
  0
CIRCLE
  5
4B00
  8
OUTLINE
 10
3895.74590765015
 20
1622.625947705704
 30
0.0
 40
4.75
  0
CIRCLE
  5
4B01
  8
OUTLINE
 10
3895.74590765015
 20
1592.625947705704
 30
0.0
 40
4.75
  0
LINE
  5
4B0E
  8
OUTLINE
 10
5476.3216947102346
 20
1216.5259477056859
 30
0.0
 11
3986.1827433854178
 21
1216.5259477056859
 31
0.0
  0
LINE
  5
4B11
  8
OUTLINE
 10
3986.1827433854178
 20
1516.5259477056859
 30
0.0
 11
5476.3216947102346
 21
1516.5259477056841
 31
0.0
  0
LINE
  5
4B14
  8
OUTLINE
 10
3986.1827433854178
 20
1216.5259477056859
 30
0.0
 11
3986.1827433854178
 21
1516.5259477056859
 31
0.0
  0
LINE
  5
4B24
  8
OUTLINE
 10
5476.3216947102346
 20
1516.5259477056841
 30
0.0
 11
5476.3216947102346
 21
1216.5259477056859
 31
0.0
  0
LINE
  5
4B34
  8
OUTLINE
 10
2772.1589522657978
 20
1030.0296063359431
 30
0.0
 11
2772.1589522657978
 21
988.52960633594375
 31
0.0
  0
LINE
  5
4B35
  8
OUTLINE
 10
2772.1589522657978
 20
1030.0296063359431
 30
0.0
 11
2750.008270842025
 21
1030.0296063359431
 31
0.0
  0
LINE
  5
4B36
  8
OUTLINE
 10
2750.008270842025
 20
1021.032423980512
 30
0.0
 11
2750.008270842025
 21
1030.0296063359431
 31
0.0
  0
LINE
  5
4B38
  8
OUTLINE
 10
3386.3589522657981
 20
1030.0296063359431
 30
0.0
 11
3408.5096336895722
 21
1030.0296063359431
 31
0.0
  0
LINE
  5
4B39
  8
OUTLINE
 10
3408.5096336895708
 20
1021.032423980512
 30
0.0
 11
3408.5096336895722
 21
1030.0296063359431
 31
0.0
  0
LINE
  5
5147
  8
OUTLINE
 10
5702.5191240978293
 20
1458.572598934599
 30
0.0
 11
6076.5191240968579
 21
1458.572598934599
 31
0.0
  0
LINE
  5
5148
  8
OUTLINE
 10
6076.5191240968579
 20
1458.572598934599
 30
0.0
 11
6076.5191240968579
 21
1078.5768784045999
 31
0.0
  0
LINE
  5
5149
  8
OUTLINE
 10
6076.5191240968579
 20
1078.5768784045999
 30
0.0
 11
5703.0476966069473
 21
1078.5747386696
 31
0.0
  0
LINE
  5
514A
  8
OUTLINE
 10
5703.0476966069473
 20
1078.5747386696
 30
0.0
 11
5702.5191240978293
 21
1458.572598934599
 31
0.0
  0
LINE
  5
514C
  8
OUTLINE
 10
3866.6413371870658
 20
3393.1664189018861
 30
0.0
 11
3866.6413371870672
 21
2779.5664189018839
 31
0.0
  0
LINE
  5
534F
  8
OUTLINE
 10
3920.74590765015
 20
1562.625947705704
 30
0.0
 11
3870.74590765015
 21
1562.625947705704
 31
0.0
  0
LINE
  5
5350
  8
OUTLINE
 10
3918.24590765015
 20
1565.125947705704
 30
0.0
 11
3873.24590765015
 21
1565.125947705704
 31
0.0
  0
LINE
  5
5351
  8
OUTLINE
 10
3877.24590765015
 20
1555.625947705704
 30
0.0
 11
3914.24590765015
 21
1555.625947705704
 31
0.0
  0
LINE
  5
5352
  8
OUTLINE
 10
3911.24590765015
 20
1562.625947705704
 30
0.0
 11
3880.24590765015
 21
1562.625947705704
 31
0.0
  0
LINE
  5
5353
  8
OUTLINE
 10
3920.74590765015
 20
1632.625947705704
 30
0.0
 11
3870.74590765015
 21
1632.625947705704
 31
0.0
  0
LINE
  5
5354
  8
OUTLINE
 10
3918.24590765015
 20
1632.625947705704
 30
0.0
 11
3918.24590765015
 21
1565.125947705704
 31
0.0
  0
LINE
  5
5355
  8
OUTLINE
 10
3920.74590765015
 20
1632.625947705704
 30
0.0
 11
3920.74590765015
 21
1562.625947705704
 31
0.0
  0
ARC
  5
5356
  8
OUTLINE
 10
3911.24590765015
 20
1559.6259477057031
 30
0.0
 40
3.0
 50
0.0
 51
90.0
  0
LINE
  5
5357
  8
OUTLINE
 10
3914.24590765015
 20
1559.6259477057031
 30
0.0
 11
3914.24590765015
 21
1555.625947705704
 31
0.0
  0
LINE
  5
5358
  8
OUTLINE
 10
3873.24590765015
 20
1565.125947705704
 30
0.0
 11
3873.24590765015
 21
1632.625947705704
 31
0.0
  0
LINE
  5
5359
  8
OUTLINE
 10
3870.74590765015
 20
1562.625947705704
 30
0.0
 11
3870.74590765015
 21
1632.625947705704
 31
0.0
  0
LINE
  5
535A
  8
OUTLINE
 10
3877.24590765015
 20
1559.6259477057031
 30
0.0
 11
3877.24590765015
 21
1555.625947705704
 31
0.0
  0
ARC
  5
535B
  8
OUTLINE
 10
3880.24590765015
 20
1559.6259477057031
 30
0.0
 40
3.0
 50
90.0
 51
180.0
  0
LINE
  5
535C
  8
OUTLINE
 10
3895.74590765015
 20
1562.625947705704
 30
0.0
 11
3895.74590765015
 21
1555.625947705704
 31
0.0
  0
CIRCLE
  5
535D
  8
OUTLINE
 10
3895.74590765015
 20
1622.625947705704
 30
0.0
 40
4.75
  0
CIRCLE
  5
535E
  8
OUTLINE
 10
3895.74590765015
 20
1592.625947705704
 30
0.0
 40
4.75
  0
LINE
  5
535F
  8
OUTLINE
 10
5680.7451486356358
 20
1410.8865395699429
 30
0.0
 11
5630.7451486356358
 21
1410.8865395699429
 31
0.0
  0
LINE
  5
5360
  8
OUTLINE
 10
5678.2451486356349
 20
1413.3865395699429
 30
0.0
 11
5633.2451486356358
 21
1413.3865395699429
 31
0.0
  0
LINE
  5
5361
  8
OUTLINE
 10
5637.2451486356358
 20
1403.8865395699429
 30
0.0
 11
5674.2451486356358
 21
1403.8865395699429
 31
0.0
  0
LINE
  5
5362
  8
OUTLINE
 10
5671.2451486356358
 20
1410.8865395699429
 30
0.0
 11
5640.2451486356358
 21
1410.8865395699429
 31
0.0
  0
LINE
  5
5363
  8
OUTLINE
 10
5680.7451486356358
 20
1480.8865395699429
 30
0.0
 11
5630.7451486356358
 21
1480.8865395699429
 31
0.0
  0
LINE
  5
5364
  8
OUTLINE
 10
5678.2451486356349
 20
1480.8865395699429
 30
0.0
 11
5678.2451486356349
 21
1413.3865395699429
 31
0.0
  0
LINE
  5
5365
  8
OUTLINE
 10
5680.7451486356358
 20
1480.8865395699429
 30
0.0
 11
5680.7451486356358
 21
1410.8865395699429
 31
0.0
  0
ARC
  5
5366
  8
OUTLINE
 10
5671.2451486356358
 20
1407.8865395699429
 30
0.0
 40
3.0
 50
0.0
 51
90.0
  0
LINE
  5
5367
  8
OUTLINE
 10
5674.2451486356358
 20
1407.8865395699429
 30
0.0
 11
5674.2451486356358
 21
1403.8865395699429
 31
0.0
  0
LINE
  5
5368
  8
OUTLINE
 10
5633.2451486356358
 20
1413.3865395699429
 30
0.0
 11
5633.2451486356358
 21
1480.8865395699429
 31
0.0
  0
LINE
  5
5369
  8
OUTLINE
 10
5630.7451486356358
 20
1410.8865395699429
 30
0.0
 11
5630.7451486356358
 21
1480.8865395699429
 31
0.0
  0
LINE
  5
536A
  8
OUTLINE
 10
5637.2451486356358
 20
1407.8865395699429
 30
0.0
 11
5637.2451486356358
 21
1403.8865395699429
 31
0.0
  0
ARC
  5
536B
  8
OUTLINE
 10
5640.2451486356358
 20
1407.8865395699429
 30
0.0
 40
3.0
 50
90.0
 51
180.0
  0
LINE
  5
536C
  8
OUTLINE
 10
5655.7451486356349
 20
1410.8865395699429
 30
0.0
 11
5655.7451486356349
 21
1403.8865395699429
 31
0.0
  0
CIRCLE
  5
536D
  8
OUTLINE
 10
5655.7451486356349
 20
1470.8865395699429
 30
0.0
 40
4.75
  0
CIRCLE
  5
536E
  8
OUTLINE
 10
5655.7451486356349
 20
1440.8865395699429
 30
0.0
 40
4.75
  0
LINE
  5
536F
  8
OUTLINE
 10
6067.741337187068
 20
1562.6259477057031
 30
0.0
 11
6017.7413371870662
 21
1562.6259477057031
 31
0.0
  0
LINE
  5
5370
  8
OUTLINE
 10
6065.2413371870671
 20
1565.1259477057031
 30
0.0
 11
6020.241337187068
 21
1565.1259477057031
 31
0.0
  0
LINE
  5
5371
  8
OUTLINE
 10
6024.2413371870662
 20
1555.6259477057031
 30
0.0
 11
6061.2413371870662
 21
1555.6259477057031
 31
0.0
  0
LINE
  5
5372
  8
OUTLINE
 10
6058.2413371870662
 20
1562.6259477057031
 30
0.0
 11
6027.2413371870662
 21
1562.6259477057031
 31
0.0
  0
LINE
  5
5373
  8
OUTLINE
 10
6067.741337187068
 20
1632.6259477057031
 30
0.0
 11
6017.7413371870662
 21
1632.6259477057031
 31
0.0
  0
LINE
  5
5374
  8
OUTLINE
 10
6065.2413371870671
 20
1632.6259477057031
 30
0.0
 11
6065.2413371870671
 21
1565.1259477057031
 31
0.0
  0
LINE
  5
5375
  8
OUTLINE
 10
6067.741337187068
 20
1632.6259477057031
 30
0.0
 11
6067.741337187068
 21
1562.6259477057031
 31
0.0
  0
ARC
  5
5376
  8
OUTLINE
 10
6058.2413371870662
 20
1559.6259477057031
 30
0.0
 40
3.0
 50
0.0
 51
90.0
  0
LINE
  5
5377
  8
OUTLINE
 10
6061.2413371870662
 20
1559.6259477057031
 30
0.0
 11
6061.2413371870662
 21
1555.6259477057031
 31
0.0
  0
LINE
  5
5378
  8
OUTLINE
 10
6020.241337187068
 20
1565.1259477057031
 30
0.0
 11
6020.241337187068
 21
1632.6259477057031
 31
0.0
  0
LINE
  5
5379
  8
OUTLINE
 10
6017.7413371870662
 20
1562.6259477057031
 30
0.0
 11
6017.7413371870662
 21
1632.6259477057031
 31
0.0
  0
LINE
  5
537A
  8
OUTLINE
 10
6024.2413371870662
 20
1559.6259477057031
 30
0.0
 11
6024.2413371870662
 21
1555.6259477057031
 31
0.0
  0
ARC
  5
537B
  8
OUTLINE
 10
6027.2413371870662
 20
1559.6259477057031
 30
0.0
 40
3.0
 50
90.0
 51
180.0
  0
LINE
  5
537C
  8
OUTLINE
 10
6042.7413371870671
 20
1562.6259477057031
 30
0.0
 11
6042.7413371870671
 21
1555.6259477057031
 31
0.0
  0
CIRCLE
  5
537D
  8
OUTLINE
 10
6042.7413371870671
 20
1622.6259477057031
 30
0.0
 40
4.75
  0
CIRCLE
  5
537E
  8
OUTLINE
 10
6042.7413371870671
 20
1592.6259477057031
 30
0.0
 40
4.75
  0
LINE
  5
5384
  8
OUTLINE
 10
6734.4864042676254
 20
1033.8079520366171
 30
0.0
 11
7395.8832850176777
 21
1033.8079520366171
 31
0.0
  0
LINE
  5
5587
  8
OUTLINE
 10
3866.6413371870681
 20
1666.8893199998149
 30
0.0
 11
3866.6413371870681
 21
1031.3259477057029
 31
0.0
  0
LINE
  5
558A
  8
OUTLINE
 10
3397.958952265798
 20
1566.663082986722
 30
0.0
 11
3452.958952265798
 21
1566.663082986722
 31
0.0
  0
LINE
  5
558B
  8
OUTLINE
 10
3397.958952265798
 20
1558.663082986722
 30
0.0
 11
3452.958952265798
 21
1558.663082986722
 31
0.0
  0
ARC
  5
558C
  8
OUTLINE
 10
3417.458952265798
 20
1555.663082986722
 30
0.0
 40
3.0
 50
90.0
 51
180.0
  0
LINE
  5
558D
  8
OUTLINE
 10
3432.958952265798
 20
1558.663082986722
 30
0.0
 11
3432.958952265798
 21
1551.663082986722
 31
0.0
  0
ARC
  5
558E
  8
OUTLINE
 10
3448.458952265798
 20
1555.663082986722
 30
0.0
 40
3.0
 50
0.0
 51
90.0
  0
LINE
  5
558F
  8
OUTLINE
 10
3452.958952265798
 20
1566.663082986722
 30
0.0
 11
3452.958952265798
 21
1558.663082986722
 31
0.0
  0
LINE
  5
5590
  8
OUTLINE
 10
3448.458952265798
 20
1558.663082986722
 30
0.0
 11
3417.458952265798
 21
1558.663082986722
 31
0.0
  0
LINE
  5
5591
  8
OUTLINE
 10
3414.458952265798
 20
1555.663082986722
 30
0.0
 11
3414.458952265798
 21
1551.663082986722
 31
0.0
  0
LINE
  5
5592
  8
OUTLINE
 10
3451.458952265798
 20
1555.663082986722
 30
0.0
 11
3451.458952265798
 21
1551.663082986722
 31
0.0
  0
LINE
  5
5593
  8
OUTLINE
 10
3414.458952265798
 20
1551.663082986722
 30
0.0
 11
3451.458952265798
 21
1551.663082986722
 31
0.0
  0
LINE
  5
5594
  8
OUTLINE
 10
3395.958952265798
 20
1628.6630829867211
 30
0.0
 11
3395.958952265798
 21
1568.663082986722
 31
0.0
  0
LINE
  5
5595
  8
OUTLINE
 10
3387.958952265798
 20
1628.6630829867211
 30
0.0
 11
3387.958952265798
 21
1568.663082986722
 31
0.0
  0
LINE
  5
5596
  8
OUTLINE
 10
3387.958952265798
 20
1628.6630829867211
 30
0.0
 11
3395.958952265798
 21
1628.6630829867211
 31
0.0
  0
ARC
  5
5597
  8
OUTLINE
 10
3397.958952265798
 20
1568.663082986722
 30
0.0
 40
10.0
 50
180.0
 51
270.0
  0
ARC
  5
5598
  8
OUTLINE
 10
3397.958952265798
 20
1568.663082986722
 30
0.0
 40
2.0
 50
180.0
 51
270.0
  0
LINE
  5
5599
  8
OUTLINE
 10
2760.458952265798
 20
1566.663082986722
 30
0.0
 11
2705.458952265798
 21
1566.663082986722
 31
0.0
  0
LINE
  5
559A
  8
OUTLINE
 10
2760.458952265798
 20
1558.663082986722
 30
0.0
 11
2705.458952265798
 21
1558.663082986722
 31
0.0
  0
ARC
  5
559B
  8
OUTLINE
 10
2740.958952265798
 20
1555.663082986722
 30
0.0
 40
3.0
 50
0.0
 51
90.0
  0
LINE
  5
559C
  8
OUTLINE
 10
2725.458952265798
 20
1558.663082986722
 30
0.0
 11
2725.458952265798
 21
1551.663082986722
 31
0.0
  0
ARC
  5
559D
  8
OUTLINE
 10
2709.958952265798
 20
1555.663082986722
 30
0.0
 40
3.0
 50
90.0
 51
180.0
  0
LINE
  5
559E
  8
OUTLINE
 10
2705.458952265798
 20
1566.663082986722
 30
0.0
 11
2705.458952265798
 21
1558.663082986722
 31
0.0
  0
LINE
  5
559F
  8
OUTLINE
 10
2709.958952265798
 20
1558.663082986722
 30
0.0
 11
2740.958952265798
 21
1558.663082986722
 31
0.0
  0
LINE
  5
55A0
  8
OUTLINE
 10
2743.958952265798
 20
1555.663082986722
 30
0.0
 11
2743.958952265798
 21
1551.663082986722
 31
0.0
  0
LINE
  5
55A1
  8
OUTLINE
 10
2706.9589522657989
 20
1555.663082986722
 30
0.0
 11
2706.9589522657989
 21
1551.663082986722
 31
0.0
  0
LINE
  5
55A2
  8
OUTLINE
 10
2743.958952265798
 20
1551.663082986722
 30
0.0
 11
2706.9589522657989
 21
1551.663082986722
 31
0.0
  0
LINE
  5
55A3
  8
OUTLINE
 10
2762.458952265798
 20
1628.6630829867211
 30
0.0
 11
2762.458952265798
 21
1568.663082986722
 31
0.0
  0
LINE
  5
55A4
  8
OUTLINE
 10
2770.458952265798
 20
1628.6630829867211
 30
0.0
 11
2770.458952265798
 21
1568.663082986722
 31
0.0
  0
LINE
  5
55A5
  8
OUTLINE
 10
2770.458952265798
 20
1628.6630829867211
 30
0.0
 11
2762.458952265798
 21
1628.6630829867211
 31
0.0
  0
ARC
  5
55A6
  8
OUTLINE
 10
2760.458952265798
 20
1568.663082986722
 30
0.0
 40
10.0
 50
270.0
 51
0.0
  0
ARC
  5
55A7
  8
OUTLINE
 10
2760.458952265798
 20
1568.663082986722
 30
0.0
 40
2.0
 50
270.0
 51
0.0
  0
LINE
  5
55A8
  8
OUTLINE
 10
6745.1376145657568
 20
1570.6259477057031
 30
0.0
 11
6690.1376145657578
 21
1570.6259477057031
 31
0.0
  0
LINE
  5
55A9
  8
OUTLINE
 10
6745.1376145657568
 20
1562.6259477057031
 30
0.0
 11
6690.1376145657578
 21
1562.6259477057031
 31
0.0
  0
ARC
  5
55AA
  8
OUTLINE
 10
6725.6376145657587
 20
1559.6259477057031
 30
0.0
 40
3.0
 50
0.0
 51
90.0
  0
LINE
  5
55AB
  8
OUTLINE
 10
6710.1376145657578
 20
1562.6259477057031
 30
0.0
 11
6710.1376145657578
 21
1555.6259477057031
 31
0.0
  0
ARC
  5
55AC
  8
OUTLINE
 10
6694.6376145657578
 20
1559.6259477057031
 30
0.0
 40
3.0
 50
90.0
 51
180.0
  0
LINE
  5
55AD
  8
OUTLINE
 10
6690.1376145657578
 20
1570.6259477057031
 30
0.0
 11
6690.1376145657578
 21
1562.6259477057031
 31
0.0
  0
LINE
  5
55AE
  8
OUTLINE
 10
6694.6376145657578
 20
1562.6259477057031
 30
0.0
 11
6725.6376145657587
 21
1562.6259477057031
 31
0.0
  0
LINE
  5
55AF
  8
OUTLINE
 10
6728.6376145657596
 20
1559.6259477057031
 30
0.0
 11
6728.6376145657596
 21
1555.6259477057031
 31
0.0
  0
LINE
  5
55B0
  8
OUTLINE
 10
6691.6376145657578
 20
1559.6259477057031
 30
0.0
 11
6691.6376145657578
 21
1555.6259477057031
 31
0.0
  0
LINE
  5
55B1
  8
OUTLINE
 10
6728.6376145657596
 20
1555.6259477057031
 30
0.0
 11
6691.6376145657578
 21
1555.6259477057031
 31
0.0
  0
LINE
  5
55B2
  8
OUTLINE
 10
6747.1376145657568
 20
1632.6259477057031
 30
0.0
 11
6747.1376145657568
 21
1572.6259477057031
 31
0.0
  0
LINE
  5
55B3
  8
OUTLINE
 10
6755.1376145657578
 20
1632.6259477057031
 30
0.0
 11
6755.1376145657578
 21
1572.6259477057031
 31
0.0
  0
LINE
  5
55B4
  8
OUTLINE
 10
6755.1376145657578
 20
1632.6259477057031
 30
0.0
 11
6747.1376145657568
 21
1632.6259477057031
 31
0.0
  0
ARC
  5
55B5
  8
OUTLINE
 10
6745.1376145657568
 20
1572.6259477057031
 30
0.0
 40
10.0
 50
270.0
 51
0.0
  0
ARC
  5
55B6
  8
OUTLINE
 10
6745.1376145657568
 20
1572.6259477057031
 30
0.0
 40
2.0
 50
270.0
 51
0.0
  0
LINE
  5
55B7
  8
OUTLINE
 10
7382.1376145657578
 20
1570.6259477057031
 30
0.0
 11
7437.1376145657578
 21
1570.6259477057031
 31
0.0
  0
LINE
  5
55B8
  8
OUTLINE
 10
7382.1376145657578
 20
1562.6259477057031
 30
0.0
 11
7437.1376145657578
 21
1562.6259477057031
 31
0.0
  0
ARC
  5
55B9
  8
OUTLINE
 10
7401.6376145657568
 20
1559.6259477057031
 30
0.0
 40
3.0
 50
90.0
 51
180.0
  0
LINE
  5
55BA
  8
OUTLINE
 10
7417.1376145657568
 20
1562.6259477057031
 30
0.0
 11
7417.1376145657568
 21
1555.6259477057031
 31
0.0
  0
ARC
  5
55BB
  8
OUTLINE
 10
7432.6376145657568
 20
1559.6259477057031
 30
0.0
 40
3.0
 50
0.0
 51
90.0
  0
LINE
  5
55BC
  8
OUTLINE
 10
7437.1376145657578
 20
1570.6259477057031
 30
0.0
 11
7437.1376145657578
 21
1562.6259477057031
 31
0.0
  0
LINE
  5
55BD
  8
OUTLINE
 10
7432.6376145657568
 20
1562.6259477057031
 30
0.0
 11
7401.6376145657568
 21
1562.6259477057031
 31
0.0
  0
LINE
  5
55BE
  8
OUTLINE
 10
7398.6376145657568
 20
1559.6259477057031
 30
0.0
 11
7398.6376145657568
 21
1555.6259477057031
 31
0.0
  0
LINE
  5
55BF
  8
OUTLINE
 10
7435.6376145657578
 20
1559.6259477057031
 30
0.0
 11
7435.6376145657578
 21
1555.6259477057031
 31
0.0
  0
LINE
  5
55C0
  8
OUTLINE
 10
7398.6376145657568
 20
1555.6259477057031
 30
0.0
 11
7435.6376145657578
 21
1555.6259477057031
 31
0.0
  0
LINE
  5
55C1
  8
OUTLINE
 10
7380.1376145657578
 20
1632.6259477057031
 30
0.0
 11
7380.1376145657578
 21
1572.6259477057031
 31
0.0
  0
LINE
  5
55C2
  8
OUTLINE
 10
7372.1376145657568
 20
1632.6259477057031
 30
0.0
 11
7372.1376145657568
 21
1572.6259477057031
 31
0.0
  0
LINE
  5
55C3
  8
OUTLINE
 10
7372.1376145657568
 20
1632.6259477057031
 30
0.0
 11
7380.1376145657578
 21
1632.6259477057031
 31
0.0
  0
ARC
  5
55C4
  8
OUTLINE
 10
7382.1376145657578
 20
1572.6259477057031
 30
0.0
 40
10.0
 50
180.0
 51
270.0
  0
ARC
  5
55C5
  8
OUTLINE
 10
7382.1376145657578
 20
1572.6259477057031
 30
0.0
 40
2.0
 50
180.0
 51
270.0
  0
LINE
  5
59F9
  8
DIM
 10
7461.971918693629
 20
1286.2986453422691
 30
0.0
 11
7491.7381868828379
 21
1286.2986453422691
 31
0.0
  0
LINE
  5
59FA
  8
DIM
 10
7461.971918693629
 20
1261.793818567498
 30
0.0
 11
7461.971918693629
 21
1286.2986453422691
 31
0.0
  0
LINE
  5
59FB
  8
DIM
 10
7406.6867311054993
 20
1297.6962391909981
 30
0.0
 11
7461.971918693629
 21
1261.793818567498
 31
0.0
  0
LINE
  5
59FC
  8
DIM
 10
7491.7381868828379
 20
1309.09383303973
 30
0.0
 11
7491.7381868828379
 21
1286.2986453422691
 31
0.0
  0
LINE
  5
59FD
  8
DIM
 10
7461.971918693629
 20
1309.09383303973
 30
0.0
 11
7491.7381868828379
 21
1309.09383303973
 31
0.0
  0
LINE
  5
59FE
  8
DIM
 10
7461.971918693629
 20
1333.5986598145
 30
0.0
 11
7461.971918693629
 21
1309.09383303973
 31
0.0
  0
LINE
  5
59FF
  8
DIM
 10
7406.6867311054993
 20
1297.6962391909981
 30
0.0
 11
7461.971918693629
 21
1333.5986598145
 31
0.0
  0
LINE
  5
5A00
  8
DIM
 10
5164.8386756493228
 20
3330.930152192399
 30
0.0
 11
5164.8386756493228
 21
3360.6964203816001
 31
0.0
  0
LINE
  5
5A01
  8
DIM
 10
5189.3435024240971
 20
3330.930152192399
 30
0.0
 11
5164.8386756493228
 21
3330.930152192399
 31
0.0
  0
LINE
  5
5A02
  8
DIM
 10
5153.4410818005954
 20
3273.09496460426
 30
0.0
 11
5189.3435024240971
 21
3330.930152192399
 31
0.0
  0
LINE
  5
5A03
  8
DIM
 10
5142.0434879518643
 20
3360.6964203816001
 30
0.0
 11
5164.8386756493228
 21
3360.6964203816001
 31
0.0
  0
LINE
  5
5A04
  8
DIM
 10
5142.0434879518643
 20
3330.930152192399
 30
0.0
 11
5142.0434879518643
 21
3360.6964203816001
 31
0.0
  0
LINE
  5
5A05
  8
DIM
 10
5117.5386611770909
 20
3330.930152192399
 30
0.0
 11
5142.0434879518643
 21
3330.930152192399
 31
0.0
  0
LINE
  5
5A06
  8
DIM
 10
5153.4410818005954
 20
3273.09496460426
 30
0.0
 11
5117.5386611770909
 21
3330.930152192399
 31
0.0
  0
LINE
  5
5A07
  8
DIM
 10
4316.4798392648208
 20
3330.930152192399
 30
0.0
 11
4316.4798392648208
 21
3360.6964203816001
 31
0.0
  0
LINE
  5
5A08
  8
DIM
 10
4340.9846660395906
 20
3330.930152192399
 30
0.0
 11
4316.4798392648208
 21
3330.930152192399
 31
0.0
  0
LINE
  5
5A09
  8
DIM
 10
4305.0822454160898
 20
3273.09496460426
 30
0.0
 11
4340.9846660395906
 21
3330.930152192399
 31
0.0
  0
LINE
  5
5A0A
  8
DIM
 10
4293.6846515673578
 20
3360.6964203816001
 30
0.0
 11
4316.4798392648208
 21
3360.6964203816001
 31
0.0
  0
LINE
  5
5A0B
  8
DIM
 10
4293.6846515673578
 20
3330.930152192399
 30
0.0
 11
4293.6846515673578
 21
3360.6964203816001
 31
0.0
  0
LINE
  5
5A0C
  8
DIM
 10
4269.1798247925872
 20
3330.930152192399
 30
0.0
 11
4293.6846515673578
 21
3330.930152192399
 31
0.0
  0
LINE
  5
5A0D
  8
DIM
 10
4305.0822454160898
 20
3273.09496460426
 30
0.0
 11
4269.1798247925872
 21
3330.930152192399
 31
0.0
  0
LINE
  5
5A0E
  8
DIM
 10
5164.8386756493228
 20
2868.2195465509822
 30
0.0
 11
5164.8386756493228
 21
2897.985814740186
 31
0.0
  0
LINE
  5
5A0F
  8
DIM
 10
5189.3435024240971
 20
2868.2195465509822
 30
0.0
 11
5164.8386756493228
 21
2868.2195465509822
 31
0.0
  0
LINE
  5
5A10
  8
DIM
 10
5153.4410818005954
 20
2812.934358962842
 30
0.0
 11
5189.3435024240971
 21
2868.2195465509822
 31
0.0
  0
LINE
  5
5A11
  8
DIM
 10
5142.0434879518643
 20
2897.985814740186
 30
0.0
 11
5164.8386756493228
 21
2897.985814740186
 31
0.0
  0
LINE
  5
5A12
  8
DIM
 10
5142.0434879518643
 20
2868.2195465509822
 30
0.0
 11
5142.0434879518643
 21
2897.985814740186
 31
0.0
  0
LINE
  5
5A13
  8
DIM
 10
5117.5386611770909
 20
2868.2195465509822
 30
0.0
 11
5142.0434879518643
 21
2868.2195465509822
 31
0.0
  0
LINE
  5
5A14
  8
DIM
 10
5153.4410818005954
 20
2812.934358962842
 30
0.0
 11
5117.5386611770909
 21
2868.2195465509822
 31
0.0
  0
LINE
  5
5A15
  8
DIM
 10
4316.4798392648208
 20
2868.2195465509822
 30
0.0
 11
4316.4798392648208
 21
2897.985814740186
 31
0.0
  0
LINE
  5
5A16
  8
DIM
 10
4340.9846660395906
 20
2868.2195465509822
 30
0.0
 11
4316.4798392648208
 21
2868.2195465509822
 31
0.0
  0
LINE
  5
5A17
  8
DIM
 10
4305.0822454160898
 20
2812.934358962842
 30
0.0
 11
4340.9846660395906
 21
2868.2195465509822
 31
0.0
  0
LINE
  5
5A18
  8
DIM
 10
4293.6846515673578
 20
2897.985814740186
 30
0.0
 11
4316.4798392648208
 21
2897.985814740186
 31
0.0
  0
LINE
  5
5A19
  8
DIM
 10
4293.6846515673578
 20
2868.2195465509822
 30
0.0
 11
4293.6846515673578
 21
2897.985814740186
 31
0.0
  0
LINE
  5
5A1A
  8
DIM
 10
4269.1798247925872
 20
2868.2195465509822
 30
0.0
 11
4293.6846515673578
 21
2868.2195465509822
 31
0.0
  0
LINE
  5
5A1B
  8
DIM
 10
4305.0822454160898
 20
2812.934358962842
 30
0.0
 11
4269.1798247925872
 21
2868.2195465509822
 31
0.0
  0
LINE
  5
5A1C
  8
DIM
 10
6722.5359161509596
 20
1358.961752987072
 30
0.0
 11
6752.3021843401702
 21
1358.961752987072
 31
0.0
  0
LINE
  5
5A1D
  8
DIM
 10
6722.5359161509596
 20
1334.4569262123009
 30
0.0
 11
6722.5359161509596
 21
1358.961752987072
 31
0.0
  0
LINE
  5
5A1E
  8
DIM
 10
6667.250728562828
 20
1370.359346835801
 30
0.0
 11
6722.5359161509596
 21
1334.4569262123009
 31
0.0
  0
LINE
  5
5A1F
  8
DIM
 10
6752.3021843401702
 20
1381.756940684533
 30
0.0
 11
6752.3021843401702
 21
1358.961752987072
 31
0.0
  0
LINE
  5
5A20
  8
DIM
 10
6722.5359161509596
 20
1381.756940684533
 30
0.0
 11
6752.3021843401702
 21
1381.756940684533
 31
0.0
  0
LINE
  5
5A21
  8
DIM
 10
6722.5359161509596
 20
1406.2617674593021
 30
0.0
 11
6722.5359161509596
 21
1381.756940684533
 31
0.0
  0
LINE
  5
5A22
  8
DIM
 10
6667.250728562828
 20
1370.359346835801
 30
0.0
 11
6722.5359161509596
 21
1406.2617674593021
 31
0.0
  0
LINE
  5
5A23
  8
DIM
 10
2692.2309935771568
 20
1286.2986453422691
 30
0.0
 11
2662.4647253879471
 21
1286.2986453422691
 31
0.0
  0
LINE
  5
5A24
  8
DIM
 10
2692.2309935771568
 20
1261.793818567498
 30
0.0
 11
2692.2309935771568
 21
1286.2986453422691
 31
0.0
  0
LINE
  5
5A25
  8
DIM
 10
2747.5161811652902
 20
1297.6962391909981
 30
0.0
 11
2692.2309935771568
 21
1261.793818567498
 31
0.0
  0
LINE
  5
5A26
  8
DIM
 10
2662.4647253879471
 20
1309.09383303973
 30
0.0
 11
2662.4647253879471
 21
1286.2986453422691
 31
0.0
  0
LINE
  5
5A27
  8
DIM
 10
2692.2309935771568
 20
1309.09383303973
 30
0.0
 11
2662.4647253879471
 21
1309.09383303973
 31
0.0
  0
LINE
  5
5A28
  8
DIM
 10
2692.2309935771568
 20
1333.5986598145
 30
0.0
 11
2692.2309935771568
 21
1309.09383303973
 31
0.0
  0
LINE
  5
5A29
  8
DIM
 10
2747.5161811652902
 20
1297.6962391909981
 30
0.0
 11
2692.2309935771568
 21
1333.5986598145
 31
0.0
  0
LINE
  5
5A2A
  8
DIM
 10
3431.6669961198259
 20
1358.961752987072
 30
0.0
 11
3401.9007279306161
 21
1358.961752987072
 31
0.0
  0
LINE
  5
5A2B
  8
DIM
 10
3431.6669961198259
 20
1334.4569262123009
 30
0.0
 11
3431.6669961198259
 21
1358.961752987072
 31
0.0
  0
LINE
  5
5A2C
  8
DIM
 10
3486.9521837079578
 20
1370.359346835801
 30
0.0
 11
3431.6669961198259
 21
1334.4569262123009
 31
0.0
  0
LINE
  5
5A2D
  8
DIM
 10
3401.9007279306161
 20
1381.756940684533
 30
0.0
 11
3401.9007279306161
 21
1358.961752987072
 31
0.0
  0
LINE
  5
5A2E
  8
DIM
 10
3431.6669961198259
 20
1381.756940684533
 30
0.0
 11
3401.9007279306161
 21
1381.756940684533
 31
0.0
  0
LINE
  5
5A2F
  8
DIM
 10
3431.6669961198259
 20
1406.2617674593021
 30
0.0
 11
3431.6669961198259
 21
1381.756940684533
 31
0.0
  0
LINE
  5
5A30
  8
DIM
 10
3486.9521837079578
 20
1370.359346835801
 30
0.0
 11
3431.6669961198259
 21
1406.2617674593021
 31
0.0
  0
LINE
  5
5C2B
  8
OUTLINE
 10
6637.7376145657572
 20
1219.8893199997931
 30
0.0
 11
6664.3376145657576
 21
1219.8893199997931
 31
0.0
  0
LINE
  5
5C7C
  8
OUTLINE
 10
3866.6413371870681
 20
991.31530415842849
 30
0.0
 11
6097.4413371870678
 21
1013.987754681905
 31
0.0
  0
LINE
  5
5C7D
  8
OUTLINE
 10
6110.6610240318869
 20
1022.528956790077
 30
0.0
 11
6110.6610240318869
 21
1031.325947705704
 31
0.0
  0
LINE
  5
5C83
  8
OUTLINE
 10
3864.3530004050272
 20
991.28863454928182
 30
0.0
 11
3866.641337187069
 21
991.31530415842849
 31
0.0
  0
LINE
  5
5C84
  8
OUTLINE
 10
3866.641337187069
 20
1021.988062934221
 30
0.0
 11
3866.641337187069
 21
991.31530415842849
 31
0.0
  0
LINE
  5
5E7E
  8
OUTLINE
 10
6097.4413371870669
 20
1031.325947705704
 30
0.0
 11
6097.4413371870678
 21
1666.8893199998149
 31
0.0
  0
LINE
  5
5E7F
  8
OUTLINE
 10
6118.017990546844
 20
2779.5664189018839
 30
0.0
 11
6118.017990546844
 21
3394.3664189018841
 31
0.0
  0
LINE
  5
607C
  8
OUTLINE
 10
3386.3589522657981
 20
1080.4398795608149
 30
0.0
 11
3478.7589522657981
 21
1080.4398795608149
 31
0.0
  0
LINE
  5
607D
  8
OUTLINE
 10
3478.7589522657981
 20
1080.4398795608149
 30
0.0
 11
3478.7589522657981
 21
1213.929606335942
 31
0.0
  0
LINE
  5
65BD
  8
OUTLINE
 62
    52
 10
2629.7589522657991
 20
1588.2188732307341
 30
0.0
 11
2629.7589522657991
 21
2065.2282158140479
 31
0.0
  0
LINE
  5
65BE
  8
OUTLINE
 62
    52
 10
3505.7589522658
 20
1553.9296063359409
 30
0.0
 11
3505.7589522658
 21
2065.2282158140479
 31
0.0
  0
LINE
  5
65BF
  8
OUTLINE
 62
    52
 10
2689.7589522657991
 20
2025.2282158140481
 30
0.0
 11
2827.7589522657991
 21
2025.2282158140481
 31
0.0
  0
LINE
  5
65C0
  8
OUTLINE
 62
    52
 10
3445.7589522658
 20
2025.2282158140481
 30
0.0
 11
3307.7589522657991
 21
2025.2282158140481
 31
0.0
  0
SOLID
  5
65C1
  8
OUTLINE
 62
    52
 10
2689.7589522657991
 20
2035.2282158140481
 30
0.0
 11
2689.7589522657991
 21
2015.2282158140481
 31
0.0
 12
2629.7589522657991
 22
2025.2282158140481
 32
0.0
 13
2629.7589522657991
 23
2025.2282158140481
 33
0.0
  0
SOLID
  5
65C2
  8
OUTLINE
 62
    52
 10
3445.7589522658
 20
2035.2282158140481
 30
0.0
 11
3445.7589522658
 21
2015.2282158140481
 31
0.0
 12
3505.7589522658
 22
2025.2282158140481
 32
0.0
 13
3505.7589522658
 23
2025.2282158140481
 33
0.0
  0
INSERT
  5
65C3
  8
OUTLINE
  2
*U77
 10
0.0
 20
0.0
 30
0.0
  0
LINE
  5
65C4
  8
OUTLINE
 62
    52
 10
2725.708952265798
 20
1579.6868858530579
 30
0.0
 11
2725.708952265798
 21
1913.2637006513939
 31
0.0
  0
LINE
  5
65C5
  8
OUTLINE
 62
    52
 10
3432.708952265798
 20
1579.6868858530579
 30
0.0
 11
3432.708952265798
 21
1913.2637006513939
 31
0.0
  0
LINE
  5
65C6
  8
OUTLINE
 62
    52
 10
2785.708952265798
 20
1873.2637006513939
 30
0.0
 11
2834.208952265798
 21
1873.2637006513939
 31
0.0
  0
LINE
  5
65C7
  8
OUTLINE
 62
    52
 10
3372.708952265798
 20
1873.2637006513939
 30
0.0
 11
3324.208952265798
 21
1873.2637006513939
 31
0.0
  0
SOLID
  5
65C8
  8
OUTLINE
 62
    52
 10
2785.708952265798
 20
1883.2637006513939
 30
0.0
 11
2785.708952265798
 21
1863.2637006513939
 31
0.0
 12
2725.708952265798
 22
1873.2637006513939
 32
0.0
 13
2725.708952265798
 23
1873.2637006513939
 33
0.0
  0
SOLID
  5
65C9
  8
OUTLINE
 62
    52
 10
3372.708952265798
 20
1883.2637006513939
 30
0.0
 11
3372.708952265798
 21
1863.2637006513939
 31
0.0
 12
3432.708952265798
 22
1873.2637006513939
 32
0.0
 13
3432.708952265798
 23
1873.2637006513939
 33
0.0
  0
INSERT
  5
65CA
  8
OUTLINE
  2
*U78
 10
0.0
 20
0.0
 30
0.0
  0
INSERT
  5
65CB
  8
OUTLINE
  2
*U79
 10
0.0
 20
0.0
 30
0.0
  0
LINE
  5
65CC
  8
OUTLINE
 62
    52
 10
3796.241337187043
 20
1666.8893199998149
 30
0.0
 11
3611.5157053041189
 21
1666.8893199998149
 31
0.0
  0
LINE
  5
65CD
  8
OUTLINE
 62
    52
 10
3799.7164542769769
 20
991.28863454928182
 30
0.0
 11
3611.5157053041189
 21
991.28863454928182
 31
0.0
  0
LINE
  5
65CE
  8
OUTLINE
 62
    52
 10
3651.5157053041189
 20
1606.8893199998149
 30
0.0
 11
3651.5157053041189
 21
1449.0889772745479
 31
0.0
  0
LINE
  5
65CF
  8
OUTLINE
 62
    52
 10
3651.5157053041189
 20
1051.2886345492821
 30
0.0
 11
3651.5157053041189
 21
1209.0889772745491
 31
0.0
  0
SOLID
  5
65D0
  8
OUTLINE
 62
    52
 10
3641.5157053041189
 20
1606.8893199998149
 30
0.0
 11
3661.5157053041189
 21
1606.8893199998149
 31
0.0
 12
3651.5157053041189
 22
1666.8893199998149
 32
0.0
 13
3651.5157053041189
 23
1666.8893199998149
 33
0.0
  0
SOLID
  5
65D1
  8
OUTLINE
 62
    52
 10
3641.5157053041189
 20
1051.2886345492821
 30
0.0
 11
3661.5157053041189
 21
1051.2886345492821
 31
0.0
 12
3651.5157053041189
 22
991.28863454928182
 32
0.0
 13
3651.5157053041189
 23
991.28863454928182
 33
0.0
  0
INSERT
  5
65D2
  8
OUTLINE
  2
*U80
 10
0.0
 20
0.0
 30
0.0
  0
LINE
  5
65D3
  8
OUTLINE
 62
    52
 10
3796.241337187043
 20
1666.8893199998149
 30
0.0
 11
3737.7553963929349
 21
1666.8893199998149
 31
0.0
  0
LINE
  5
65D4
  8
OUTLINE
 62
    52
 10
3855.74590765015
 20
1565.125947705704
 30
0.0
 11
3737.7553963929349
 21
1565.125947705704
 31
0.0
  0
LINE
  5
65D5
  8
OUTLINE
 62
    52
 10
3777.7553963929349
 20
1726.8893199998149
 30
0.0
 11
3777.7553963929349
 21
1786.8893199998149
 31
0.0
  0
LINE
  5
65D6
  8
OUTLINE
 62
    52
 10
3777.7553963929349
 20
1505.1259477057031
 30
0.0
 11
3777.7553963929349
 21
1445.125947705704
 31
0.0
  0
SOLID
  5
65D7
  8
OUTLINE
 62
    52
 10
3767.7553963929349
 20
1726.8893199998149
 30
0.0
 11
3787.7553963929349
 21
1726.8893199998149
 31
0.0
 12
3777.7553963929349
 22
1666.8893199998149
 32
0.0
 13
3777.7553963929349
 23
1666.8893199998149
 33
0.0
  0
SOLID
  5
65D8
  8
OUTLINE
 62
    52
 10
3767.7553963929349
 20
1505.1259477057031
 30
0.0
 11
3787.7553963929349
 21
1505.1259477057031
 31
0.0
 12
3777.7553963929349
 22
1565.125947705704
 32
0.0
 13
3777.7553963929349
 23
1565.125947705704
 33
0.0
  0
INSERT
  5
65D9
  8
OUTLINE
  2
*U81
 10
0.0
 20
0.0
 30
0.0
  0
LINE
  5
65DA
  8
OUTLINE
 62
    52
 10
6153.0413371870918
 20
1666.889319999814
 30
0.0
 11
6256.8629948252892
 21
1666.889319999814
 31
0.0
  0
LINE
  5
65DB
  8
OUTLINE
 62
    52
 10
6137.4413371870678
 20
1013.987754681905
 30
0.0
 11
6256.8629948252892
 21
1013.987754681905
 31
0.0
  0
LINE
  5
65DC
  8
OUTLINE
 62
    52
 10
6216.8629948252892
 20
1606.889319999814
 30
0.0
 11
6216.8629948252892
 21
1460.4385373408591
 31
0.0
  0
LINE
  5
65DD
  8
OUTLINE
 62
    52
 10
6216.8629948252892
 20
1073.987754681905
 30
0.0
 11
6216.8629948252892
 21
1220.4385373408591
 31
0.0
  0
SOLID
  5
65DE
  8
OUTLINE
 62
    52
 10
6206.8629948252892
 20
1606.889319999814
 30
0.0
 11
6226.8629948252892
 21
1606.889319999814
 31
0.0
 12
6216.8629948252892
 22
1666.889319999814
 32
0.0
 13
6216.8629948252892
 23
1666.889319999814
 33
0.0
  0
SOLID
  5
65DF
  8
OUTLINE
 62
    52
 10
6206.8629948252892
 20
1073.987754681905
 30
0.0
 11
6226.8629948252892
 21
1073.987754681905
 31
0.0
 12
6216.8629948252892
 22
1013.987754681905
 32
0.0
 13
6216.8629948252892
 23
1013.987754681905
 33
0.0
  0
INSERT
  5
65E0
  8
OUTLINE
  2
*U82
 10
0.0
 20
0.0
 30
0.0
  0
LINE
  5
65E1
  8
OUTLINE
 62
    52
 10
5655.7451486356349
 20
1520.8865395699429
 30
0.0
 11
5655.7451486356349
 21
1979.2133496094591
 31
0.0
  0
LINE
  5
65E2
  8
OUTLINE
 62
    52
 10
6042.7413371870671
 20
1672.6259477057031
 30
0.0
 11
6042.7413371870671
 21
1979.2133496094591
 31
0.0
  0
LINE
  5
65E3
  8
OUTLINE
 62
    52
 10
5715.7451486356358
 20
1939.2133496094591
 30
0.0
 11
5982.7413371870671
 21
1939.2133496094591
 31
0.0
  0
LINE
  5
65E4
  8
OUTLINE
 62
    52
 10
6042.7413371870671
 20
1939.2133496094591
 30
0.0
 11
6102.7413371870671
 21
1939.2133496094591
 31
0.0
  0
SOLID
  5
65E5
  8
OUTLINE
 62
    52
 10
5715.7451486356358
 20
1949.2133496094591
 30
0.0
 11
5715.7451486356358
 21
1929.2133496094591
 31
0.0
 12
5655.7451486356349
 22
1939.2133496094591
 32
0.0
 13
5655.7451486356349
 23
1939.2133496094591
 33
0.0
  0
SOLID
  5
65E6
  8
OUTLINE
 62
    52
 10
5982.7413371870671
 20
1949.2133496094591
 30
0.0
 11
5982.7413371870671
 21
1929.2133496094591
 31
0.0
 12
6042.7413371870671
 22
1939.2133496094591
 32
0.0
 13
6042.7413371870671
 23
1939.2133496094591
 33
0.0
  0
INSERT
  5
65E7
  8
OUTLINE
  2
*U83
 10
0.0
 20
0.0
 30
0.0
  0
INSERT
  5
65E8
  8
OUTLINE
  2
*U84
 10
0.0
 20
0.0
 30
0.0
  0
LINE
  5
65E9
  8
OUTLINE
 62
    52
 10
3866.6413371870681
 20
2711.36641890186
 30
0.0
 11
3866.6413371870681
 21
2439.9182264132401
 31
0.0
  0
LINE
  5
65EA
  8
OUTLINE
 62
    52
 10
3986.6427433854178
 20
2622.566418901883
 30
0.0
 11
3986.6427433854178
 21
2439.9182264132401
 31
0.0
  0
LINE
  5
65EB
  8
OUTLINE
 62
    52
 10
3806.6413371870681
 20
2479.9182264132401
 30
0.0
 11
3746.6413371870672
 21
2479.9182264132401
 31
0.0
  0
LINE
  5
65EC
  8
OUTLINE
 62
    52
 10
4046.6427433854178
 20
2479.9182264132401
 30
0.0
 11
4106.6427433854178
 21
2479.9182264132401
 31
0.0
  0
SOLID
  5
65ED
  8
OUTLINE
 62
    52
 10
3806.6413371870681
 20
2489.9182264132401
 30
0.0
 11
3806.6413371870681
 21
2469.9182264132401
 31
0.0
 12
3866.6413371870681
 22
2479.9182264132401
 32
0.0
 13
3866.6413371870681
 23
2479.9182264132401
 33
0.0
  0
SOLID
  5
65EE
  8
OUTLINE
 62
    52
 10
4046.6427433854178
 20
2489.9182264132401
 30
0.0
 11
4046.6427433854178
 21
2469.9182264132401
 31
0.0
 12
3986.6427433854178
 22
2479.9182264132401
 32
0.0
 13
3986.6427433854178
 23
2479.9182264132401
 33
0.0
  0
INSERT
  5
65EF
  8
OUTLINE
  2
*U85
 10
0.0
 20
0.0
 30
0.0
  0
LINE
  5
65F0
  8
OUTLINE
 62
    52
 10
3986.6427433854178
 20
2622.566418901883
 30
0.0
 11
3986.6427433854178
 21
2439.9182264132401
 31
0.0
  0
LINE
  5
65F1
  8
OUTLINE
 62
    52
 10
5477.6416947102362
 20
2622.566418901883
 30
0.0
 11
5477.6416947102362
 21
2439.9182264132401
 31
0.0
  0
LINE
  5
65F2
  8
OUTLINE
 62
    52
 10
4046.6427433854178
 20
2479.9182264132401
 30
0.0
 11
4602.1422190478261
 21
2479.9182264132401
 31
0.0
  0
LINE
  5
65F3
  8
OUTLINE
 62
    52
 10
5417.6416947102352
 20
2479.9182264132401
 30
0.0
 11
4862.1422190478261
 21
2479.9182264132401
 31
0.0
  0
SOLID
  5
65F4
  8
OUTLINE
 62
    52
 10
4046.6427433854178
 20
2489.9182264132401
 30
0.0
 11
4046.6427433854178
 21
2469.9182264132401
 31
0.0
 12
3986.6427433854178
 22
2479.9182264132401
 32
0.0
 13
3986.6427433854178
 23
2479.9182264132401
 33
0.0
  0
SOLID
  5
65F5
  8
OUTLINE
 62
    52
 10
5417.6416947102352
 20
2489.9182264132401
 30
0.0
 11
5417.6416947102352
 21
2469.9182264132401
 31
0.0
 12
5477.6416947102362
 22
2479.9182264132401
 32
0.0
 13
5477.6416947102362
 23
2479.9182264132401
 33
0.0
  0
INSERT
  5
65F6
  8
OUTLINE
  2
*U86
 10
0.0
 20
0.0
 30
0.0
  0
LINE
  5
6644
  8
OUTLINE
 62
    52
 10
6124.2413371870653
 20
3424.36641890191
 30
0.0
 11
6327.497790052661
 21
3424.36641890191
 31
0.0
  0
LINE
  5
6645
  8
OUTLINE
 62
    52
 10
6126.7179905468456
 20
2751.36641890186
 30
0.0
 11
6327.497790052661
 21
2751.36641890186
 31
0.0
  0
LINE
  5
6646
  8
OUTLINE
 62
    52
 10
6287.497790052661
 20
3364.36641890191
 30
0.0
 11
6287.497790052661
 21
3202.866418901885
 31
0.0
  0
LINE
  5
6647
  8
OUTLINE
 62
    52
 10
6287.497790052661
 20
2811.36641890186
 30
0.0
 11
6287.497790052661
 21
2972.866418901885
 31
0.0
  0
SOLID
  5
6648
  8
OUTLINE
 62
    52
 10
6277.497790052661
 20
3364.36641890191
 30
0.0
 11
6297.497790052661
 21
3364.36641890191
 31
0.0
 12
6287.497790052661
 22
3424.36641890191
 32
0.0
 13
6287.497790052661
 23
3424.36641890191
 33
0.0
  0
SOLID
  5
6649
  8
OUTLINE
 62
    52
 10
6277.497790052661
 20
2811.36641890186
 30
0.0
 11
6297.497790052661
 21
2811.36641890186
 31
0.0
 12
6287.497790052661
 22
2751.36641890186
 32
0.0
 13
6287.497790052661
 23
2751.36641890186
 33
0.0
  0
INSERT
  5
664A
  8
OUTLINE
  2
*U87
 10
0.0
 20
0.0
 30
0.0
  0
LINE
  5
664B
  8
OUTLINE
 62
    52
 10
3895.74590765015
 20
1672.625947705704
 30
0.0
 11
3895.74590765015
 21
1979.2133496094591
 31
0.0
  0
LINE
  5
664C
  8
OUTLINE
 62
    52
 10
5655.7451486356349
 20
1510.8865395699429
 30
0.0
 11
5655.7451486356349
 21
1979.2133496094591
 31
0.0
  0
LINE
  5
664D
  8
OUTLINE
 62
    52
 10
3955.74590765015
 20
1939.2133496094591
 30
0.0
 11
5595.7451486356358
 21
1939.2133496094591
 31
0.0
  0
SOLID
  5
664F
  8
OUTLINE
 62
    52
 10
3955.74590765015
 20
1949.2133496094591
 30
0.0
 11
3955.74590765015
 21
1929.2133496094591
 31
0.0
 12
3895.74590765015
 22
1939.2133496094591
 32
0.0
 13
3895.74590765015
 23
1939.2133496094591
 33
0.0
  0
SOLID
  5
6650
  8
OUTLINE
 62
    52
 10
5595.7451486356358
 20
1949.2133496094591
 30
0.0
 11
5595.7451486356358
 21
1929.2133496094591
 31
0.0
 12
5655.7451486356349
 22
1939.2133496094591
 32
0.0
 13
5655.7451486356349
 23
1939.2133496094591
 33
0.0
  0
INSERT
  5
6651
  8
OUTLINE
  2
*U88
 10
0.0
 20
0.0
 30
0.0
  0
INSERT
  5
6652
  8
OUTLINE
  2
*U89
 10
0.0
 20
0.0
 30
0.0
  0
LINE
  5
6653
  8
OUTLINE
 62
    52
 10
5593.2451486356349
 20
1413.3865395699429
 30
0.0
 11
5506.3453579032866
 21
1413.3865395699429
 31
0.0
  0
LINE
  5
6655
  8
OUTLINE
 62
    52
 10
5546.3453579032866
 20
1353.3865395699429
 30
0.0
 11
5546.3453579032866
 21
1293.3865395699429
 31
0.0
  0
LINE
  5
6656
  8
OUTLINE
 62
    52
 10
5546.3453579032866
 20
1726.889319999814
 30
0.0
 11
5546.3453579032866
 21
1806.7044587490921
 31
0.0
  0
SOLID
  5
6657
  8
OUTLINE
 62
    52
 10
5536.3453579032857
 20
1353.3865395699429
 30
0.0
 11
5556.3453579032857
 21
1353.3865395699429
 31
0.0
 12
5546.3453579032866
 22
1413.3865395699429
 32
0.0
 13
5546.3453579032866
 23
1413.3865395699429
 33
0.0
  0
SOLID
  5
6658
  8
OUTLINE
 62
    52
 10
5536.3453579032857
 20
1726.889319999814
 30
0.0
 11
5556.3453579032857
 21
1726.889319999814
 31
0.0
 12
5546.3453579032866
 22
1666.8893199998149
 32
0.0
 13
5546.3453579032866
 23
1666.8893199998149
 33
0.0
  0
INSERT
  5
6659
  8
OUTLINE
  2
*U90
 10
0.0
 20
0.0
 30
0.0
  0
LINE
  5
665A
  8
OUTLINE
 62
    52
 10
3914.0313371870652
 20
3572.9613795722721
 30
0.0
 11
3914.0313371870652
 21
3785.7484526354451
 31
0.0
  0
LINE
  5
665B
  8
OUTLINE
 62
    52
 10
5694.1813371870594
 20
3566.3563194822182
 30
0.0
 11
5694.1813371870594
 21
3779.143402925612
 31
0.0
  0
LINE
  5
665C
  8
OUTLINE
 62
    52
 10
3974.0313371870639
 20
3739.1434029256129
 30
0.0
 11
4669.1063371870623
 21
3739.1434029256129
 31
0.0
  0
LINE
  5
665D
  8
OUTLINE
 62
    52
 10
5634.1813371870594
 20
3739.1434029256129
 30
0.0
 11
4939.1063371870623
 21
3739.1434029256129
 31
0.0
  0
SOLID
  5
665E
  8
OUTLINE
 62
    52
 10
3974.0313371870639
 20
3749.1434029256129
 30
0.0
 11
3974.0313371870639
 21
3729.143402925612
 31
0.0
 12
3914.0313371870652
 22
3739.1434029256129
 32
0.0
 13
3914.0313371870652
 23
3739.1434029256129
 33
0.0
  0
SOLID
  5
665F
  8
OUTLINE
 62
    52
 10
5634.1813371870594
 20
3749.1434029256129
 30
0.0
 11
5634.1813371870594
 21
3729.143402925612
 31
0.0
 12
5694.1813371870594
 22
3739.1434029256129
 32
0.0
 13
5694.1813371870594
 23
3739.1434029256129
 33
0.0
  0
INSERT
  5
6660
  8
OUTLINE
  2
*U91
 10
0.0
 20
0.0
 30
0.0
  0
LINE
  5
6661
  8
OUTLINE
 62
    52
 10
3896.5459076501488
 20
3487.771468611717
 30
0.0
 11
3896.5459076501488
 21
3922.7060726375571
 31
0.0
  0
LINE
  5
6662
  8
OUTLINE
 62
    52
 10
5729.5413371870691
 20
3524.2017564904691
 30
0.0
 11
5729.5413371870691
 21
3962.336360516334
 31
0.0
  0
LINE
  5
6663
  8
OUTLINE
 62
    52
 10
3956.5459076501488
 20
3922.336360516334
 30
0.0
 11
4383.0436224186078
 21
3922.336360516334
 31
0.0
  0
LINE
  5
6664
  8
OUTLINE
 62
    52
 10
5669.5413371870691
 20
3922.336360516334
 30
0.0
 11
5243.0436224186087
 21
3922.336360516334
 31
0.0
  0
SOLID
  5
6665
  8
OUTLINE
 62
    52
 10
3956.5459076501488
 20
3932.336360516334
 30
0.0
 11
3956.5459076501488
 21
3912.336360516334
 31
0.0
 12
3896.5459076501488
 22
3922.336360516334
 32
0.0
 13
3896.5459076501488
 23
3922.336360516334
 33
0.0
  0
SOLID
  5
6666
  8
OUTLINE
 62
    52
 10
5669.5413371870691
 20
3932.336360516334
 30
0.0
 11
5669.5413371870691
 21
3912.336360516334
 31
0.0
 12
5729.5413371870691
 22
3922.336360516334
 32
0.0
 13
5729.5413371870691
 23
3922.336360516334
 33
0.0
  0
INSERT
  5
6667
  8
OUTLINE
  2
*U92
 10
0.0
 20
0.0
 30
0.0
  0
LINE
  5
6668
  8
OUTLINE
 62
    52
 10
5729.5413371870691
 20
3524.2017564904691
 30
0.0
 11
5729.5413371870691
 21
3962.336360516334
 31
0.0
  0
LINE
  5
6669
  8
OUTLINE
 62
    52
 10
6044.5413371870691
 20
3524.2017564904691
 30
0.0
 11
6044.5413371870691
 21
3962.336360516334
 31
0.0
  0
LINE
  5
666A
  8
OUTLINE
 62
    52
 10
5789.5413371870691
 20
3922.336360516334
 30
0.0
 11
5984.5413371870691
 21
3922.336360516334
 31
0.0
  0
LINE
  5
666B
  8
OUTLINE
 62
    52
 10
6044.5413371870691
 20
3922.336360516334
 30
0.0
 11
6104.5413371870691
 21
3922.336360516334
 31
0.0
  0
SOLID
  5
666C
  8
OUTLINE
 62
    52
 10
5789.5413371870691
 20
3932.336360516334
 30
0.0
 11
5789.5413371870691
 21
3912.336360516334
 31
0.0
 12
5729.5413371870691
 22
3922.336360516334
 32
0.0
 13
5729.5413371870691
 23
3922.336360516334
 33
0.0
  0
SOLID
  5
666D
  8
OUTLINE
 62
    52
 10
5984.5413371870691
 20
3932.336360516334
 30
0.0
 11
5984.5413371870691
 21
3912.336360516334
 31
0.0
 12
6044.5413371870691
 22
3922.336360516334
 32
0.0
 13
6044.5413371870691
 23
3922.336360516334
 33
0.0
  0
INSERT
  5
666E
  8
OUTLINE
  2
*U93
 10
0.0
 20
0.0
 30
0.0
  0
LINE
  5
666F
  8
OUTLINE
 62
    52
 10
3838.0304166639662
 20
3480.601756490496
 30
0.0
 11
3838.0304166639662
 21
4164.0913564054981
 31
0.0
  0
LINE
  5
6670
  8
OUTLINE
 62
    52
 10
6118.0179905468431
 20
3480.601756490496
 30
0.0
 11
6118.0179905468431
 21
4164.0913564054981
 31
0.0
  0
LINE
  5
6671
  8
OUTLINE
 62
    52
 10
3898.0304166639662
 20
4124.091356405499
 30
0.0
 11
4713.0242036054042
 21
4124.091356405499
 31
0.0
  0
LINE
  5
6672
  8
OUTLINE
 62
    52
 10
6058.017990546844
 20
4124.091356405499
 30
0.0
 11
5243.0242036054042
 21
4124.091356405499
 31
0.0
  0
SOLID
  5
6673
  8
OUTLINE
 62
    52
 10
3898.0304166639662
 20
4134.091356405499
 30
0.0
 11
3898.0304166639662
 21
4114.091356405499
 31
0.0
 12
3838.0304166639662
 22
4124.091356405499
 32
0.0
 13
3838.0304166639662
 23
4124.091356405499
 33
0.0
  0
SOLID
  5
6674
  8
OUTLINE
 62
    52
 10
6058.017990546844
 20
4134.091356405499
 30
0.0
 11
6058.017990546844
 21
4114.091356405499
 31
0.0
 12
6118.0179905468431
 22
4124.091356405499
 32
0.0
 13
6118.0179905468431
 23
4124.091356405499
 33
0.0
  0
INSERT
  5
6675
  8
OUTLINE
  2
*U94
 10
0.0
 20
0.0
 30
0.0
  0
LINE
  5
6676
  8
OUTLINE
 62
    52
 10
3974.0313371870639
 20
3739.1434029256129
 30
0.0
 11
4034.0313371870639
 21
3739.1434029256129
 31
0.0
  0
LINE
  5
6677
  8
OUTLINE
 62
    52
 10
3778.0304166639662
 20
3739.1434029256129
 30
0.0
 11
3718.0304166639662
 21
3739.1434029256129
 31
0.0
  0
SOLID
  5
6678
  8
OUTLINE
 62
    52
 10
3974.0313371870639
 20
3749.1434029256129
 30
0.0
 11
3974.0313371870639
 21
3729.143402925612
 31
0.0
 12
3914.0313371870652
 22
3739.1434029256129
 32
0.0
 13
3914.0313371870652
 23
3739.1434029256129
 33
0.0
  0
SOLID
  5
6679
  8
OUTLINE
 62
    52
 10
3778.0304166639662
 20
3749.1434029256129
 30
0.0
 11
3778.0304166639662
 21
3729.143402925612
 31
0.0
 12
3838.0304166639662
 22
3739.1434029256129
 32
0.0
 13
3838.0304166639662
 23
3739.1434029256129
 33
0.0
  0
INSERT
  5
667A
  8
OUTLINE
  2
*U95
 10
0.0
 20
0.0
 30
0.0
  0
LINE
  5
667B
  8
OUTLINE
 62
    52
 10
7553.3376145657594
 20
1048.2188732307341
 30
0.0
 11
7703.7411690032204
 21
1048.2188732307329
 31
0.0
  0
LINE
  5
667C
  8
OUTLINE
 62
    52
 10
7553.3376145657594
 20
1548.2188732307341
 30
0.0
 11
7703.7411690032204
 21
1548.2188732307341
 31
0.0
  0
LINE
  5
667D
  8
OUTLINE
 62
    52
 10
7663.7411690032213
 20
1108.2188732307341
 30
0.0
 11
7663.7411690032213
 21
1188.2188732307341
 31
0.0
  0
LINE
  5
667E
  8
OUTLINE
 62
    52
 10
7663.7411690032213
 20
1488.2188732307341
 30
0.0
 11
7663.7411690032213
 21
1408.2188732307341
 31
0.0
  0
SOLID
  5
667F
  8
OUTLINE
 62
    52
 10
7653.7411690032204
 20
1108.2188732307341
 30
0.0
 11
7673.7411690032204
 21
1108.2188732307341
 31
0.0
 12
7663.7411690032213
 22
1048.2188732307341
 32
0.0
 13
7663.7411690032213
 23
1048.2188732307341
 33
0.0
  0
SOLID
  5
6680
  8
OUTLINE
 62
    52
 10
7653.7411690032204
 20
1488.2188732307341
 30
0.0
 11
7673.7411690032204
 21
1488.2188732307341
 31
0.0
 12
7663.7411690032213
 22
1548.2188732307341
 32
0.0
 13
7663.7411690032213
 23
1548.2188732307341
 33
0.0
  0
INSERT
  5
6681
  8
OUTLINE
  2
*U96
 10
0.0
 20
0.0
 30
0.0
  0
LINE
  5
6682
  8
OUTLINE
 62
    52
 10
7439.7676145657606
 20
1666.889319999814
 30
0.0
 11
7703.7411690032204
 21
1666.889319999814
 31
0.0
  0
LINE
  5
6683
  8
OUTLINE
 62
    52
 10
7663.7411690032213
 20
1726.889319999814
 30
0.0
 11
7663.7411690032213
 21
1786.889319999814
 31
0.0
  0
LINE
  5
6684
  8
OUTLINE
 62
    52
 10
7663.7411690032213
 20
1488.2188732307341
 30
0.0
 11
7663.7411690032213
 21
1428.2188732307341
 31
0.0
  0
SOLID
  5
6685
  8
OUTLINE
 62
    52
 10
7653.7411690032204
 20
1726.889319999814
 30
0.0
 11
7673.7411690032204
 21
1726.889319999814
 31
0.0
 12
7663.7411690032213
 22
1666.889319999814
 32
0.0
 13
7663.7411690032213
 23
1666.889319999814
 33
0.0
  0
SOLID
  5
6686
  8
OUTLINE
 62
    52
 10
7653.7411690032204
 20
1488.2188732307341
 30
0.0
 11
7673.7411690032204
 21
1488.2188732307341
 31
0.0
 12
7663.7411690032213
 22
1548.2188732307341
 32
0.0
 13
7663.7411690032213
 23
1548.2188732307341
 33
0.0
  0
INSERT
  5
6687
  8
OUTLINE
  2
*U97
 10
0.0
 20
0.0
 30
0.0
  0
LINE
  5
6688
  8
OUTLINE
 62
    52
 10
6726.7376145657599
 20
1706.889319999814
 30
0.0
 11
6726.7376145657599
 21
2037.0084289540059
 31
0.0
  0
LINE
  5
6689
  8
OUTLINE
 62
    52
 10
7399.7676145657597
 20
1706.889319999814
 30
0.0
 11
7399.7676145657597
 21
2037.0084289540059
 31
0.0
  0
LINE
  5
668A
  8
OUTLINE
 62
    52
 10
6786.7376145657618
 20
1997.0084289540059
 30
0.0
 11
6943.2526145657621
 21
1997.0084289540059
 31
0.0
  0
LINE
  5
668B
  8
OUTLINE
 62
    52
 10
7339.7676145657606
 20
1997.0084289540059
 30
0.0
 11
7183.2526145657612
 21
1997.0084289540059
 31
0.0
  0
SOLID
  5
668C
  8
OUTLINE
 62
    52
 10
6786.7376145657618
 20
2007.0084289540059
 30
0.0
 11
6786.7376145657618
 21
1987.0084289540059
 31
0.0
 12
6726.7376145657599
 22
1997.0084289540059
 32
0.0
 13
6726.7376145657599
 23
1997.0084289540059
 33
0.0
  0
SOLID
  5
668D
  8
OUTLINE
 62
    52
 10
7339.7676145657606
 20
2007.0084289540059
 30
0.0
 11
7339.7676145657606
 21
1987.0084289540059
 31
0.0
 12
7399.7676145657597
 22
1997.0084289540059
 32
0.0
 13
7399.7676145657597
 23
1997.0084289540059
 33
0.0
  0
INSERT
  5
668E
  8
OUTLINE
  2
*U98
 10
0.0
 20
0.0
 30
0.0
  0
LINE
  5
6694
  8
OUTLINE
 62
    52
 10
7063.237614565759
 20
1661.889319999814
 30
0.0
 11
7063.237614565759
 21
1842.73192659041
 31
0.0
  0
LINE
  5
6695
  8
OUTLINE
 62
    52
 10
6726.7376145657599
 20
1706.889319999814
 30
0.0
 11
6726.7376145657599
 21
1842.73192659041
 31
0.0
  0
LINE
  5
6696
  8
OUTLINE
 62
    52
 10
6786.7376145657618
 20
1802.73192659041
 30
0.0
 11
7003.237614565759
 21
1802.73192659041
 31
0.0
  0
SOLID
  5
6698
  8
OUTLINE
 62
    52
 10
6786.7376145657618
 20
1812.73192659041
 30
0.0
 11
6786.7376145657618
 21
1792.73192659041
 31
0.0
 12
6726.7376145657618
 22
1802.73192659041
 32
0.0
 13
6726.7376145657618
 23
1802.73192659041
 33
0.0
  0
SOLID
  5
6699
  8
OUTLINE
 62
    52
 10
7003.237614565759
 20
1812.73192659041
 30
0.0
 11
7003.237614565759
 21
1792.73192659041
 31
0.0
 12
7063.237614565759
 22
1802.73192659041
 32
0.0
 13
7063.237614565759
 23
1802.73192659041
 33
0.0
  0
INSERT
  5
669A
  8
OUTLINE
  2
*U99
 10
0.0
 20
0.0
 30
0.0
  0
LINE
  5
669B
  8
OUTLINE
 62
    52
 10
6686.7376145657609
 20
1666.889319999814
 30
0.0
 11
6320.4883347296854
 21
1666.889319999814
 31
0.0
  0
LINE
  5
669C
  8
OUTLINE
 62
    52
 10
6694.4864042676254
 20
1033.8079520366171
 30
0.0
 11
6320.4883347296854
 21
1033.8079520366171
 31
0.0
  0
LINE
  5
669D
  8
OUTLINE
 62
    52
 10
6360.4883347296854
 20
1606.889319999814
 30
0.0
 11
6360.4883347296854
 21
1470.3486360182151
 31
0.0
  0
LINE
  5
669E
  8
OUTLINE
 62
    52
 10
6360.4883347296854
 20
1093.8079520366171
 30
0.0
 11
6360.4883347296854
 21
1230.3486360182151
 31
0.0
  0
SOLID
  5
669F
  8
OUTLINE
 62
    52
 10
6350.4883347296864
 20
1606.889319999814
 30
0.0
 11
6370.4883347296854
 21
1606.889319999814
 31
0.0
 12
6360.4883347296854
 22
1666.889319999814
 32
0.0
 13
6360.4883347296854
 23
1666.889319999814
 33
0.0
  0
SOLID
  5
66A0
  8
OUTLINE
 62
    52
 10
6350.4883347296864
 20
1093.8079520366171
 30
0.0
 11
6370.4883347296854
 21
1093.8079520366171
 31
0.0
 12
6360.4883347296854
 22
1033.8079520366171
 32
0.0
 13
6360.4883347296854
 23
1033.8079520366171
 33
0.0
  0
INSERT
  5
66A1
  8
OUTLINE
  2
*U100
 10
0.0
 20
0.0
 30
0.0
  0
LINE
  5
66A2
  8
OUTLINE
 62
    52
 10
6597.7376145657572
 20
1519.8893199997931
 30
0.0
 11
6470.4675219910359
 21
1519.8893199997931
 31
0.0
  0
LINE
  5
66A3
  8
OUTLINE
 62
    52
 10
6597.7376145657572
 20
1219.8893199997931
 30
0.0
 11
6470.4675219910359
 21
1219.8893199997931
 31
0.0
  0
LINE
  5
66A4
  8
OUTLINE
 62
    52
 10
6510.467521991035
 20
1279.8893199997931
 30
0.0
 11
6510.467521991035
 21
1459.8893199997931
 31
0.0
  0
SOLID
  5
66A6
  8
OUTLINE
 62
    52
 10
6500.467521991035
 20
1279.8893199997931
 30
0.0
 11
6520.4675219910359
 21
1279.8893199997931
 31
0.0
 12
6510.467521991035
 22
1219.8893199997931
 32
0.0
 13
6510.467521991035
 23
1219.8893199997931
 33
0.0
  0
SOLID
  5
66A7
  8
OUTLINE
 62
    52
 10
6500.467521991035
 20
1459.8893199997931
 30
0.0
 11
6520.4675219910359
 21
1459.8893199997931
 31
0.0
 12
6510.467521991035
 22
1519.8893199997931
 32
0.0
 13
6510.467521991035
 23
1519.8893199997931
 33
0.0
  0
INSERT
  5
66A8
  8
OUTLINE
  2
*U101
 10
0.0
 20
0.0
 30
0.0
  0
LINE
  5
66A9
  8
OUTLINE
 62
    52
 10
6597.7376145657572
 20
1519.8893199997931
 30
0.0
 11
6470.4675219910359
 21
1519.8893199997931
 31
0.0
  0
LINE
  5
66AA
  8
OUTLINE
 62
    52
 10
6686.7376145657609
 20
1666.889319999814
 30
0.0
 11
6483.9693634604373
 21
1666.889319999814
 31
0.0
  0
LINE
  5
66AC
  8
OUTLINE
 62
    52
 10
6523.9693634604373
 20
1726.889319999814
 30
0.0
 11
6523.9693634604373
 21
1786.889319999814
 31
0.0
  0
SOLID
  5
66AE
  8
OUTLINE
 62
    52
 10
6513.9693634604373
 20
1726.889319999814
 30
0.0
 11
6533.9693634604373
 21
1726.889319999814
 31
0.0
 12
6523.9693634604373
 22
1666.889319999814
 32
0.0
 13
6523.9693634604373
 23
1666.889319999814
 33
0.0
  0
INSERT
  5
66AF
  8
OUTLINE
  2
*U102
 10
0.0
 20
0.0
 30
0.0
  0
LINE
  5
66B0
  8
OUTLINE
 62
    52
 10
7023.2376145657599
 20
1531.889319999814
 30
0.0
 11
6945.3616535725887
 21
1531.889319999814
 31
0.0
  0
LINE
  5
66B1
  8
OUTLINE
 62
    52
 10
7023.2376145657599
 20
1621.889319999814
 30
0.0
 11
6945.3616535725887
 21
1621.889319999814
 31
0.0
  0
LINE
  5
66B2
  8
OUTLINE
 62
    52
 10
6985.3616535725887
 20
1471.889319999814
 30
0.0
 11
6985.3616535725887
 21
1411.889319999814
 31
0.0
  0
LINE
  5
66B3
  8
OUTLINE
 62
    52
 10
6985.3616535725887
 20
1681.889319999814
 30
0.0
 11
6985.3616535725887
 21
1741.889319999814
 31
0.0
  0
SOLID
  5
66B4
  8
OUTLINE
 62
    52
 10
6975.3616535725878
 20
1471.889319999814
 30
0.0
 11
6995.3616535725878
 21
1471.889319999814
 31
0.0
 12
6985.3616535725887
 22
1531.889319999814
 32
0.0
 13
6985.3616535725887
 23
1531.889319999814
 33
0.0
  0
SOLID
  5
66B5
  8
OUTLINE
 62
    52
 10
6975.3616535725878
 20
1681.889319999814
 30
0.0
 11
6995.3616535725878
 21
1681.889319999814
 31
0.0
 12
6985.3616535725887
 22
1621.889319999814
 32
0.0
 13
6985.3616535725887
 23
1621.889319999814
 33
0.0
  0
INSERT
  5
66B6
  8
OUTLINE
  2
*U103
 10
0.0
 20
0.0
 30
0.0
  0
LINE
  5
6733
  8
OUTLINE
 62
    52
 10
7103.2376145657599
 20
1621.889319999814
 30
0.0
 11
7208.6009824506436
 21
1621.889319999814
 31
0.0
  0
LINE
  5
6734
  8
OUTLINE
 62
    52
 10
7103.2376145657599
 20
1666.889319999814
 30
0.0
 11
7208.6009824506436
 21
1666.889319999814
 31
0.0
  0
LINE
  5
6735
  8
OUTLINE
 62
    52
 10
7168.6009824506436
 20
1561.889319999814
 30
0.0
 11
7168.6009824506436
 21
1501.889319999814
 31
0.0
  0
LINE
  5
6736
  8
OUTLINE
 62
    52
 10
7168.6009824506436
 20
1726.889319999814
 30
0.0
 11
7168.6009824506436
 21
1786.889319999814
 31
0.0
  0
SOLID
  5
6737
  8
OUTLINE
 62
    52
 10
7158.6009824506427
 20
1561.889319999814
 30
0.0
 11
7178.6009824506427
 21
1561.889319999814
 31
0.0
 12
7168.6009824506436
 22
1621.889319999814
 32
0.0
 13
7168.6009824506436
 23
1621.889319999814
 33
0.0
  0
SOLID
  5
6738
  8
OUTLINE
 62
    52
 10
7158.6009824506427
 20
1726.889319999814
 30
0.0
 11
7178.6009824506427
 21
1726.889319999814
 31
0.0
 12
7168.6009824506436
 22
1666.889319999814
 32
0.0
 13
7168.6009824506436
 23
1666.889319999814
 33
0.0
  0
INSERT
  5
6739
  8
OUTLINE
  2
*U104
 10
0.0
 20
0.0
 30
0.0
  0
ENDSEC
  0
EOF
