  0
SECTION
  2
HEADER
  9
$ACADVER
  1
AC1009
  9
$INSBASE
 10
0.0
 20
0.0
 30
0.0
  9
$EXTMIN
 10
48.981895379862181
 20
-0.0700732775112556
 30
-0.0000000000000053
  9
$EXTMAX
 10
5236.8265319186248
 20
4184.005953441525
 30
0.0000000000000099
  9
$LIMMIN
 10
0.0
 20
0.0
  9
$LIMMAX
 10
3890.0
 20
2660.0
  9
$ORTHOMODE
 70
     1
  9
$REGENMODE
 70
     1
  9
$FILLMODE
 70
     1
  9
$QTEXTMODE
 70
     0
  9
$MIRRTEXT
 70
     0
  9
$DRAGMODE
 70
     2
  9
$LTSCALE
 40
300.0
  9
$OSMODE
 70
     0
  9
$ATTMODE
 70
     1
  9
$TEXTSIZE
 40
40.0
  9
$TRACEWID
 40
0.05
  9
$TEXTSTYLE
  7
TITLE3
  9
$CLAYER
  8
0
  9
$CELTYPE
  6
BYLAYER
  9
$CECOLOR
 62
   256
  9
$DIMSCALE
 40
1.0
  9
$DIMASZ
 40
0.12
  9
$DIMEXO
 40
0.05
  9
$DIMDLI
 40
0.5
  9
$DIMRND
 40
0.0
  9
$DIMDLE
 40
0.0
  9
$DIMEXE
 40
0.1
  9
$DIMTP
 40
0.1
  9
$DIMTM
 40
0.1
  9
$DIMTXT
 40
0.12
  9
$DIMCEN
 40
0.0
  9
$DIMTSZ
 40
0.0
  9
$DIMTOL
 70
     0
  9
$DIMLIM
 70
     0
  9
$DIMTIH
 70
     1
  9
$DIMTOH
 70
     1
  9
$DIMSE1
 70
     0
  9
$DIMSE2
 70
     0
  9
$DIMTAD
 70
     0
  9
$DIMZIN
 70
     7
  9
$DIMBLK
  1

  9
$DIMASO
 70
     0
  9
$DIMSHO
 70
     0
  9
$DIMPOST
  1

  9
$DIMAPOST
  1
mm
  9
$DIMALT
 70
     0
  9
$DIMALTD
 70
     2
  9
$DIMALTF
 40
25.399999999999999
  9
$DIMLFAC
 40
1.0
  9
$DIMTOFL
 70
     0
  9
$DIMTVP
 40
0.0
  9
$DIMTIX
 70
     0
  9
$DIMSOXD
 70
     0
  9
$DIMSAH
 70
     0
  9
$DIMBLK1
  1

  9
$DIMBLK2
  1

  9
$DIMSTYLE
  2
AM_ANSI
  9
$DIMCLRD
 70
   256
  9
$DIMCLRE
 70
   256
  9
$DIMCLRT
 70
     2
  9
$DIMTFAC
 40
0.71
  9
$DIMGAP
 40
0.06
  9
$LUNITS
 70
     2
  9
$LUPREC
 70
     2
  9
$SKETCHINC
 40
0.1
  9
$FILLETRAD
 40
0.0
  9
$AUNITS
 70
     0
  9
$AUPREC
 70
     2
  9
$MENU
  1
\acad12\support\cnc
  9
$ELEVATION
 40
0.0
  9
$PELEVATION
 40
0.0
  9
$THICKNESS
 40
0.0
  9
$LIMCHECK
 70
     0
  9
$BLIPMODE
 70
     0
  9
$CHAMFERA
 40
0.0
  9
$CHAMFERB
 40
0.0
  9
$SKPOLY
 70
     0
  9
$TDCREATE
 40
2451029.6595820598
  9
$TDUPDATE
 40
2455708.5945685068
  9
$TDINDWG
 40
0.8166393866
  9
$TDUSRTIMER
 40
0.8166371991
  9
$USRTIMER
 70
     1
  9
$ANGBASE
 50
0.0
  9
$ANGDIR
 70
     0
  9
$PDMODE
 70
     2
  9
$PDSIZE
 40
5.0
  9
$PLINEWID
 40
0.0
  9
$COORDS
 70
     1
  9
$SPLFRAME
 70
     0
  9
$SPLINETYPE
 70
     6
  9
$SPLINESEGS
 70
     8
  9
$ATTDIA
 70
     1
  9
$ATTREQ
 70
     1
  9
$HANDLING
 70
     1
  9
$HANDSEED
  5
6F7B
  9
$SURFTAB1
 70
     6
  9
$SURFTAB2
 70
     6
  9
$SURFTYPE
 70
     6
  9
$SURFU
 70
     6
  9
$SURFV
 70
     6
  9
$UCSNAME
  2

  9
$UCSORG
 10
0.0
 20
0.0
 30
0.0
  9
$UCSXDIR
 10
1.0
 20
0.0
 30
0.0
  9
$UCSYDIR
 10
0.0
 20
1.0
 30
0.0
  9
$PUCSNAME
  2

  9
$PUCSORG
 10
0.0
 20
0.0
 30
0.0
  9
$PUCSXDIR
 10
1.0
 20
0.0
 30
0.0
  9
$PUCSYDIR
 10
0.0
 20
1.0
 30
0.0
  9
$USERI1
 70
     0
  9
$USERI2
 70
     0
  9
$USERI3
 70
     0
  9
$USERI4
 70
     0
  9
$USERI5
 70
     0
  9
$USERR1
 40
0.0
  9
$USERR2
 40
0.0
  9
$USERR3
 40
0.0
  9
$USERR4
 40
0.0
  9
$USERR5
 40
0.0
  9
$WORLDVIEW
 70
     1
  9
$SHADEDGE
 70
     3
  9
$SHADEDIF
 70
    70
  9
$TILEMODE
 70
     1
  9
$MAXACTVP
 70
    16
  9
$PLIMCHECK
 70
     0
  9
$PEXTMIN
 10
1.0000000000000000E+020
 20
1.0000000000000000E+020
 30
1.0000000000000000E+020
  9
$PEXTMAX
 10
-1.0000000000000000E+020
 20
-1.0000000000000000E+020
 30
-1.0000000000000000E+020
  9
$PLIMMIN
 10
0.0
 20
0.0
  9
$PLIMMAX
 10
12.0
 20
9.0
  9
$UNITMODE
 70
     0
  9
$VISRETAIN
 70
     0
  9
$PLINEGEN
 70
     0
  9
$PSLTSCALE
 70
     0
  0
ENDSEC
  0
SECTION
  2
TABLES
  0
TABLE
  2
VPORT
 70
     1
  0
VPORT
  2
*ACTIVE
 70
     0
 10
0.0
 20
0.0
 11
1.0
 21
1.0
 12
0.0000215371262584
 22
471.355588270125
 13
0.0
 23
0.0
 14
25.0
 24
25.0
 15
100.0
 25
100.0
 16
0.0
 26
0.0
 36
1.0
 17
2642.904192112117
 27
1620.612351811882
 37
0.0
 40
4212.2200358673699
 41
1.60381593714927
 42
50.0
 43
0.0
 44
0.0
 50
0.0
 51
0.0
 71
     0
 72
   100
 73
     1
 74
     0
 75
     0
 76
     0
 77
     0
 78
     0
  0
ENDTAB
  0
TABLE
  2
LTYPE
 70
    20
  0
LTYPE
  2
CONTINUOUS
 70
     0
  3
Solid line
 72
    65
 73
     0
 40
0.0
  0
LTYPE
  2
HIDDEN
 70
     0
  3
Hidden __ __ __ __ __ __ __ __ __ __ __ __ __ _
 72
    65
 73
     2
 40
0.375
 49
0.25
 49
-0.125
  0
LTYPE
  2
PHANTOM2
 70
     0
  3
Phantom (.5x) ___ _ _ ___ _ _ ___ _ _ ___ _ _
 72
    65
 73
     6
 40
1.25
 49
0.625
 49
-0.125
 49
0.125
 49
-0.125
 49
0.125
 49
-0.125
  0
LTYPE
  2
CENTER
 70
     0
  3
Center ____ _ ____ _ ____ _ ____ _ ____ _ ____
 72
    65
 73
     4
 40
2.0
 49
1.25
 49
-0.25
 49
0.25
 49
-0.25
  0
LTYPE
  2
AMCONSTR
 70
     0
  3
_______________________
 72
    65
 73
     2
 40
9999.0
 49
9999.0
 49
0.0
  0
LTYPE
  2
CENTER2
 70
     0
  3
Center (.5x) ___ _ ___ _ ___ _ ___ _ ___ _ ___
 72
    65
 73
     4
 40
1.125
 49
0.75
 49
-0.125
 49
0.125
 49
-0.125
  0
LTYPE
  2
HIDDEN2
 70
     0
  3
Hidden (.5x) _ _ _ _ _ _ _ _ _ _ _ _ _ _ _ _ _
 72
    65
 73
     2
 40
0.1875
 49
0.125
 49
-0.0625
  0
LTYPE
  2
AMZIGZAG2
 70
     0
  3
/\/-/\/-/\/-/\/-/\/-/\/
 72
    65
 73
     2
 40
0.4401
 49
0.0001
 49
-0.4400000000000003
  0
LTYPE
  2
ACANSTGB
 70
     0
  3
__ . . __ . .
 72
    65
 73
     6
 40
0.35433070866
 49
0.15748031496
 49
-0.03937007874
 49
0.03937007874
 49
-0.03937007874
 49
0.03937007874
 49
-0.03937007874
  0
LTYPE
  2
ACANSTGL
 70
     0
  3
_ _ _ _ _
 72
    65
 73
     2
 40
0.11811023622
 49
0.07874015748
 49
-0.03937007874
  0
LTYPE
  2
ASULTYPE
 70
     0
  3
Solid line
 72
    65
 73
     2
 40
3.0
 49
2.5
 49
0.5
  0
LTYPE
  2
ASVLTYPE
 70
     0
  3
__ __ __ __ __ __ __ __ __ __ __ __ __ __ __ __ __ __ __ __ __
 72
    65
 73
     2
 40
0.75
 49
0.5
 49
-0.25
  0
LTYPE
  2
AM_ISO02W050
 70
     0
  3
__ __ __ __ __ __ __ __ __ __ __ __ __ __ __
 72
    65
 73
     2
 40
7.5
 49
6.0
 49
-1.5
  0
LTYPE
  2
AM_ISO08W050
 70
     0
  3
____ . ____ . ____ . ____ . ____ . ____ . ____
 72
    65
 73
     4
 40
18.0
 49
12.0
 49
-1.5
 49
3.0
 49
-1.5
  0
LTYPE
  2
AM_ISO09W050
 70
     0
  3
_____ . . _____ . . _____ . . ____ .. ____
 72
    65
 73
     6
 40
22.5
 49
12.0
 49
-1.5
 49
3.0
 49
-1.5
 49
3.0
 49
-1.5
  0
LTYPE
  2
AM_ISO08W050X2
 70
     0
  3
__ . __ . __ . __ . __ . __
 72
    65
 73
     4
 40
9.0
 49
6.0
 49
-0.75
 49
1.5
 49
-0.75
  0
LTYPE
  2
AM_ISO02W050X2
 70
     0
  3
 _ _ _ _ _ _ _ _ _ _ _ _
 72
    65
 73
     2
 40
3.75
 49
3.0
 49
-0.75
  0
LTYPE
  2
AMZIGZAG
 70
     0
  3
/\/-/\/-/\/-/\/-/\/-/\/
 72
    65
 73
     2
 40
11.0001
 49
0.0001
 49
-11.0
  0
ENDTAB
  0
TABLE
  2
LAYER
 70
     2
  0
LAYER
  2
0
 70
     0
 62
     7
  6
CONTINUOUS
  0
LAYER
  2
DIM
 70
     0
 62
     7
  6
CONTINUOUS
  0
ENDTAB
  0
TABLE
  2
STYLE
 70
     8
  0
STYLE
  2
STANDARD
 70
     0
 40
0.0
 41
1.0
 50
0.0
 71
     0
 42
0.2
  3
txt
  4

  0
STYLE
  2
ANNOTATIVE
 70
     0
 40
0.0
 41
1.0
 50
0.0
 71
     0
 42
0.2
  3
txt
  4

  0
STYLE
  2
TITLE3
 70
     0
 40
40.0
 41
1.0
 50
0.0
 71
     0
 42
40.0
  3
SIMPLEX.shx
  4

  0
STYLE
  2
SIMPLEX
 70
     0
 40
40.0
 41
1.0
 50
0.0
 71
     0
 42
25.0
  3
SIMPLEX
  4

  0
STYLE
  2
TITLE5
 70
     0
 40
50.0
 41
1.0
 50
0.0
 71
     0
 42
50.0
  3
SIMPLEX.shx
  4

  0
STYLE
  2
ACANSTS
 70
     0
 40
1.0
 41
1.0
 50
0.0
 71
     0
 42
40.0
  3
romans.shx
  4

  0
STYLE
  2
ACANSGDT
 70
     0
 40
0.0
 41
1.0
 50
0.0
 71
     0
 42
40.0
  3
amgdt.shx
  4

  0
STYLE
  2

 70
     1
 40
0.0
 41
1.0
 50
0.0
 71
     0
 42
40.0
  3
genltshp.shx
  4

  0
ENDTAB
  0
TABLE
  2
VIEW
 70
     0
  0
ENDTAB
  0
TABLE
  2
UCS
 70
     0
  0
ENDTAB
  0
TABLE
  2
APPID
 70
    25
  0
APPID
  2
ACAD
 70
     0
  0
APPID
  2
ACADANNOTATIVE
 70
     0
  0
APPID
  2
ACAD_MLEADERVER
 70
     0
  0
APPID
  2
DCO15
 70
     0
  0
APPID
  2
GENIUS_GENDIM_13
 70
     0
  0
APPID
  2
GENIUS_GENDTOL_13
 70
     0
  0
APPID
  2
GENIUS_GE3DTOL_13
 70
     0
  0
APPID
  2
MCAD_NO_VIS
 70
     0
  0
APPID
  2
ACAD_TEMP_GRAPHIC
 70
     0
  0
APPID
  2
AD_DRAW
 70
     0
  0
APPID
  2
ACATTRIBSERVICES
 70
     0
  0
APPID
  2
ASURF_PCURVE_APPNAME
 70
     0
  0
APPID
  2
AMG_3D2D_5_0
 70
     0
  0
APPID
  2
DESIGNERASSEMBLIES
 70
     0
  0
APPID
  2
ACADM_DIM_EDIT
 70
     0
  0
APPID
  2
AMDT_DM_ADJ
 70
     0
  0
APPID
  2
ACAD_PSEXT
 70
     0
  0
APPID
  2
ACAD_EXEMPT_FROM_CAD_STANDARDS
 70
     0
  0
APPID
  2
AMG_3D2D_5_00
 70
     0
  0
APPID
  2
AMG_3D2D_5_01
 70
     0
  0
APPID
  2
AMG_3D2D_5_02
 70
     0
  0
APPID
  2
AMG_3D2D_5_03
 70
     0
  0
APPID
  2
AMG_3D2D_5_04
 70
     0
  0
APPID
  2
ACAD_DSTYLE_DIMBREAK
 70
     0
  0
APPID
  2
ACAD_DSTYLE_DIMJAG
 70
     0
  0
ENDTAB
  0
TABLE
  2
DIMSTYLE
 70
     9
  0
DIMSTYLE
  2
STANDARD
 70
     0
  3

  4

  5

  6

  7

 40
1.0
 41
0.18
 42
0.0625
 43
0.38
 44
0.18
 45
0.0
 46
0.0
 47
0.0
 48
0.0
140
0.18
141
0.09
142
0.0
143
25.399999999999999
144
1.0
145
0.0
146
1.0
147
0.09
 71
     0
 72
     0
 73
     1
 74
     1
 75
     0
 76
     0
 77
     0
 78
     0
170
     0
171
     2
172
     0
173
     0
174
     0
175
     0
176
     0
177
     0
178
     0
  0
DIMSTYLE
  2
ANNOTATIVE
 70
     0
  3

  4

  5

  6

  7

 40
1.0
 41
0.18
 42
0.0625
 43
0.38
 44
0.18
 45
0.0
 46
0.0
 47
0.0
 48
0.0
140
0.18
141
0.09
142
0.0
143
25.399999999999999
144
1.0
145
0.0
146
1.0
147
0.09
 71
     0
 72
     0
 73
     1
 74
     1
 75
     0
 76
     0
 77
     0
 78
     0
170
     0
171
     2
172
     0
173
     0
174
     0
175
     0
176
     0
177
     0
178
     0
  0
DIMSTYLE
  2
AM_ANSI
 70
     0
  3

  4
mm
  5

  6

  7

 40
1.0
 41
0.12
 42
0.05
 43
0.5
 44
0.1
 45
0.0
 46
0.0
 47
0.1
 48
0.1
140
0.12
141
0.0
142
0.0
143
25.399999999999999
144
1.0
145
0.0
146
0.71
147
0.06
 71
     0
 72
     0
 73
     1
 74
     1
 75
     0
 76
     0
 77
     0
 78
     7
170
     0
171
     2
172
     0
173
     0
174
     0
175
     0
176
   256
177
   256
178
     2
  0
DIMSTYLE
  2
AM_ANSI$3
 70
     0
  3

  4
mm
  5

  6

  7

 40
1.0
 41
0.12
 42
0.05
 43
0.5
 44
0.1
 45
0.0
 46
0.0
 47
0.1
 48
0.1
140
0.12
141
0.0
142
0.0
143
25.399999999999999
144
1.0
145
0.0
146
0.71
147
0.06
 71
     0
 72
     0
 73
     1
 74
     1
 75
     0
 76
     0
 77
     0
 78
     7
170
     0
171
     2
172
     0
173
     0
174
     0
175
     0
176
   256
177
   256
178
     2
  0
DIMSTYLE
  2
AM_ANSI$4
 70
     0
  3

  4
mm
  5

  6

  7

 40
1.0
 41
0.12
 42
0.05
 43
0.5
 44
0.1
 45
0.0
 46
0.0
 47
0.1
 48
0.1
140
0.12
141
0.0
142
0.0
143
25.399999999999999
144
1.0
145
0.0
146
0.71
147
0.06
 71
     0
 72
     0
 73
     1
 74
     1
 75
     0
 76
     0
 77
     0
 78
     7
170
     0
171
     2
172
     0
173
     0
174
     0
175
     0
176
   256
177
   256
178
     2
  0
DIMSTYLE
  2
AM_ANSI$7
 70
     0
  3

  4
mm
  5

  6

  7

 40
1.0
 41
0.12
 42
0.05
 43
0.5
 44
0.1
 45
0.0
 46
0.0
 47
0.1
 48
0.1
140
0.12
141
0.0
142
0.0
143
25.399999999999999
144
1.0
145
0.0
146
0.71
147
0.06
 71
     0
 72
     0
 73
     1
 74
     1
 75
     0
 76
     0
 77
     0
 78
     7
170
     0
171
     2
172
     0
173
     0
174
     0
175
     0
176
   256
177
   256
178
     2
  0
DIMSTYLE
  2
AM_ANSI$SF
 70
     0
  3

  4
mm
  5

  6

  7

 40
1.0
 41
0.12
 42
0.05
 43
0.5
 44
0.1
 45
0.0
 46
0.0
 47
0.1
 48
0.1
140
0.12
141
0.0
142
0.0
143
25.399999999999999
144
1.0
145
0.0
146
0.71
147
0.06
 71
     0
 72
     0
 73
     1
 74
     1
 75
     1
 76
     1
 77
     0
 78
     7
170
     0
171
     2
172
     0
173
     0
174
     0
175
     0
176
   256
177
   256
178
     2
  0
DIMSTYLE
  2
AM_ANSI$SH
 70
     0
  3

  4
mm
  5

  6

  7

 40
1.0
 41
0.12
 42
0.05
 43
0.5
 44
0.1
 45
0.0
 46
0.0
 47
0.1
 48
0.1
140
0.12
141
0.0
142
0.0
143
25.399999999999999
144
1.0
145
0.0
146
0.71
147
0.06
 71
     0
 72
     0
 73
     1
 74
     1
 75
     1
 76
     1
 77
     0
 78
     7
170
     0
171
     2
172
     0
173
     1
174
     0
175
     0
176
   256
177
   256
178
     2
  0
ENDTAB
  0
ENDSEC
  0
SECTION
  2
BLOCKS
  0
BLOCK
  8
0
  2
$MODEL_SPACE
 70
     0
 10
0.0
 20
0.0
 30
0.0
  3
$MODEL_SPACE
  1

  0
ENDBLK
  5
6DD4
  8
0
  0
BLOCK
 67
     1
  8
0
  2
$PAPER_SPACE
 70
     0
 10
0.0
 20
0.0
 30
0.0
  3
$PAPER_SPACE
  1

  0
ENDBLK
  5
6DD0
 67
     1
  8
0
  0
BLOCK
  8
0
  2
LINES
 70
     0
 10
0.0
 20
0.0
 30
0.0
  3
LINES
  1

  0
ENDBLK
  5
5C9B
  8
0
  0
BLOCK
  8
0
  2
GENAXEH
 70
     0
 10
0.0
 20
0.0
 30
0.0
  3
GENAXEH
  1

  0
LINE
  5
6A1F
  8
0
 10
-1.0
 20
0.0
 30
0.0
 11
1.0
 21
0.0
 31
0.0
  0
ENDBLK
  5
6A21
  8
0
  0
ENDSEC
  0
SECTION
  2
ENTITIES
  0
TEXT
  5
5CA6
  8
0
 10
3904.0589381459031
 20
414.13045924945669
 30
0.0
 40
59.999999998499987
  1
temperzone OPA 100RKTH
  7
TITLE5
 72
     1
 11
4501.2017952738306
 21
414.13045924945669
 31
0.0
  0
TEXT
  5
5CA7
  8
0
 10
4623.3333332189959
 20
93.333333330999949
 30
0.0
 40
39.999999998999989
  1
OPA100RKTH
 41
1.0410256410256511
  7
TITLE3
 72
     5
 11
5009.9999998760004
 21
93.333333330999949
 31
0.0
  0
TEXT
  5
5CA8
  8
0
 10
3841.201795290332
 20
324.27673722327802
 30
0.0
 40
59.999999998499987
  1
FOOT MTD HORIZ DISCHARGE
  7
TITLE5
 72
     1
 11
4501.2017952738306
 21
324.27673722327802
 31
0.0
  0
INSERT
  5
5CA9
  8
DIM
  2
LINES
 10
331.16901791101679
 20
3587.504837768558
 30
0.0
  0
TEXT
  5
5CAA
  8
0
 10
4015.8550654735809
 20
146.666666663
 30
0.0
 40
39.999999998999989
  1
26-05-11
 41
0.7320261437908648
  7
TITLE3
 72
     5
 11
4229.1883988015852
 21
146.666666663
 31
0.0
  0
LINE
  5
5CCE
  8
0
 10
1141.5360143388821
 20
2069.1305085760282
 30
0.0
 11
2245.5360143388821
 21
2069.1305085760282
 31
0.0
  0
LINE
  5
5CD7
  8
0
 10
2245.5360143388821
 20
3102.1305085760309
 30
0.0
 11
2245.5360143388821
 21
2069.1305085760282
 31
0.0
  0
LINE
  5
5CF1
  8
0
 62
     7
 10
2245.5322123372921
 20
1137.666722914119
 30
0.0
 11
1141.5360143388821
 21
1137.6667229141181
 31
0.0
  0
LINE
  5
5CF2
  8
0
 62
     7
 10
1141.5360143388821
 20
1137.6667229141181
 30
0.0
 11
1141.5360143388821
 21
298.66382083837402
 31
0.0
  0
LINE
  5
5CF7
  8
0
 62
     7
 10
2245.532212337293
 20
298.66382083837402
 30
0.0
 11
2245.5322123372921
 21
1137.666722914119
 31
0.0
  0
LINE
  5
5CF8
  8
0
 62
     7
 10
2305.5393400537459
 20
1101.663820838374
 30
0.0
 11
2305.5393400537459
 21
877.66382083837425
 31
0.0
  0
LINE
  5
5CF9
  8
0
 62
     7
 10
2305.4722123372931
 20
718.66382083837391
 30
0.0
 11
2305.472212337294
 21
376.66382083837391
 31
0.0
  0
LINE
  5
5D0B
  8
0
 62
     7
 10
1141.5360143388821
 20
298.66382083837402
 30
0.0
 11
2245.532212337293
 21
298.66382083837402
 31
0.0
  0
INSERT
  5
5D33
  8
DIM
  2
LINES
 10
254.36135100316409
 20
12950.844675060671
 30
0.0
  0
INSERT
  5
5D34
  8
DIM
  2
LINES
 10
4447.4749797806317
 20
10493.25690705025
 30
0.0
  0
TEXT
  5
5D35
  8
DIM
 10
9638.0424665801456
 20
11898.17011078995
 30
0.0
 40
15.0
  1

  7
TITLE3
 72
     1
 11
9638.0424665801456
 21
11898.17011078995
 31
0.0
  0
TEXT
  5
5D36
  8
DIM
 10
9638.0424665801456
 20
11898.17011078995
 30
0.0
 40
15.0
  1

  7
TITLE3
 72
     1
 11
9638.0424665801456
 21
11898.17011078995
 31
0.0
  0
TEXT
  5
5D37
  8
DIM
 10
14638.04246658014
 20
11898.17011078995
 30
0.0
 40
15.0
  1

  7
TITLE3
 72
     1
 11
14638.04246658014
 21
11898.17011078995
 31
0.0
  0
TEXT
  5
5D38
  8
DIM
 10
14638.04246658014
 20
11898.17011078995
 30
0.0
 40
15.0
  1

  7
TITLE3
 72
     1
 11
14638.04246658014
 21
11898.17011078995
 31
0.0
  0
LINE
  5
5D39
  8
0
 62
     7
 10
1562.2845354042799
 20
1060.8324680674839
 30
0.0
 11
1522.98453540428
 21
1100.1324680674811
 31
0.0
  0
LINE
  5
5D3A
  8
0
 62
     7
 10
1483.68453540428
 20
1060.8324680674839
 30
0.0
 11
1522.98453540428
 21
1100.1324680674811
 31
0.0
  0
LINE
  5
5D3B
  8
0
 62
     7
 10
1508.2845354042799
 20
1005.332468067484
 30
0.0
 11
1537.68453540428
 21
1005.332468067484
 31
0.0
  0
LINE
  5
5D3C
  8
0
 62
     7
 10
1537.68453540428
 20
1005.332468067484
 30
0.0
 11
1537.68453540428
 21
1060.8324680674839
 31
0.0
  0
LINE
  5
5D3D
  8
0
 62
     7
 10
1537.68453540428
 20
1060.8324680674839
 30
0.0
 11
1562.2845354042799
 21
1060.8324680674839
 31
0.0
  0
LINE
  5
5D3E
  8
0
 62
     7
 10
1508.2845354042799
 20
1005.332468067484
 30
0.0
 11
1508.2845354042799
 21
1060.8324680674839
 31
0.0
  0
LINE
  5
5D3F
  8
0
 62
     7
 10
1508.2845354042799
 20
1060.8324680674839
 30
0.0
 11
1483.68453540428
 21
1060.8324680674839
 31
0.0
  0
TEXT
  5
5D40
  8
0
 10
3841.5837005335761
 20
147.77495181346791
 30
0.0
 40
31.999999999999989
  1
Date
  7
SIMPLEX
  0
TEXT
  5
5D41
  8
0
 10
5044.8149231648031
 20
172.67106936454809
 30
0.0
 40
31.999999999999989
  1
Revision
 41
0.7812095035934779
  7
SIMPLEX
 72
     5
 11
5185.2838320014198
 21
172.67106936454809
 31
0.0
  0
LINE
  5
5D42
  8
0
 10
5029.3217999868793
 20
27.789990464422839
 30
0.0
 11
5029.3217999868793
 21
224.3582076113955
 31
0.0
  0
LINE
  5
5D43
  8
0
 10
3809.135372609529
 20
502.95297128913938
 30
0.0
 11
3809.135372609529
 21
27.789990464422839
 31
0.0
  0
LINE
  5
5D44
  8
0
 10
4605.8849040174582
 20
27.789990464422839
 30
0.0
 11
4605.8849040174582
 21
224.3582076113955
 31
0.0
  0
LINE
  5
5D45
  8
0
 10
4605.8849040174564
 20
124.41679902595151
 30
0.0
 11
3809.135372609529
 21
124.41679902595151
 31
0.0
  0
LINE
  5
5D46
  8
0
 10
5198.767286983787
 20
224.3582076113955
 30
0.0
 11
3809.135372609529
 21
224.3582076113955
 31
0.0
  0
LINE
  5
5D47
  8
0
 10
3809.135372609529
 20
27.789990464422839
 30
0.0
 11
5198.3706107459848
 21
27.789990464422839
 31
0.0
  0
LINE
  5
5D48
  8
0
 10
5198.3706107459848
 20
27.789990464422839
 30
0.0
 11
5198.3706107459848
 21
502.95297128913938
 31
0.0
  0
LINE
  5
5D49
  8
0
 10
5198.3706107459848
 20
502.95297128913938
 30
0.0
 11
3809.135372609529
 21
502.95297128913938
 31
0.0
  0
TEXT
  5
5D4A
  8
0
 10
3842.6442921374801
 20
63.896650753810242
 30
0.0
 40
26.666666666666661
  1
Scale
 41
1.3701747965659661
  7
SIMPLEX
 72
     5
 11
3976.616938912819
 21
63.896650753810242
 31
0.0
  0
TEXT
  5
5D4B
  8
0
 10
4683.1454981343959
 20
171.8579086756128
 30
0.0
 40
26.666666666666661
  1
Drawing No.
  7
SIMPLEX
 72
     2
 11
4915.5264505153482
 21
171.8579086756128
 31
0.0
  0
LINE
  5
5D4C
  8
0
 10
49.27932412660266
 20
0.0
 30
0.0
 11
5236.6666666666652
 21
0.0
 31
0.0
  0
LINE
  5
5D4D
  8
0
 10
5236.6666666666652
 20
0.0
 30
0.0
 11
5236.6666666666633
 21
4183.9881572188078
 31
0.0
  0
LINE
  5
5D4E
  8
0
 10
5236.6666666666633
 20
4183.9881572188078
 30
0.0
 11
49.279324126602653
 21
4183.9881572188078
 31
0.0
  0
LINE
  5
5D4F
  8
0
 10
49.279324126602653
 20
4183.9881572188078
 30
0.0
 11
49.27932412660266
 21
0.0
 31
0.0
  0
TEXT
  5
5D51
  8
0
 10
4047.82656048435
 20
60.615948988497621
 30
0.0
 40
40.0
  1
1:20
  7
TITLE3
  0
LINE
  5
5D54
  8
0
  6
PHANTOM2
 10
641.53242631655485
 20
3100.954397069755
 30
0.0
 11
641.53242631655485
 21
2069.1305085760282
 31
0.0
  0
LINE
  5
5D55
  8
0
  6
PHANTOM2
 10
1140.9254563016091
 20
1569.130508576028
 30
0.0
 11
2245.5360143388821
 21
1569.130508576028
 31
0.0
  0
LINE
  5
5D56
  8
0
  6
PHANTOM2
 10
1140.3599028326089
 20
3131.9928473129471
 30
0.0
 11
1140.3599028326089
 21
3602.1340965983541
 31
0.0
  0
LINE
  5
5D57
  8
0
  6
PHANTOM2
 10
1111.6736756019641
 20
2069.1305085760282
 30
0.0
 11
641.53242631655485
 21
2069.1305085760282
 31
0.0
  0
LINE
  5
5D59
  8
0
  6
PHANTOM2
 10
2245.5360143388821
 20
2023.409551263052
 30
0.0
 11
2245.5360143388821
 21
1569.130508576028
 31
0.0
  0
TEXT
  5
5D5A
  8
0
 10
1373.056240105506
 20
1593.7792689949381
 30
0.0
 40
40.0
  1
500 min CLEARANCE
  7
TITLE3
  0
TEXT
  5
5D5B
  8
0
 10
715.69915545024276
 20
2272.0688375137088
 30
0.0
 40
40.0
  1
500 min CLEARANCE
 50
90.0
  7
TITLE3
  0
TEXT
  5
5D5C
  8
0
 10
1456.990925591356
 20
2742.5377581840471
 30
0.0
 40
62.999999998424997
  1
OPA
  7
TITLE5
 72
     1
 11
1545.4909255891439
 21
2742.5377581840471
 31
0.0
  0
TEXT
  5
5D5E
  8
0
 62
     7
 10
1363.086141007527
 20
722.35546757354234
 30
0.0
 40
62.999999998424997
  1
OPA100RKTH
  7
TITLE5
 72
     1
 11
1655.5861410002151
 21
722.35546757354234
 31
0.0
  0
LINE
  5
5D5F
  8
0
 10
1141.5360143388821
 20
3102.1305085760282
 30
0.0
 11
2245.5360143388821
 21
3102.1305085760309
 31
0.0
  0
LINE
  5
5D6C
  8
0
 10
1141.5360143388821
 20
3102.1305085760282
 30
0.0
 11
1141.5360143388821
 21
2069.1305085760282
 31
0.0
  0
LINE
  5
5D6D
  8
0
 10
2305.5360143388798
 20
3001.1305085760291
 30
0.0
 11
2305.5360143388798
 21
2169.1305085760282
 31
0.0
  0
LINE
  5
5D6E
  8
0
  6
PHANTOM2
 10
3692.6622255650391
 20
3061.6667229141199
 30
0.0
 11
2659.6622255650391
 21
3061.6667229141199
 31
0.0
  0
TEXT
  5
5D6F
  8
0
 10
2835.1208768851461
 20
2977.1721726390501
 30
0.0
 40
40.0
  1
2000 min CLEARANCE
  7
TITLE3
  0
LINE
  5
5D72
  8
0
  6
PHANTOM2
 10
3692.6622255650391
 20
1171.6788335733961
 30
0.0
 11
3692.6622255650391
 21
3061.6667229141199
 31
0.0
  0
LINE
  5
5D73
  8
0
  6
PHANTOM2
 10
2659.6622255650391
 20
1169.152962237569
 30
0.0
 11
2659.6622255650391
 21
3061.6667229141199
 31
0.0
  0
LINE
  5
5D74
  8
0
 62
     7
 10
2121.1134924872108
 20
1001.97908494763
 30
0.0
 11
2176.6134924872122
 21
1001.97908494763
 31
0.0
  0
LINE
  5
5D75
  8
0
 62
     7
 10
2121.1134924872108
 20
972.57908494762967
 30
0.0
 11
2176.6134924872122
 21
972.57908494762967
 31
0.0
  0
LINE
  5
5D76
  8
0
 62
     7
 10
2121.1134924872108
 20
1001.97908494763
 30
0.0
 11
2121.1134924872108
 21
972.57908494762967
 31
0.0
  0
LINE
  5
5D77
  8
0
 62
     7
 10
2176.6134924872122
 20
947.97908494763033
 30
0.0
 11
2215.9134924872119
 21
987.27908494762971
 31
0.0
  0
LINE
  5
5D78
  8
0
 62
     7
 10
2176.6134924872122
 20
1001.97908494763
 30
0.0
 11
2176.6134924872122
 21
1026.57908494763
 31
0.0
  0
LINE
  5
5D79
  8
0
 62
     7
 10
2176.6134924872122
 20
1026.57908494763
 30
0.0
 11
2215.9134924872119
 21
987.27908494762971
 31
0.0
  0
LINE
  5
5D7A
  8
0
 62
     7
 10
2176.6134924872122
 20
972.57908494762967
 30
0.0
 11
2176.6134924872122
 21
947.97908494763033
 31
0.0
  0
LINE
  5
5D7B
  8
0
 62
     7
 10
2160.413492487211
 20
486.35881933378818
 30
0.0
 11
2121.1134924872108
 21
525.65881933378841
 31
0.0
  0
LINE
  5
5D7C
  8
0
 62
     7
 10
2160.413492487211
 20
510.95881933378757
 30
0.0
 11
2160.413492487211
 21
486.35881933378818
 31
0.0
  0
LINE
  5
5D7D
  8
0
 62
     7
 10
2215.913492487211
 20
540.35881933378789
 30
0.0
 11
2160.413492487211
 21
540.35881933378789
 31
0.0
  0
LINE
  5
5D7E
  8
0
 62
     7
 10
2215.913492487211
 20
510.95881933378757
 30
0.0
 11
2160.413492487211
 21
510.95881933378757
 31
0.0
  0
LINE
  5
5D7F
  8
0
 62
     7
 10
2215.913492487211
 20
510.95881933378757
 30
0.0
 11
2215.913492487211
 21
540.35881933378789
 31
0.0
  0
LINE
  5
5D80
  8
0
 62
     7
 10
2160.413492487211
 20
540.35881933378789
 30
0.0
 11
2160.413492487211
 21
564.95881933378746
 31
0.0
  0
LINE
  5
5D81
  8
0
 62
     7
 10
2160.413492487211
 20
564.95881933378746
 30
0.0
 11
2121.1134924872108
 21
525.65881933378841
 31
0.0
  0
TEXT
  5
5F1D
  8
0
 10
4651.6793143303848
 20
590.04887497894515
 30
0.0
 40
24.0
  1
available on request
  7
TITLE3
  0
TEXT
  5
5F1E
  8
0
 10
4651.6793143303848
 20
631.19173212180226
 30
0.0
 40
24.0
  1
Certified dimensions
  7
TITLE3
  0
TEXT
  5
5F1F
  8
0
 10
4651.6793143303848
 20
672.33458926465937
 30
0.0
 40
24.0
  1
without notice or obligation.
  7
TITLE3
  0
TEXT
  5
5F20
  8
0
 10
4651.6793143303848
 20
713.47744640751648
 30
0.0
 40
24.0
  1
specifications at any time
  7
TITLE3
  0
TEXT
  5
5F21
  8
0
 10
4651.6793143303848
 20
754.62030355037371
 30
0.0
 40
24.0
  1
the right to change 
  7
TITLE3
  0
TEXT
  5
5F22
  8
0
 10
4651.6793143303848
 20
836.90601783608793
 30
0.0
 40
24.0
  1
NOTE
  7
TITLE3
  0
TEXT
  5
5F23
  8
0
 10
4651.6793143303848
 20
795.7631606932307
 30
0.0
 40
24.0
  1
The manufacturer reserves
  7
TITLE3
  0
CIRCLE
  5
5F71
  8
0
 10
1539.5360143388821
 20
2697.1305085760282
 30
0.0
 40
285.0
  0
LINE
  5
5F72
  8
0
 62
     7
 10
1254.5360143388821
 20
1244.663820838374
 30
0.0
 11
1254.5360143388821
 21
1137.6667229141181
 31
0.0
  0
LINE
  5
5F73
  8
0
 62
     7
 10
1824.5360143388821
 20
1244.663820838374
 30
0.0
 11
1824.5360143388821
 21
1137.6667229141181
 31
0.0
  0
LINE
  5
5F74
  8
0
 10
1269.5360143388821
 20
2060.1305085760282
 30
0.0
 11
1388.5360143388821
 21
2060.1305085760282
 31
0.0
  0
LINE
  5
5F76
  8
0
 10
1269.5360143388821
 20
3110.1305085760282
 30
0.0
 11
1269.5360143388821
 21
3102.1305085760282
 31
0.0
  0
LINE
  5
5F77
  8
0
 10
1388.5360143388821
 20
3110.1305085760268
 30
0.0
 11
1388.5360143388821
 21
3102.1305085760282
 31
0.0
  0
LINE
  5
5F79
  8
0
 10
1994.5360143388821
 20
3110.1305085760291
 30
0.0
 11
1994.5360143388821
 21
3102.1305085760309
 31
0.0
  0
LINE
  5
5F7A
  8
0
 10
2113.5360143388821
 20
3110.1305085760291
 30
0.0
 11
2113.5360143388821
 21
3102.1305085760309
 31
0.0
  0
LINE
  5
5F7B
  8
0
 10
1994.5360143388821
 20
2060.1305085760282
 30
0.0
 11
2113.5360143388821
 21
2060.1305085760282
 31
0.0
  0
LINE
  5
5F7C
  8
0
 10
1269.5360143388821
 20
3110.1305085760282
 30
0.0
 11
1388.5360143388821
 21
3110.1305085760268
 31
0.0
  0
LINE
  5
5F7D
  8
0
 10
1994.5360143388821
 20
3110.1305085760291
 30
0.0
 11
2113.5360143388821
 21
3110.1305085760291
 31
0.0
  0
LINE
  5
5F7E
  8
0
 10
2113.5360143388821
 20
2069.1305085760291
 30
0.0
 11
2113.5360143388821
 21
2060.1305085760282
 31
0.0
  0
LINE
  5
5F7F
  8
0
 10
1994.5360143388821
 20
2069.1305085760291
 30
0.0
 11
1994.5360143388821
 21
2060.1305085760282
 31
0.0
  0
LINE
  5
5F80
  8
0
 10
1388.5360143388821
 20
2069.1305085760282
 30
0.0
 11
1388.5360143388821
 21
2060.1305085760282
 31
0.0
  0
LINE
  5
5F81
  8
0
 10
1269.53601433888
 20
2069.1305085760291
 30
0.0
 11
1269.5360143388821
 21
2060.1305085760282
 31
0.0
  0
LINE
  5
5F95
  8
0
  6
PHANTOM2
 10
1140.9254563016091
 20
2023.409551263052
 30
0.0
 11
1140.9254563016091
 21
1569.130508576028
 31
0.0
  0
LINE
  5
5F96
  8
0
 62
     7
 10
1271.0360143388821
 20
266.66382083837402
 30
0.0
 11
1390.0360143388821
 21
266.66382083837402
 31
0.0
  0
LINE
  5
5F97
  8
0
 62
     7
 10
1996.0360143388821
 20
266.66382083837402
 30
0.0
 11
2115.0360143388821
 21
266.66382083837402
 31
0.0
  0
LINE
  5
5F98
  8
0
 62
     7
 10
2115.0360143388821
 20
298.66382083837402
 30
0.0
 11
2115.0360143388821
 21
266.66382083837402
 31
0.0
  0
LINE
  5
5F99
  8
0
 62
     7
 10
1996.0360143388821
 20
298.66382083837402
 30
0.0
 11
1996.0360143388821
 21
266.66382083837402
 31
0.0
  0
LINE
  5
5F9A
  8
0
 62
     7
 10
1390.0360143388821
 20
298.66382083837402
 30
0.0
 11
1390.0360143388821
 21
266.66382083837402
 31
0.0
  0
LINE
  5
5F9B
  8
0
 62
     7
 10
1271.03601433888
 20
298.66382083837402
 30
0.0
 11
1271.0360143388821
 21
266.66382083837402
 31
0.0
  0
LINE
  5
5FB0
  8
0
 62
     7
 10
1330.5360143388821
 20
256.66382083837402
 30
0.0
 11
1330.5360143388821
 21
276.66382083837391
 31
0.0
  0
LINE
  5
5FB3
  8
0
 62
     7
 10
2055.5360143388821
 20
256.66382083837402
 30
0.0
 11
2055.5360143388821
 21
276.66382083837391
 31
0.0
  0
LINE
  5
5FC7
  8
0
 10
2245.536014338883
 20
2169.1305085760291
 30
0.0
 11
2305.5360143388798
 21
2169.1305085760282
 31
0.0
  0
LINE
  5
5FC8
  8
0
 10
2245.536014338883
 20
2385.1305085760291
 30
0.0
 11
2305.5360143388798
 21
2385.1305085760291
 31
0.0
  0
LINE
  5
5FC9
  8
0
 10
2245.536014338883
 20
3001.1305085760291
 30
0.0
 11
2305.5360143388798
 21
3001.1305085760291
 31
0.0
  0
LINE
  5
5FCA
  8
0
 10
2245.536014338883
 20
2787.1305085760291
 30
0.0
 11
2305.5360143388798
 21
2787.1305085760291
 31
0.0
  0
LINE
  5
5FE3
  8
0
 62
     7
 10
2659.6622255650391
 20
1137.666722914119
 30
0.0
 11
3692.6622255650391
 21
1137.666722914119
 31
0.0
  0
LINE
  5
5FE6
  8
0
 62
     7
 10
2659.6622255650391
 20
1137.666722914119
 30
0.0
 11
2659.6622255650391
 21
298.66382083837402
 31
0.0
  0
LINE
  5
5FE7
  8
0
 62
     7
 10
3692.6622255650391
 20
1137.666722914119
 30
0.0
 11
3692.6622255650391
 21
298.66382083837402
 31
0.0
  0
LINE
  5
5FE8
  8
0
 62
     7
 10
2650.6622255650391
 20
298.66382083837402
 30
0.0
 11
3700.6622255650359
 21
298.66382083837402
 31
0.0
  0
LINE
  5
5FE9
  8
0
 62
     7
 10
2650.6622255650391
 20
298.66382083837402
 30
0.0
 11
2650.6622255650391
 21
266.66382083837402
 31
0.0
  0
LINE
  5
5FEA
  8
0
 62
     7
 10
3700.6622255650359
 20
298.66382083837402
 30
0.0
 11
3700.6622255650382
 21
266.66382083837408
 31
0.0
  0
LINE
  5
5FEB
  8
0
 62
     7
 10
2650.6622255650391
 20
266.66382083837402
 30
0.0
 11
3700.6622255650382
 21
266.66382083837408
 31
0.0
  0
LINE
  5
5FEC
  8
0
 62
     7
 10
2671.6622255650391
 20
276.66382083837391
 30
0.0
 11
2671.6622255650391
 21
256.66382083837402
 31
0.0
  0
LINE
  5
5FF4
  8
0
 62
     7
 10
2975.6622255650391
 20
1101.663820838374
 30
0.0
 11
2975.6622255650391
 21
877.66382083837425
 31
0.0
  0
LINE
  5
5FF5
  8
0
 62
     7
 10
3377.6622255650391
 20
1101.663820838374
 30
0.0
 11
3377.6622255650359
 21
877.66382083837425
 31
0.0
  0
LINE
  5
5FF6
  8
0
 62
     7
 10
2759.6622255650391
 20
718.66382083837345
 30
0.0
 11
2759.6622255650391
 21
376.66382083837391
 31
0.0
  0
LINE
  5
5FF7
  8
0
 62
     7
 10
3591.6622255650391
 20
718.66382083837345
 30
0.0
 11
3591.6622255650391
 21
376.66382083837391
 31
0.0
  0
LINE
  5
6185
  8
0
  6
HIDDEN2
 62
     7
 10
1231.9448911749
 20
2802.2694502124168
 30
0.0
 11
1231.9448911749
 21
2277.2694502124209
 31
0.0
  0
LINE
  5
6186
  8
0
  6
HIDDEN2
 62
     7
 10
1176.9448911748991
 20
2802.2694502124168
 30
0.0
 11
1176.9448911748991
 21
2277.2694502124168
 31
0.0
  0
ARC
  5
6187
  8
0
  6
HIDDEN2
 62
     7
 10
1431.944891174898
 20
2802.2694502124159
 30
0.0
 40
255.0
 50
90.0
 51
180.0
  0
ARC
  5
6188
  8
0
  6
HIDDEN2
 62
     7
 10
1431.944891174898
 20
2802.2694502124159
 30
0.0
 40
200.0
 50
90.0
 51
180.0
  0
LINE
  5
6189
  8
0
  6
HIDDEN2
 62
     7
 10
1741.944891174898
 20
3002.2694502124168
 30
0.0
 11
1431.9448911748991
 21
3002.2694502124168
 31
0.0
  0
LINE
  5
618A
  8
0
  6
HIDDEN2
 62
     7
 10
1431.9448911748991
 20
3057.2694502124191
 30
0.0
 11
1743.1448911749001
 21
3057.2694502124191
 31
0.0
  0
LINE
  5
618B
  8
0
  6
HIDDEN2
 62
     7
 10
1743.144891174898
 20
3002.2694502124168
 30
0.0
 11
1743.1448911749001
 21
3057.2694502124191
 31
0.0
  0
LINE
  5
618C
  8
0
  6
HIDDEN
 62
     7
 10
1743.144891174898
 20
3002.2694502124168
 30
0.0
 11
1741.944891174898
 21
3002.2694502124168
 31
0.0
  0
LINE
  5
618D
  8
0
  6
HIDDEN
 62
     7
 10
1204.4448911749021
 20
2277.2694502124168
 30
0.0
 11
1176.9448911748991
 21
2277.2694502124168
 31
0.0
  0
LINE
  5
618E
  8
0
  6
HIDDEN2
 62
     7
 10
1233.1448911749021
 20
2277.2694502124168
 30
0.0
 11
1200.9448911749
 21
2277.2694502124168
 31
0.0
  0
TEXT
  5
61A9
  8
0
 62
     7
 10
2880.7550545914119
 20
529.6959497595393
 30
0.0
 40
62.999999998424997
  1
OPA100RKTH
  7
TITLE5
 72
     1
 11
3173.2550545840991
 21
529.6959497595393
 31
0.0
  0
LINE
  5
61C1
  8
0
 62
     7
 10
1330.5360143388821
 20
229.99715417170731
 30
0.0
 11
1330.5360143388821
 21
142.68074808546561
 31
0.0
  0
LINE
  5
61C2
  8
0
 62
     7
 10
1141.5360143388821
 20
271.99715417170728
 30
0.0
 11
1141.5360143388821
 21
142.68074808546561
 31
0.0
  0
LINE
  5
61C3
  8
0
 62
     7
 10
1370.5360143388821
 20
169.34741475213241
 30
0.0
 11
1410.5360143388821
 21
169.34741475213241
 31
0.0
  0
LINE
  5
61C4
  8
0
 62
     7
 10
1101.5360143388821
 20
169.34741475213241
 30
0.0
 11
1061.5360143388821
 21
169.34741475213241
 31
0.0
  0
SOLID
  5
61C5
  8
0
 62
     7
 10
1370.5360143388821
 20
176.01408141879901
 30
0.0
 11
1370.5360143388821
 21
162.68074808546561
 31
0.0
 12
1330.5360143388821
 22
169.34741475213241
 32
0.0
 13
1330.5360143388821
 23
169.34741475213241
 33
0.0
  0
SOLID
  5
61C6
  8
0
 62
     7
 10
1101.5360143388821
 20
176.01408141879901
 30
0.0
 11
1101.5360143388821
 21
162.68074808546561
 31
0.0
 12
1141.5360143388821
 22
169.34741475213241
 32
0.0
 13
1141.5360143388821
 23
169.34741475213241
 33
0.0
  0
LINE
  5
61C8
  8
0
 62
     7
 10
1330.5360143388821
 20
229.99715417170731
 30
0.0
 11
1330.5360143388821
 21
142.68074808546561
 31
0.0
  0
LINE
  5
61C9
  8
0
 62
     7
 10
2055.5360143388821
 20
229.99715417170731
 30
0.0
 11
2055.5360143388821
 21
142.68074808546561
 31
0.0
  0
LINE
  5
61CA
  8
0
 62
     7
 10
1370.5360143388821
 20
169.34741475213241
 30
0.0
 11
1551.3693476722151
 21
169.34741475213241
 31
0.0
  0
LINE
  5
61CB
  8
0
 62
     7
 10
2015.5360143388821
 20
169.34741475213241
 30
0.0
 11
1834.702681005549
 21
169.34741475213241
 31
0.0
  0
SOLID
  5
61CC
  8
0
 62
     7
 10
1370.5360143388821
 20
176.01408141879901
 30
0.0
 11
1370.5360143388821
 21
162.68074808546561
 31
0.0
 12
1330.5360143388821
 22
169.34741475213241
 32
0.0
 13
1330.5360143388821
 23
169.34741475213241
 33
0.0
  0
SOLID
  5
61CD
  8
0
 62
     7
 10
2015.5360143388821
 20
176.01408141879901
 30
0.0
 11
2015.5360143388821
 21
162.68074808546561
 31
0.0
 12
2055.5360143388821
 22
169.34741475213241
 32
0.0
 13
2055.5360143388821
 23
169.34741475213241
 33
0.0
  0
LINE
  5
6359
  8
0
 62
     7
 10
2245.532212337293
 20
376.66382083837391
 30
0.0
 11
2305.472212337294
 21
376.66382083837391
 31
0.0
  0
LINE
  5
635C
  8
0
 62
     7
 10
2245.532212337293
 20
718.66382083837391
 30
0.0
 11
2305.4722123372931
 21
718.66382083837402
 31
0.0
  0
LINE
  5
635D
  8
0
 62
     7
 10
2245.5322123372921
 20
877.66382083837379
 30
0.0
 11
2305.5393400537459
 21
877.66382083837425
 31
0.0
  0
LINE
  5
635E
  8
0
 62
     7
 10
2245.5322123372921
 20
1101.663820838374
 30
0.0
 11
2305.5393400537459
 21
1101.663820838374
 31
0.0
  0
LINE
  5
635F
  8
0
 62
     7
 10
2975.6622255650391
 20
1101.663820838374
 30
0.0
 11
3377.6622255650391
 21
1101.663820838374
 31
0.0
  0
LINE
  5
6360
  8
0
 62
     7
 10
2975.6622255650391
 20
877.66382083837425
 30
0.0
 11
3377.6622255650359
 21
877.66382083837425
 31
0.0
  0
LINE
  5
6361
  8
0
 62
     7
 10
2759.6622255650391
 20
718.66382083837345
 30
0.0
 11
3591.6622255650391
 21
718.66382083837345
 31
0.0
  0
LINE
  5
6362
  8
0
 62
     7
 10
2759.6622255650391
 20
376.66382083837391
 30
0.0
 11
3591.6622255650391
 21
376.66382083837391
 31
0.0
  0
LINE
  5
6380
  8
0
 62
     7
 10
2332.1388790039609
 20
376.66382083837391
 30
0.0
 11
2457.829880812154
 21
376.66382083837391
 31
0.0
  0
LINE
  5
6381
  8
0
 62
     7
 10
2332.1388790039591
 20
718.66382083837391
 30
0.0
 11
2457.829880812154
 21
718.66382083837391
 31
0.0
  0
LINE
  5
6382
  8
0
 62
     7
 10
2431.163214145487
 20
416.66382083837391
 30
0.0
 11
2431.163214145487
 21
503.09054492334673
 31
0.0
  0
SOLID
  5
6384
  8
0
 62
     7
 10
2424.496547478821
 20
416.66382083837391
 30
0.0
 11
2437.8298808121549
 21
416.66382083837391
 31
0.0
 12
2431.163214145487
 22
376.66382083837391
 32
0.0
 13
2431.163214145487
 23
376.66382083837391
 33
0.0
  0
SOLID
  5
6385
  8
0
 62
     7
 10
2424.496547478821
 20
678.66382083837357
 30
0.0
 11
2437.8298808121549
 21
678.66382083837357
 31
0.0
 12
2431.163214145487
 22
718.66382083837391
 32
0.0
 13
2431.163214145487
 23
718.66382083837391
 33
0.0
  0
LINE
  5
6387
  8
0
 62
     7
 10
2332.1388790039609
 20
376.66382083837391
 30
0.0
 11
2457.829880812154
 21
376.66382083837391
 31
0.0
  0
LINE
  5
6388
  8
0
 62
     7
 10
2141.702681005549
 20
266.66382083837402
 30
0.0
 11
2457.829880812154
 21
266.66382083837368
 31
0.0
  0
LINE
  5
6389
  8
0
 62
     7
 10
2431.163214145487
 20
416.66382083837391
 30
0.0
 11
2431.163214145487
 21
494.14207979892302
 31
0.0
  0
LINE
  5
638A
  8
0
 62
     7
 10
2431.163214145487
 20
226.66382083837391
 30
0.0
 11
2431.163214145487
 21
186.66382083837371
 31
0.0
  0
SOLID
  5
638B
  8
0
 62
     7
 10
2424.496547478821
 20
416.66382083837391
 30
0.0
 11
2437.8298808121549
 21
416.66382083837391
 31
0.0
 12
2431.163214145487
 22
376.66382083837391
 32
0.0
 13
2431.163214145487
 23
376.66382083837391
 33
0.0
  0
SOLID
  5
638C
  8
0
 62
     7
 10
2424.496547478821
 20
226.66382083837391
 30
0.0
 11
2437.8298808121549
 21
226.66382083837391
 31
0.0
 12
2431.163214145487
 22
266.66382083837368
 32
0.0
 13
2431.163214145487
 23
266.66382083837368
 33
0.0
  0
LINE
  5
638E
  8
0
 62
     7
 10
2332.206006720412
 20
877.66382083837425
 30
0.0
 11
2457.4402612335698
 21
877.66382083837425
 31
0.0
  0
LINE
  5
638F
  8
0
 62
     7
 10
2332.1388790039591
 20
718.66382083837391
 30
0.0
 11
2457.4402612335698
 21
718.66382083837391
 31
0.0
  0
LINE
  5
6391
  8
0
 62
     7
 10
2430.7735945669042
 20
718.66382083837391
 30
0.0
 11
2430.7735945669042
 21
678.66382083837357
 31
0.0
  0
LINE
  5
6396
  8
0
 62
     7
 10
2431.163214145487
 20
603.09054492334667
 30
0.0
 11
2431.163214145487
 21
678.66382083837357
 31
0.0
  0
LINE
  5
6397
  8
0
 62
     7
 10
2332.206006720412
 20
1101.663820838374
 30
0.0
 11
2458.3513428700171
 21
1101.663820838374
 31
0.0
  0
LINE
  5
6398
  8
0
 62
     7
 10
2332.206006720412
 20
877.66382083837425
 30
0.0
 11
2458.3513428700162
 21
877.66382083837425
 31
0.0
  0
LINE
  5
6399
  8
0
 62
     7
 10
2431.6846762033501
 20
1061.663820838374
 30
0.0
 11
2431.6846762033492
 21
1046.917078411627
 31
0.0
  0
SOLID
  5
639B
  8
0
 62
     7
 10
2425.0180095366841
 20
1061.663820838374
 30
0.0
 11
2438.3513428700162
 21
1061.663820838374
 31
0.0
 12
2431.6846762033501
 22
1101.663820838374
 32
0.0
 13
2431.6846762033501
 23
1101.663820838374
 33
0.0
  0
SOLID
  5
639C
  8
0
 62
     7
 10
2425.0180095366841
 20
917.66382083837414
 30
0.0
 11
2438.3513428700162
 21
917.66382083837414
 31
0.0
 12
2431.6846762033501
 22
877.66382083837425
 32
0.0
 13
2431.6846762033501
 23
877.66382083837425
 33
0.0
  0
LINE
  5
639E
  8
0
 62
     7
 10
2431.6846762033492
 20
946.9170784116277
 30
0.0
 11
2431.6846762033501
 21
917.66382083837414
 31
0.0
  0
LINE
  5
63C3
  8
0
 62
     7
 10
2305.5393400537459
 20
1128.330487505041
 30
0.0
 11
2305.5393400537459
 21
1422.2888235327521
 31
0.0
  0
LINE
  5
63C4
  8
0
 62
     7
 10
1141.5360143388821
 20
1226.0169350089679
 30
0.0
 11
1141.5360143388821
 21
1422.2888235327521
 31
0.0
  0
LINE
  5
63C5
  8
0
 62
     7
 10
2265.5393400537459
 20
1395.622156866086
 30
0.0
 11
1855.204343862981
 21
1395.622156866086
 31
0.0
  0
LINE
  5
63C6
  8
0
 62
     7
 10
1181.5360143388821
 20
1395.622156866086
 30
0.0
 11
1591.871010529647
 21
1395.622156866086
 31
0.0
  0
SOLID
  5
63C7
  8
0
 62
     7
 10
2265.5393400537459
 20
1402.2888235327521
 30
0.0
 11
2265.5393400537459
 21
1388.955490199419
 31
0.0
 12
2305.5393400537459
 22
1395.622156866086
 32
0.0
 13
2305.5393400537459
 23
1395.622156866086
 33
0.0
  0
SOLID
  5
63C8
  8
0
 62
     7
 10
1181.5360143388821
 20
1402.2888235327521
 30
0.0
 11
1181.5360143388821
 21
1388.955490199419
 31
0.0
 12
1141.5360143388821
 22
1395.622156866086
 32
0.0
 13
1141.5360143388821
 23
1395.622156866086
 33
0.0
  0
LINE
  5
63CA
  8
0
 62
     7
 10
2245.5322123372921
 20
1164.3333895807839
 30
0.0
 11
2245.5322123372921
 21
1343.8206913220411
 31
0.0
  0
LINE
  5
63CB
  8
0
 62
     7
 10
1141.5360143388821
 20
1164.3333895807839
 30
0.0
 11
1141.5360143388821
 21
1343.8206913220411
 31
0.0
  0
LINE
  5
63CC
  8
0
 62
     7
 10
2205.5322123372921
 20
1317.1540246553741
 30
0.0
 11
1762.7007800047541
 21
1317.1540246553741
 31
0.0
  0
LINE
  5
63CD
  8
0
 62
     7
 10
1181.5360143388821
 20
1317.1540246553741
 30
0.0
 11
1624.3674466714201
 21
1317.1540246553741
 31
0.0
  0
SOLID
  5
63CE
  8
0
 62
     7
 10
2205.5322123372921
 20
1323.8206913220411
 30
0.0
 11
2205.5322123372921
 21
1310.487357988708
 31
0.0
 12
2245.5322123372921
 22
1317.1540246553741
 32
0.0
 13
2245.5322123372921
 23
1317.1540246553741
 33
0.0
  0
SOLID
  5
63CF
  8
0
 62
     7
 10
1181.5360143388821
 20
1323.8206913220411
 30
0.0
 11
1181.5360143388821
 21
1310.487357988708
 31
0.0
 12
1141.5360143388821
 22
1317.1540246553741
 32
0.0
 13
1141.5360143388821
 23
1317.1540246553741
 33
0.0
  0
LINE
  5
63D2
  8
0
 62
     7
 10
2650.6622255650391
 20
239.99715417170731
 30
0.0
 11
2650.6622255650391
 21
143.37862807997109
 31
0.0
  0
LINE
  5
63D4
  8
0
 62
     7
 10
2610.66222556504
 20
170.04529474663781
 30
0.0
 11
2570.6622255650391
 21
170.04529474663781
 31
0.0
  0
SOLID
  5
63D6
  8
0
 62
     7
 10
2610.66222556504
 20
176.71196141330449
 30
0.0
 11
2610.66222556504
 21
163.37862807997121
 31
0.0
 12
2650.6622255650391
 22
170.04529474663781
 32
0.0
 13
2650.6622255650391
 23
170.04529474663781
 33
0.0
  0
LINE
  5
63D8
  8
0
 62
     7
 10
2671.6622255650391
 20
229.99715417170731
 30
0.0
 11
2671.6622255650391
 21
143.17370039524741
 31
0.0
  0
LINE
  5
63D9
  8
0
 62
     7
 10
3675.6622255650391
 20
229.99715417170731
 30
0.0
 11
3675.6622255650391
 21
143.17370039524741
 31
0.0
  0
LINE
  5
63DA
  8
0
 62
     7
 10
2698.6622255650391
 20
169.84036706191409
 30
0.0
 11
3026.9955588983712
 21
169.84036706191409
 31
0.0
  0
LINE
  5
63DB
  8
0
 62
     7
 10
3653.6622255650391
 20
169.84036706191409
 30
0.0
 11
3325.3288922317038
 21
169.84036706191409
 31
0.0
  0
SOLID
  5
63DC
  8
0
 62
     7
 10
2711.6622255650391
 20
176.50703372858069
 30
0.0
 11
2711.6622255650391
 21
163.17370039524741
 31
0.0
 12
2671.6622255650391
 22
169.84036706191409
 32
0.0
 13
2671.6622255650391
 23
169.84036706191409
 33
0.0
  0
SOLID
  5
63DD
  8
0
 62
     7
 10
3635.6622255650391
 20
176.50703372858069
 30
0.0
 11
3635.6622255650391
 21
163.17370039524741
 31
0.0
 12
3675.6622255650391
 22
169.84036706191409
 32
0.0
 13
3675.6622255650391
 23
169.84036706191409
 33
0.0
  0
LINE
  5
63DF
  8
0
 62
     7
 10
2650.6622255650391
 20
239.99715417170731
 30
0.0
 11
2650.6622255650391
 21
78.035727082802481
 31
0.0
  0
LINE
  5
63E0
  8
0
 62
     7
 10
3700.6622255650382
 20
239.99715417170739
 30
0.0
 11
3700.6622255650382
 21
78.035727082802481
 31
0.0
  0
LINE
  5
63E1
  8
0
 62
     7
 10
2690.6622255650391
 20
104.7023937494691
 30
0.0
 11
3043.9955588983712
 21
104.7023937494691
 31
0.0
  0
LINE
  5
63E2
  8
0
 62
     7
 10
3660.6622255650391
 20
104.7023937494691
 30
0.0
 11
3307.3288922317038
 21
104.7023937494691
 31
0.0
  0
SOLID
  5
63E3
  8
0
 62
     7
 10
2690.6622255650391
 20
111.3690604161358
 30
0.0
 11
2690.6622255650391
 21
98.035727082802424
 31
0.0
 12
2650.6622255650391
 22
104.7023937494691
 32
0.0
 13
2650.6622255650391
 23
104.7023937494691
 33
0.0
  0
SOLID
  5
63E4
  8
0
 62
     7
 10
3660.6622255650391
 20
111.3690604161358
 30
0.0
 11
3660.6622255650391
 21
98.035727082802424
 31
0.0
 12
3700.6622255650382
 22
104.7023937494691
 32
0.0
 13
3700.6622255650382
 23
104.7023937494691
 33
0.0
  0
LINE
  5
63E6
  8
0
 62
     7
 10
2759.6622255650391
 20
745.3304875050402
 30
0.0
 11
2759.6622255650391
 21
1330.1457632013619
 31
0.0
  0
LINE
  5
63E7
  8
0
 62
     7
 10
2659.6622255650391
 20
1164.333389580785
 30
0.0
 11
2659.6622255650391
 21
1330.1457632013619
 31
0.0
  0
LINE
  5
63E8
  8
0
 62
     7
 10
2799.6622255650391
 20
1303.4790965346961
 30
0.0
 11
2839.6622255650391
 21
1303.4790965346961
 31
0.0
  0
LINE
  5
63E9
  8
0
 62
     7
 10
2619.6622255650391
 20
1303.4790965346961
 30
0.0
 11
2579.6622255650391
 21
1303.4790965346961
 31
0.0
  0
SOLID
  5
63EA
  8
0
 62
     7
 10
2799.6622255650391
 20
1310.145763201363
 30
0.0
 11
2799.6622255650391
 21
1296.8124298680291
 31
0.0
 12
2759.6622255650391
 22
1303.4790965346961
 32
0.0
 13
2759.6622255650391
 23
1303.4790965346961
 33
0.0
  0
SOLID
  5
63EB
  8
0
 62
     7
 10
2619.6622255650391
 20
1310.145763201363
 30
0.0
 11
2619.6622255650391
 21
1296.8124298680291
 31
0.0
 12
2659.6622255650391
 22
1303.4790965346961
 32
0.0
 13
2659.6622255650391
 23
1303.4790965346961
 33
0.0
  0
LINE
  5
63ED
  8
0
 62
     7
 10
2759.6622255650391
 20
745.3304875050402
 30
0.0
 11
2759.6622255650391
 21
1330.1457632013619
 31
0.0
  0
LINE
  5
63EE
  8
0
 62
     7
 10
3591.6622255650391
 20
745.3304875050402
 30
0.0
 11
3591.6622255650391
 21
1330.1457632013619
 31
0.0
  0
LINE
  5
63EF
  8
0
 62
     7
 10
2799.6622255650391
 20
1303.4790965346961
 30
0.0
 11
3108.9955588983721
 21
1303.4790965346961
 31
0.0
  0
LINE
  5
63F0
  8
0
 62
     7
 10
3551.6622255650391
 20
1303.4790965346961
 30
0.0
 11
3242.3288922317051
 21
1303.4790965346961
 31
0.0
  0
SOLID
  5
63F1
  8
0
 62
     7
 10
2799.6622255650391
 20
1310.145763201363
 30
0.0
 11
2799.6622255650391
 21
1296.8124298680291
 31
0.0
 12
2759.6622255650391
 22
1303.4790965346961
 32
0.0
 13
2759.6622255650391
 23
1303.4790965346961
 33
0.0
  0
SOLID
  5
63F2
  8
0
 62
     7
 10
3551.6622255650391
 20
1310.145763201363
 30
0.0
 11
3551.6622255650391
 21
1296.8124298680291
 31
0.0
 12
3591.6622255650391
 22
1303.4790965346961
 32
0.0
 13
3591.6622255650391
 23
1303.4790965346961
 33
0.0
  0
LINE
  5
63F4
  8
0
 62
     7
 10
2659.6622255650391
 20
1164.333389580785
 30
0.0
 11
2659.6622255650391
 21
1410.513717542276
 31
0.0
  0
LINE
  5
63F5
  8
0
 62
     7
 10
2975.6622255650391
 20
1128.330487505041
 30
0.0
 11
2975.6622255650391
 21
1410.513717542276
 31
0.0
  0
LINE
  5
63F6
  8
0
 62
     7
 10
2699.6622255650391
 20
1383.8470508756091
 30
0.0
 11
2755.9955588983712
 21
1383.8470508756091
 31
0.0
  0
LINE
  5
63F7
  8
0
 62
     7
 10
2935.6622255650391
 20
1383.8470508756091
 30
0.0
 11
2879.3288922317038
 21
1383.8470508756091
 31
0.0
  0
SOLID
  5
63F8
  8
0
 62
     7
 10
2699.6622255650391
 20
1390.513717542276
 30
0.0
 11
2699.6622255650391
 21
1377.180384208943
 31
0.0
 12
2659.6622255650391
 22
1383.8470508756091
 32
0.0
 13
2659.6622255650391
 23
1383.8470508756091
 33
0.0
  0
SOLID
  5
63F9
  8
0
 62
     7
 10
2935.6622255650391
 20
1390.513717542276
 30
0.0
 11
2935.6622255650391
 21
1377.180384208943
 31
0.0
 12
2975.6622255650391
 22
1383.8470508756091
 32
0.0
 13
2975.6622255650391
 23
1383.8470508756091
 33
0.0
  0
LINE
  5
63FB
  8
0
 62
     7
 10
2975.6622255650391
 20
1128.330487505041
 30
0.0
 11
2975.6622255650391
 21
1410.035370363267
 31
0.0
  0
LINE
  5
63FC
  8
0
 62
     7
 10
3377.6622255650391
 20
1128.330487505041
 30
0.0
 11
3377.6622255650391
 21
1410.035370363267
 31
0.0
  0
LINE
  5
63FD
  8
0
 62
     7
 10
3015.6622255650391
 20
1383.368703696601
 30
0.0
 11
3112.4955588983721
 21
1383.368703696601
 31
0.0
  0
LINE
  5
63FE
  8
0
 62
     7
 10
3337.6622255650391
 20
1383.368703696601
 30
0.0
 11
3240.8288922317051
 21
1383.368703696601
 31
0.0
  0
SOLID
  5
63FF
  8
0
 62
     7
 10
3015.6622255650391
 20
1390.035370363267
 30
0.0
 11
3015.6622255650391
 21
1376.702037029934
 31
0.0
 12
2975.6622255650391
 22
1383.368703696601
 32
0.0
 13
2975.6622255650391
 23
1383.368703696601
 33
0.0
  0
SOLID
  5
6400
  8
0
 62
     7
 10
3337.6622255650391
 20
1390.035370363267
 30
0.0
 11
3337.6622255650391
 21
1376.702037029934
 31
0.0
 12
3377.6622255650391
 22
1383.368703696601
 32
0.0
 13
3377.6622255650391
 23
1383.368703696601
 33
0.0
  0
LINE
  5
6402
  8
0
 62
     7
 10
2659.6622255650391
 20
1164.333389580785
 30
0.0
 11
2659.6622255650391
 21
1475.2222516542361
 31
0.0
  0
LINE
  5
6403
  8
0
 62
     7
 10
3692.6622255650391
 20
1164.333389580785
 30
0.0
 11
3692.6622255650391
 21
1475.2222516542361
 31
0.0
  0
LINE
  5
6404
  8
0
 62
     7
 10
2699.6622255650391
 20
1448.5555849875691
 30
0.0
 11
3101.9955588983721
 21
1448.5555849875691
 31
0.0
  0
LINE
  5
6405
  8
0
 62
     7
 10
3652.66222556504
 20
1448.5555849875691
 30
0.0
 11
3250.3288922317038
 21
1448.5555849875691
 31
0.0
  0
SOLID
  5
6406
  8
0
 62
     7
 10
2699.6622255650391
 20
1455.2222516542361
 30
0.0
 11
2699.6622255650391
 21
1441.888918320903
 31
0.0
 12
2659.6622255650391
 22
1448.5555849875691
 32
0.0
 13
2659.6622255650391
 23
1448.5555849875691
 33
0.0
  0
SOLID
  5
6407
  8
0
 62
     7
 10
3652.66222556504
 20
1455.2222516542361
 30
0.0
 11
3652.66222556504
 21
1441.888918320903
 31
0.0
 12
3692.6622255650391
 22
1448.5555849875691
 32
0.0
 13
3692.6622255650391
 23
1448.5555849875691
 33
0.0
  0
LINE
  5
6409
  8
0
 62
     7
 10
2650.6622255650391
 20
325.33048750504082
 30
0.0
 11
2650.6622255650391
 21
366.77905356261471
 31
0.0
  0
LINE
  5
640A
  8
0
 62
     7
 10
2659.6622255650391
 20
325.33048750504082
 30
0.0
 11
2659.6622255650391
 21
366.77905356261471
 31
0.0
  0
LINE
  5
640B
  8
0
 62
     7
 10
2610.66222556504
 20
340.11238689594802
 30
0.0
 11
2570.6622255650391
 21
340.11238689594802
 31
0.0
  0
LINE
  5
640C
  8
0
 62
     7
 10
2699.6622255650391
 20
340.11238689594802
 30
0.0
 11
2739.66222556504
 21
340.11238689594802
 31
0.0
  0
SOLID
  5
640D
  8
0
 62
     7
 10
2610.66222556504
 20
346.77905356261482
 30
0.0
 11
2610.66222556504
 21
333.44572022928139
 31
0.0
 12
2650.6622255650391
 22
340.11238689594802
 32
0.0
 13
2650.6622255650391
 23
340.11238689594802
 33
0.0
  0
SOLID
  5
640E
  8
0
 62
     7
 10
2699.6622255650391
 20
346.77905356261482
 30
0.0
 11
2699.6622255650391
 21
333.44572022928139
 31
0.0
 12
2659.6622255650391
 22
340.11238689594802
 32
0.0
 13
2659.6622255650391
 23
340.11238689594802
 33
0.0
  0
TEXT
  5
6460
  8
0
 62
     7
 10
2536.4539540879541
 20
325.11238689594802
 30
0.0
 40
30.0
  1
9
  0
TEXT
  5
6461
  8
0
 62
     7
 10
3128.6622255650391
 20
1433.5555849875691
 30
0.0
 40
30.0
  1
1033
  0
TEXT
  5
6462
  8
0
 62
     7
 10
3139.1622255650391
 20
1368.368703696601
 30
0.0
 40
30.0
  1
402
  0
TEXT
  5
6463
  8
0
 62
     7
 10
2782.6622255650391
 20
1368.8470508756091
 30
0.0
 40
30.0
  1
316
  0
TEXT
  5
6464
  8
0
 62
     7
 10
3135.6622255650391
 20
1288.4790965346961
 30
0.0
 40
30.0
  1
832
  0
TEXT
  5
6465
  8
0
 62
     7
 10
2492.9955588983721
 20
1288.4790965346961
 30
0.0
 40
30.0
  1
100
  0
TEXT
  5
6466
  8
0
 62
     7
 10
3070.6622255650391
 20
89.702393749469124
 30
0.0
 40
30.0
  1
1050 O/A
  0
TEXT
  5
6467
  8
0
 62
     7
 10
3053.66222556504
 20
154.84036706191409
 30
0.0
 40
30.0
  1
1004 CTRS
  0
TEXT
  5
6468
  8
0
 62
     7
 10
2523.9955588983712
 20
155.04529474663781
 30
0.0
 40
30.0
  1
21
  0
TEXT
  5
6469
  8
0
 62
     7
 10
1651.0341133380871
 20
1302.154024655375
 30
0.0
 40
30.0
  1
1104
  0
TEXT
  5
646A
  8
0
 62
     7
 10
1618.537677196314
 20
1380.6221568660851
 30
0.0
 40
30.0
  1
1164 O/A
  0
TEXT
  5
646B
  8
0
 62
     7
 10
2446.6846762033501
 20
956.91707841162793
 30
0.0
 40
30.0
  1
224
 50
90.0
  0
TEXT
  5
646C
  8
0
 62
     7
 10
2445.7735945669028
 20
513.0905449233469
 30
0.0
 40
30.0
  1
342
 50
90.0
  0
TEXT
  5
646D
  8
0
 62
     7
 10
2445.7735945669028
 20
768.75725145821775
 30
0.0
 40
30.0
  1
159
 50
90.0
  0
TEXT
  5
646E
  8
0
 62
     7
 10
2446.163214145487
 20
294.16382083837431
 30
0.0
 40
30.0
  1
110
 50
90.0
  0
TEXT
  5
6470
  8
0
 62
     7
 10
1578.0360143388821
 20
154.34741475213241
 30
0.0
 40
30.0
  1
725 CTRS
  0
TEXT
  5
6471
  8
0
 62
     7
 10
1180.2860143388821
 20
154.34741475213241
 30
0.0
 40
30.0
  1
187.5
  0
TEXT
  5
6750
  8
0
 10
1350.490925594019
 20
2642.2944312665172
 30
0.0
 40
62.999999998424997
  1
100RKTH
  7
TITLE5
 72
     1
 11
1545.4909255891439
 21
2642.2944312665172
 31
0.0
  0
LINE
  5
68C4
  8
0
  6
PHANTOM2
 10
1141.5360143388791
 20
3602.1305085760268
 30
0.0
 11
1909.359902832608
 21
3602.13050857603
 31
0.0
  0
LINE
  5
68C7
  8
0
  6
PHANTOM2
 10
1111.6736756019641
 20
3100.954397069755
 30
0.0
 11
641.53242631655485
 21
3100.954397069755
 31
0.0
  0
LINE
  5
68C8
  8
0
  6
PHANTOM2
 10
1909.359902832608
 20
3131.9928473129471
 30
0.0
 11
1909.359902832608
 21
3602.13050857603
 31
0.0
  0
TEXT
  5
68C9
  8
0
 10
1201.7507966451669
 20
3539.2593085326271
 30
0.0
 40
40.0
  1
500 min CLEARANCE
  7
TITLE3
  0
LINE
  5
6B9E
  8
0
 62
     7
 10
1254.5360143388821
 20
1244.663820838374
 30
0.0
 11
1824.5360143388821
 21
1244.663820838374
 31
0.0
  0
LINE
  5
6BB1
  8
0
 62
     7
 10
1030.6825041562511
 20
266.66382083837402
 30
0.0
 11
1257.6614333776629
 21
266.66382083837368
 31
0.0
  0
LINE
  5
6BB2
  8
0
 62
     7
 10
1030.6825041562511
 20
1244.663820838374
 30
0.0
 11
1088.276657140424
 21
1244.663820838374
 31
0.0
  0
LINE
  5
6BB3
  8
0
 62
     7
 10
1061.6099904737571
 20
306.66382083837402
 30
0.0
 11
1061.6099904737571
 21
355.61228596279739
 31
0.0
  0
SOLID
  5
6BB4
  8
0
 62
     7
 10
1054.943323807091
 20
306.66382083837402
 30
0.0
 11
1068.276657140425
 21
306.66382083837402
 31
0.0
 12
1061.6099904737571
 22
266.66382083837402
 32
0.0
 13
1061.6099904737571
 23
266.66382083837402
 33
0.0
  0
SOLID
  5
6BB5
  8
0
 62
     7
 10
1054.943323807091
 20
1204.663820838374
 30
0.0
 11
1068.276657140425
 21
1204.663820838374
 31
0.0
 12
1061.6099904737571
 22
1244.663820838374
 32
0.0
 13
1061.6099904737571
 23
1244.663820838374
 33
0.0
  0
LINE
  5
6BB7
  8
0
 62
     7
 10
1061.6099904737571
 20
306.66382083837402
 30
0.0
 11
1061.6099904737571
 21
653.2566434410719
 31
0.0
  0
SOLID
  5
6BB8
  8
0
 62
     7
 10
1054.943323807091
 20
306.66382083837402
 30
0.0
 11
1068.276657140425
 21
306.66382083837402
 31
0.0
 12
1061.6099904737571
 22
266.66382083837402
 32
0.0
 13
1061.6099904737571
 23
266.66382083837402
 33
0.0
  0
LINE
  5
6BB9
  8
0
 62
     7
 10
1030.6825041562511
 20
1244.663820838374
 30
0.0
 11
1241.2246651735579
 21
1244.663820838374
 31
0.0
  0
LINE
  5
6BBA
  8
0
 62
     7
 10
1061.220370895174
 20
1244.663820838374
 30
0.0
 11
1061.220370895174
 21
1204.663820838374
 31
0.0
  0
LINE
  5
6BBB
  8
0
 62
     7
 10
1061.6099904737571
 20
1167.612285962796
 30
0.0
 11
1061.6099904737571
 21
1204.663820838374
 31
0.0
  0
TEXT
  5
6BBC
  8
0
 62
     7
 10
1076.220370895172
 20
660.75763217589872
 30
0.0
 40
30.0
  1
978 O/A
 50
90.0
  0
LINE
  5
6BCC
  8
0
 62
     7
 10
1061.6099904737571
 20
863.2566434410719
 30
0.0
 11
1061.6099904737571
 21
1244.663820838374
 31
0.0
  0
LINE
  5
6BD0
  8
0
 62
     7
 10
3002.6622255650391
 20
1244.663820838374
 30
0.0
 11
3002.6622255650391
 21
1137.6667229141181
 31
0.0
  0
LINE
  5
6BD1
  8
0
 62
     7
 10
3572.6622255650391
 20
1244.663820838374
 30
0.0
 11
3572.6622255650391
 21
1137.6667229141181
 31
0.0
  0
LINE
  5
6BD2
  8
0
 62
     7
 10
3002.6622255650391
 20
1244.663820838374
 30
0.0
 11
3572.6622255650391
 21
1244.663820838374
 31
0.0
  0
LINE
  5
6BD4
  8
0
 62
     7
 10
3675.6622255650391
 20
276.66382083837391
 30
0.0
 11
3675.6622255650391
 21
256.66382083837402
 31
0.0
  0
ENDSEC
  0
EOF
