  0
SECTION
  2
HEADER
  9
$ACADVER
  1
AC1009
  9
$INSBASE
 10
0.0
 20
0.0
 30
0.0
  9
$EXTMIN
 10
1430.4734966693809
 20
-0.0811303068703637
 30
-0.0000000000000053
  9
$EXTMAX
 10
3890.0829601125188
 20
2100.3247471216869
 30
0.0000000000000099
  9
$LIMMIN
 10
0.0
 20
0.0
  9
$LIMMAX
 10
3890.0
 20
2660.0
  9
$ORTHOMODE
 70
     1
  9
$REGENMODE
 70
     1
  9
$FILLMODE
 70
     1
  9
$QTEXTMODE
 70
     0
  9
$MIRRTEXT
 70
     0
  9
$DRAGMODE
 70
     2
  9
$LTSCALE
 40
25.0
  9
$OSMODE
 70
     0
  9
$ATTMODE
 70
     1
  9
$TEXTSIZE
 40
25.0
  9
$TRACEWID
 40
0.05
  9
$TEXTSTYLE
  7
SIMPLEX
  9
$CLAYER
  8
DIM
  9
$CELTYPE
  6
BYLAYER
  9
$CECOLOR
 62
   256
  9
$DIMSCALE
 40
1.0
  9
$DIMASZ
 40
30.0
  9
$DIMEXO
 40
20.0
  9
$DIMDLI
 40
0.38
  9
$DIMRND
 40
0.0
  9
$DIMDLE
 40
0.0
  9
$DIMEXE
 40
20.0
  9
$DIMTP
 40
0.0
  9
$DIMTM
 40
0.0
  9
$DIMTXT
 40
30.0
  9
$DIMCEN
 40
0.09
  9
$DIMTSZ
 40
0.0
  9
$DIMTOL
 70
     0
  9
$DIMLIM
 70
     0
  9
$DIMTIH
 70
     0
  9
$DIMTOH
 70
     0
  9
$DIMSE1
 70
     0
  9
$DIMSE2
 70
     0
  9
$DIMTAD
 70
     0
  9
$DIMZIN
 70
     0
  9
$DIMBLK
  1

  9
$DIMASO
 70
     0
  9
$DIMSHO
 70
     0
  9
$DIMPOST
  1

  9
$DIMAPOST
  1

  9
$DIMALT
 70
     0
  9
$DIMALTD
 70
     2
  9
$DIMALTF
 40
25.399999999999999
  9
$DIMLFAC
 40
1.0
  9
$DIMTOFL
 70
     0
  9
$DIMTVP
 40
0.0
  9
$DIMTIX
 70
     0
  9
$DIMSOXD
 70
     0
  9
$DIMSAH
 70
     0
  9
$DIMBLK1
  1

  9
$DIMBLK2
  1

  9
$DIMSTYLE
  2
STANDARD
  9
$DIMCLRD
 70
   256
  9
$DIMCLRE
 70
   256
  9
$DIMCLRT
 70
   256
  9
$DIMTFAC
 40
1.0
  9
$DIMGAP
 40
20.0
  9
$LUNITS
 70
     2
  9
$LUPREC
 70
     2
  9
$SKETCHINC
 40
0.1
  9
$FILLETRAD
 40
0.0
  9
$AUNITS
 70
     0
  9
$AUPREC
 70
     2
  9
$MENU
  1
\acad12\support\cnc
  9
$ELEVATION
 40
0.0
  9
$PELEVATION
 40
0.0
  9
$THICKNESS
 40
0.0
  9
$LIMCHECK
 70
     0
  9
$BLIPMODE
 70
     0
  9
$CHAMFERA
 40
0.0
  9
$CHAMFERB
 40
0.0
  9
$SKPOLY
 70
     0
  9
$TDCREATE
 40
2451409.6119530089
  9
$TDUPDATE
 40
2454421.6096628238
  9
$TDINDWG
 40
0.6664627083
  9
$TDUSRTIMER
 40
0.6664619792000001
  9
$USRTIMER
 70
     1
  9
$ANGBASE
 50
0.0
  9
$ANGDIR
 70
     0
  9
$PDMODE
 70
     2
  9
$PDSIZE
 40
10.0
  9
$PLINEWID
 40
0.0
  9
$COORDS
 70
     1
  9
$SPLFRAME
 70
     0
  9
$SPLINETYPE
 70
     6
  9
$SPLINESEGS
 70
     8
  9
$ATTDIA
 70
     1
  9
$ATTREQ
 70
     1
  9
$HANDLING
 70
     1
  9
$HANDSEED
  5
1CE3
  9
$SURFTAB1
 70
     6
  9
$SURFTAB2
 70
     6
  9
$SURFTYPE
 70
     6
  9
$SURFU
 70
     6
  9
$SURFV
 70
     6
  9
$UCSNAME
  2

  9
$UCSORG
 10
0.0
 20
0.0
 30
0.0
  9
$UCSXDIR
 10
1.0
 20
0.0
 30
0.0
  9
$UCSYDIR
 10
0.0
 20
1.0
 30
0.0
  9
$PUCSNAME
  2

  9
$PUCSORG
 10
0.0
 20
0.0
 30
0.0
  9
$PUCSXDIR
 10
1.0
 20
0.0
 30
0.0
  9
$PUCSYDIR
 10
0.0
 20
1.0
 30
0.0
  9
$USERI1
 70
     0
  9
$USERI2
 70
     0
  9
$USERI3
 70
     0
  9
$USERI4
 70
     0
  9
$USERI5
 70
     0
  9
$USERR1
 40
0.0
  9
$USERR2
 40
0.0
  9
$USERR3
 40
0.0
  9
$USERR4
 40
0.0
  9
$USERR5
 40
0.0
  9
$WORLDVIEW
 70
     1
  9
$SHADEDGE
 70
     3
  9
$SHADEDIF
 70
    70
  9
$TILEMODE
 70
     1
  9
$MAXACTVP
 70
    16
  9
$PLIMCHECK
 70
     0
  9
$PEXTMIN
 10
1.0000000000000000E+020
 20
1.0000000000000000E+020
 30
1.0000000000000000E+020
  9
$PEXTMAX
 10
-1.0000000000000000E+020
 20
-1.0000000000000000E+020
 30
-1.0000000000000000E+020
  9
$PLIMMIN
 10
0.0
 20
0.0
  9
$PLIMMAX
 10
12.0
 20
9.0
  9
$UNITMODE
 70
     0
  9
$VISRETAIN
 70
     0
  9
$PLINEGEN
 70
     0
  9
$PSLTSCALE
 70
     0
  0
ENDSEC
  0
SECTION
  2
TABLES
  0
TABLE
  2
VPORT
 70
     1
  0
VPORT
  2
*ACTIVE
 70
     0
 10
0.0
 20
0.0
 11
1.0
 21
1.0
 12
2660.2782283909501
 22
1050.121808407408
 13
0.0
 23
0.0
 14
25.0
 24
25.0
 15
100.0
 25
100.0
 16
0.0
 26
0.0
 36
1.0
 17
0.0
 27
0.0
 37
0.0
 40
2113.3580205576141
 41
1.8899176954732511
 42
50.0
 43
0.0
 44
0.0
 50
0.0
 51
0.0
 71
     0
 72
   100
 73
     1
 74
     0
 75
     0
 76
     0
 77
     0
 78
     0
  0
ENDTAB
  0
TABLE
  2
LTYPE
 70
    17
  0
LTYPE
  2
CONTINUOUS
 70
     0
  3
Solid line
 72
    65
 73
     0
 40
0.0
  0
LTYPE
  2
HIDDEN
 70
     0
  3
Hidden __ __ __ __ __ __ __ __ __ __ __ __ __ _
 72
    65
 73
     2
 40
0.375
 49
0.25
 49
-0.125
  0
LTYPE
  2
PHANTOM2
 70
     0
  3
Phantom (.5x) ___ _ _ ___ _ _ ___ _ _ ___ _ _
 72
    65
 73
     6
 40
1.25
 49
0.625
 49
-0.125
 49
0.125
 49
-0.125
 49
0.125
 49
-0.125
  0
LTYPE
  2
CENTER
 70
     0
  3
Center ____ _ ____ _ ____ _ ____ _ ____ _ ____
 72
    65
 73
     4
 40
2.0
 49
1.25
 49
-0.25
 49
0.25
 49
-0.25
  0
LTYPE
  2
AM_ISO02W050
 70
     0
  3
__ __ __ __ __ __ __ __ __ __ __ __ __ __ __
 72
    65
 73
     2
 40
7.5
 49
6.0
 49
-1.5
  0
LTYPE
  2
AM_ISO08W050
 70
     0
  3
____ . ____ . ____ . ____ . ____ . ____ . ____
 72
    65
 73
     4
 40
18.0
 49
12.0
 49
-1.5
 49
3.0
 49
-1.5
  0
LTYPE
  2
AM_ISO09W050
 70
     0
  3
_____ . . _____ . . _____ . . ____ .. ____
 72
    65
 73
     6
 40
22.5
 49
12.0
 49
-1.5
 49
3.0
 49
-1.5
 49
3.0
 49
-1.5
  0
LTYPE
  2
AMCONSTR
 70
     0
  3
_______________________
 72
    65
 73
     2
 40
9999.0
 49
9999.0
 49
0.0
  0
LTYPE
  2
AM_ISO08W050X2
 70
     0
  3
__ . __ . __ . __ . __ . __
 72
    65
 73
     4
 40
9.0
 49
6.0
 49
-0.75
 49
1.5
 49
-0.75
  0
LTYPE
  2
AM_ISO02W050X2
 70
     0
  3
 _ _ _ _ _ _ _ _ _ _ _ _
 72
    65
 73
     2
 40
3.75
 49
3.0
 49
-0.75
  0
LTYPE
  2
AMZIGZAG
 70
     0
  3
/\/-/\/-/\/-/\/-/\/-/\/
 72
    65
 73
     2
 40
11.0001
 49
0.0001
 49
-11.0
  0
LTYPE
  2
CENTER2
 70
     0
  3
Center (.5x) ___ _ ___ _ ___ _ ___ _ ___ _ ___
 72
    65
 73
     4
 40
1.125
 49
0.75
 49
-0.125
 49
0.125
 49
-0.125
  0
LTYPE
  2
HIDDEN2
 70
     0
  3
Hidden (.5x) _ _ _ _ _ _ _ _ _ _ _ _ _ _ _ _ _
 72
    65
 73
     2
 40
0.1875
 49
0.125
 49
-0.0625
  0
LTYPE
  2
AMZIGZAG2
 70
     0
  3
/\/-/\/-/\/-/\/-/\/-/\/
 72
    65
 73
     2
 40
0.4401
 49
0.0001
 49
-0.4400000000000003
  0
LTYPE
  2
ACANSTGB
 70
     0
  3
__ . . __ . .
 72
    65
 73
     6
 40
0.35433070866
 49
0.15748031496
 49
-0.03937007874
 49
0.03937007874
 49
-0.03937007874
 49
0.03937007874
 49
-0.03937007874
  0
LTYPE
  2
ACANSTGL
 70
     0
  3
_ _ _ _ _
 72
    65
 73
     2
 40
0.11811023622
 49
0.07874015748
 49
-0.03937007874
  0
ENDTAB
  0
TABLE
  2
LAYER
 70
     5
  0
LAYER
  2
0
 70
     0
 62
     7
  6
CONTINUOUS
  0
LAYER
  2
DIM
 70
     0
 62
     7
  6
CONTINUOUS
  0
LAYER
  2
TEXT
 70
     0
 62
   100
  6
CONTINUOUS
  0
LAYER
  2
OUTLINE
 70
     0
 62
     7
  6
CONTINUOUS
  0
LAYER
  2
OVERLAY-A3
 70
     0
 62
     7
  6
CONTINUOUS
  0
ENDTAB
  0
TABLE
  2
STYLE
 70
     7
  0
STYLE
  2
STANDARD
 70
     0
 40
0.0
 41
1.0
 50
0.0
 71
     0
 42
0.2
  3
txt
  4

  0
STYLE
  2
SIMPLEX
 70
     0
 40
30.0
 41
1.0
 50
0.0
 71
     0
 42
25.0
  3
SIMPLEX.shx
  4

  0
STYLE
  2
TITLE3
 70
     0
 40
25.0
 41
1.0
 50
0.0
 71
     0
 42
25.0
  3
SIMPLEX
  4

  0
STYLE
  2
TITLE5
 70
     0
 40
50.0
 41
1.0
 50
0.0
 71
     0
 42
50.0
  3
SIMPLEX
  4

  0
STYLE
  2

 70
     1
 40
0.0
 41
1.0
 50
0.0
 71
     0
 42
25.0
  3
genltshp.shx
  4

  0
STYLE
  2
ACANSTS
 70
     0
 40
1.0
 41
1.0
 50
0.0
 71
     0
 42
25.0
  3
romans.shx
  4

  0
STYLE
  2
ACANSGDT
 70
     0
 40
0.0
 41
1.0
 50
0.0
 71
     0
 42
25.0
  3
amgdt.shx
  4

  0
ENDTAB
  0
TABLE
  2
VIEW
 70
     0
  0
ENDTAB
  0
TABLE
  2
UCS
 70
     0
  0
ENDTAB
  0
TABLE
  2
APPID
 70
    10
  0
APPID
  2
ACAD
 70
     0
  0
APPID
  2
MCAD_NO_VIS
 70
     0
  0
APPID
  2
ACAD_TEMP_GRAPHIC
 70
     0
  0
APPID
  2
AD_DRAW
 70
     0
  0
APPID
  2
ACATTRIBSERVICES
 70
     0
  0
APPID
  2
DESIGNERASSEMBLIES
 70
     0
  0
APPID
  2
ACADM_DIM_EDIT
 70
     0
  0
APPID
  2
AMDT_DM_ADJ
 70
     0
  0
APPID
  2
ACAD_EXEMPT_FROM_CAD_STANDARDS
 70
     0
  0
APPID
  2
ACAD_PSEXT
 70
     0
  0
ENDTAB
  0
TABLE
  2
DIMSTYLE
 70
     8
  0
DIMSTYLE
  2
STANDARD
 70
     0
  3

  4

  5

  6

  7

 40
1.0
 41
0.18
 42
0.0625
 43
0.38
 44
0.18
 45
0.0
 46
0.0
 47
0.0
 48
0.0
140
0.18
141
0.09
142
0.0
143
25.399999999999999
144
1.0
145
0.0
146
1.0
147
0.09
 71
     0
 72
     0
 73
     1
 74
     1
 75
     0
 76
     0
 77
     0
 78
     0
170
     0
171
     2
172
     0
173
     0
174
     0
175
     0
176
     0
177
     0
178
     0
  0
DIMSTYLE
  2
AM_ANSI
 70
     0
  3

  4
mm
  5

  6

  7

 40
1.0
 41
0.1
 42
0.05
 43
0.5
 44
0.1
 45
0.0
 46
0.0
 47
0.1
 48
0.1
140
0.12
141
0.0
142
0.0
143
25.399999999999999
144
1.0
145
0.0
146
0.71
147
0.06
 71
     0
 72
     0
 73
     1
 74
     1
 75
     0
 76
     0
 77
     0
 78
     7
170
     0
171
     2
172
     0
173
     0
174
     0
175
     0
176
   256
177
   256
178
     2
  0
DIMSTYLE
  2
AM_ANSI$3
 70
     0
  3

  4
mm
  5

  6

  7

 40
1.0
 41
0.1
 42
0.05
 43
0.5
 44
0.1
 45
0.0
 46
0.0
 47
0.1
 48
0.1
140
0.12
141
0.0
142
0.0
143
25.399999999999999
144
1.0
145
0.0
146
0.71
147
0.06
 71
     0
 72
     0
 73
     1
 74
     1
 75
     0
 76
     0
 77
     0
 78
     7
170
     0
171
     2
172
     0
173
     0
174
     0
175
     0
176
   256
177
   256
178
     2
  0
DIMSTYLE
  2
AM_ANSI$4
 70
     0
  3

  4
mm
  5

  6

  7

 40
1.0
 41
0.1
 42
0.05
 43
0.5
 44
0.1
 45
0.0
 46
0.0
 47
0.1
 48
0.1
140
0.12
141
0.0
142
0.0
143
25.399999999999999
144
1.0
145
0.0
146
0.71
147
0.06
 71
     0
 72
     0
 73
     1
 74
     1
 75
     0
 76
     0
 77
     0
 78
     7
170
     0
171
     2
172
     0
173
     0
174
     0
175
     0
176
   256
177
   256
178
     2
  0
DIMSTYLE
  2
AM_ANSI$7
 70
     0
  3

  4
mm
  5

  6

  7

 40
1.0
 41
0.1
 42
0.05
 43
0.5
 44
0.1
 45
0.0
 46
0.0
 47
0.1
 48
0.1
140
0.24
141
0.0
142
0.0
143
25.399999999999999
144
1.0
145
0.0
146
0.71
147
0.06
 71
     0
 72
     0
 73
     1
 74
     1
 75
     0
 76
     0
 77
     0
 78
     7
170
     0
171
     2
172
     0
173
     0
174
     0
175
     0
176
   256
177
   256
178
     2
  0
DIMSTYLE
  2
AM_ANSI$SF
 70
     0
  3

  4
mm
  5

  6

  7

 40
1.0
 41
0.1
 42
0.05
 43
0.5
 44
0.1
 45
0.0
 46
0.0
 47
0.1
 48
0.1
140
0.12
141
0.0
142
0.0
143
25.399999999999999
144
1.0
145
0.0
146
0.71
147
0.06
 71
     0
 72
     0
 73
     1
 74
     1
 75
     1
 76
     1
 77
     0
 78
     7
170
     0
171
     2
172
     0
173
     0
174
     0
175
     0
176
   256
177
   256
178
     2
  0
DIMSTYLE
  2
AM_ANSI$SH
 70
     0
  3

  4
mm
  5

  6

  7

 40
1.0
 41
0.1
 42
0.05
 43
0.5
 44
0.1
 45
0.0
 46
0.0
 47
0.1
 48
0.1
140
0.12
141
0.0
142
0.0
143
25.399999999999999
144
1.0
145
0.0
146
0.71
147
0.06
 71
     0
 72
     0
 73
     1
 74
     1
 75
     1
 76
     1
 77
     0
 78
     7
170
     0
171
     2
172
     0
173
     1
174
     0
175
     0
176
   256
177
   256
178
     2
  0
ENDTAB
  0
ENDSEC
  0
SECTION
  2
BLOCKS
  0
BLOCK
  8
0
  2
$MODEL_SPACE
 70
     0
 10
0.0
 20
0.0
 30
0.0
  3
$MODEL_SPACE
  1

  0
ENDBLK
  5
1BAF
  8
0
  0
BLOCK
 67
     1
  8
0
  2
$PAPER_SPACE
 70
     0
 10
0.0
 20
0.0
 30
0.0
  3
$PAPER_SPACE
  1

  0
ENDBLK
  5
1BAB
 67
     1
  8
0
  0
BLOCK
  8
0
  2
NEW_BLOCK
 70
     0
 10
0.0
 20
0.0
 30
0.0
  3
NEW_BLOCK
  1

  0
TEXT
  5
B67
  8
TEXT
 10
27.285946821803002
 20
25.27142175952417
 30
0.0
 40
40.0
  1
available on request
  7
TITLE3
  0
TEXT
  5
B68
  8
TEXT
 10
27.285946821803002
 20
93.842850330952714
 30
0.0
 40
40.0
  1
Certified dimensions
  7
TITLE3
  0
TEXT
  5
B69
  8
TEXT
 10
27.285946821803002
 20
162.4142789023812
 30
0.0
 40
40.0
  1
without notice or obligation.
  7
TITLE3
  0
TEXT
  5
B6A
  8
TEXT
 10
27.285946821803002
 20
230.9857074738097
 30
0.0
 40
40.0
  1
specifications at any time
  7
TITLE3
  0
TEXT
  5
B6B
  8
TEXT
 10
27.285946821803002
 20
299.55713604523839
 30
0.0
 40
40.0
  1
the right to change 
  7
TITLE3
  0
TEXT
  5
B6C
  8
TEXT
 10
27.285946821803002
 20
436.69999318809488
 30
0.0
 40
40.0
  1
NOTE
  7
TITLE3
  0
TEXT
  5
B6D
  8
TEXT
 10
27.285946821803002
 20
368.12856461666678
 30
0.0
 40
40.0
  1
The manufacturer reserves
  7
TITLE3
  0
ENDBLK
  5
B6E
  8
0
  0
BLOCK
  8
0
  2
GENAXEH
 70
     0
 10
0.0
 20
0.0
 30
0.0
  3
GENAXEH
  1

  0
LINE
  5
D72
  8
0
 10
-1.0
 20
0.0
 30
0.0
 11
1.0
 21
0.0
 31
0.0
  0
ENDBLK
  5
D74
  8
0
  0
BLOCK
  8
0
  2
*U4
 70
     1
 10
0.0
 20
0.0
 30
0.0
  3
*U4
  1

  0
TEXT
  5
15DB
  8
DIM
 10
2091.8763942558762
 20
1169.6502760910109
 30
0.0
 40
30.0
  1
825 HANGING CTRS
  0
ENDBLK
  5
15DD
  8
0
  0
BLOCK
  8
0
  2
*U5
 70
     1
 10
0.0
 20
0.0
 30
0.0
  3
*U5
  1

  0
TEXT
  5
15DF
  8
DIM
 10
1921.876394255876
 20
1107.627356150924
 30
0.0
 40
30.0
  1
900 OPTIONAL SPRING MTG CTRS
  0
ENDBLK
  5
15E1
  8
0
  0
BLOCK
  8
0
  2
*U6
 70
     1
 10
0.0
 20
0.0
 30
0.0
  3
*U6
  1

  0
TEXT
  5
15E3
  8
DIM
 10
1774.076394255876
 20
1973.8238483064431
 30
0.0
 40
30.0
  1
40
  0
ENDBLK
  5
15E5
  8
0
  0
BLOCK
  8
0
  2
*U7
 70
     1
 10
0.0
 20
0.0
 30
0.0
  3
*U7
  1

  0
TEXT
  5
15E7
  8
DIM
 10
2137.7763942558772
 20
1973.578120686029
 30
0.0
 40
30.0
  1
478
  0
ENDBLK
  5
15E9
  8
0
  0
BLOCK
  8
0
  2
*U8
 70
     1
 10
0.0
 20
0.0
 30
0.0
  3
*U8
  1

  0
TEXT
  5
15EB
  8
DIM
 10
1769.0763942558769
 20
839.620606874023
 30
0.0
 40
30.0
  1
52
  0
ENDBLK
  5
15ED
  8
0
  0
BLOCK
  8
0
  2
*U9
 70
     1
 10
0.0
 20
0.0
 30
0.0
  3
*U9
  1

  0
TEXT
  5
15EF
  8
DIM
 10
2149.5763942558769
 20
839.53877973191641
 30
0.0
 40
30.0
  1
477
  0
ENDBLK
  5
15F1
  8
0
  0
BLOCK
  8
0
  2
*U10
 70
     1
 10
0.0
 20
0.0
 30
0.0
  3
*U10
  1

  0
TEXT
  5
15F3
  8
DIM
 10
2221.8763942558771
 20
903.44540194757428
 30
0.0
 40
30.0
  1
846 O/A
  0
ENDBLK
  5
15F5
  8
0
  0
BLOCK
  8
0
  2
*U11
 70
     1
 10
0.0
 20
0.0
 30
0.0
  3
*U11
  1

  0
TEXT
  5
15F7
  8
DIM
 10
1796.7110916231661
 20
539.28307750230908
 30
0.0
 40
30.0
  1
350 O/A
 50
90.0
  0
ENDBLK
  5
15F9
  8
0
  0
BLOCK
  8
0
  2
*U12
 70
     1
 10
0.0
 20
0.0
 30
0.0
  3
*U12
  1

  0
TEXT
  5
15FB
  8
DIM
 10
2900.1655178475498
 20
603.28307750230931
 30
0.0
 40
30.0
  1
337
 50
90.0
  0
ENDBLK
  5
15FD
  8
0
  0
BLOCK
  8
0
  2
*U13
 70
     1
 10
0.0
 20
0.0
 30
0.0
  3
*U13
  1

  0
TEXT
  5
15FF
  8
DIM
 10
2840.3053354073272
 20
615.32902254235671
 30
0.0
 40
30.0
  1
111
 50
90.0
  0
ENDBLK
  5
1601
  8
0
  0
BLOCK
  8
0
  2
*U14
 70
     1
 10
0.0
 20
0.0
 30
0.0
  3
*U14
  1

  0
TEXT
  5
1603
  8
DIM
 10
3085.6972662228591
 20
891.78307750230908
 30
0.0
 40
30.0
  1
39
 50
90.0
  0
ENDBLK
  5
1605
  8
0
  0
BLOCK
  8
0
  2
*U15
 70
     1
 10
0.0
 20
0.0
 30
0.0
  3
*U15
  1

  0
TEXT
  5
1607
  8
DIM
 10
3085.6819240103109
 20
604.28307750230931
 30
0.0
 40
30.0
  1
257
 50
90.0
  0
ENDBLK
  5
1609
  8
0
  0
BLOCK
  8
0
  2
*U16
 70
     1
 10
0.0
 20
0.0
 30
0.0
  3
*U16
  1

  0
TEXT
  5
160B
  8
DIM
 10
3847.823572455176
 20
891.78307750230931
 30
0.0
 40
30.0
  1
29
 50
90.0
  0
ENDBLK
  5
160D
  8
0
  0
BLOCK
  8
0
  2
*U17
 70
     1
 10
0.0
 20
0.0
 30
0.0
  3
*U17
  1

  0
TEXT
  5
160F
  8
DIM
 10
3847.823572455176
 20
614.48307750230924
 30
0.0
 40
30.0
  1
257
 50
90.0
  0
ENDBLK
  5
1611
  8
0
  0
BLOCK
  8
0
  2
*U18
 70
     1
 10
0.0
 20
0.0
 30
0.0
  3
*U18
  1

  0
TEXT
  5
1613
  8
DIM
 10
2954.4617922506932
 20
1514.6907355591241
 30
0.0
 40
30.0
  1
472 CTRS
 50
90.0
  0
ENDBLK
  5
1615
  8
0
  0
BLOCK
  8
0
  2
*U19
 70
     1
 10
0.0
 20
0.0
 30
0.0
  3
*U19
  1

  0
TEXT
  5
1617
  8
DIM
 10
2882.596627950757
 20
1517.1907355591241
 30
0.0
 40
30.0
  1
440 CTRS
 50
90.0
  0
ENDBLK
  5
1619
  8
0
  0
BLOCK
  8
0
  2
*U20
 70
     1
 10
0.0
 20
0.0
 30
0.0
  3
*U20
  1

  0
TEXT
  5
161B
  8
DIM
 10
3355.110182386908
 20
858.87767562589374
 30
0.0
 40
30.0
  1
103
  0
ENDBLK
  5
161D
  8
0
  0
BLOCK
  8
0
  2
*U21
 70
     1
 10
0.0
 20
0.0
 30
0.0
  3
*U21
  1

  0
TEXT
  5
161F
  8
DIM
 10
3373.3427641167218
 20
705.62936786208127
 30
0.0
 40
30.0
  1
75
  0
ENDBLK
  5
1621
  8
0
  0
BLOCK
  8
0
  2
*U22
 70
     1
 10
0.0
 20
0.0
 30
0.0
  3
*U22
  1

  0
TEXT
  5
1623
  8
DIM
 10
3373.3427641167218
 20
767.18850348168223
 30
0.0
 40
30.0
  1
56
  0
ENDBLK
  5
1625
  8
0
  0
BLOCK
  8
0
  2
*U23
 70
     1
 10
0.0
 20
0.0
 30
0.0
  3
*U23
  1

  0
TEXT
  5
1627
  8
DIM
 10
1796.698602351978
 20
1508.2307355591231
 30
0.0
 40
30.0
  1
677 O/A
 50
90.0
  0
ENDBLK
  5
1629
  8
0
  0
BLOCK
  8
0
  2
*U24
 70
     1
 10
0.0
 20
0.0
 30
0.0
  3
*U24
  1

  0
TEXT
  5
162B
  8
DIM
 10
2954.2307652224681
 20
1964.6907355591229
 30
0.0
 40
30.0
  1
19
 50
90.0
  0
ENDBLK
  5
162D
  8
0
  0
BLOCK
  8
0
  2
*U25
 70
     1
 10
0.0
 20
0.0
 30
0.0
  3
*U25
  1

  0
TEXT
  5
162F
  8
DIM
 10
2882.5981340099311
 20
1964.6907355591229
 30
0.0
 40
30.0
  1
35
 50
90.0
  0
ENDBLK
  5
1631
  8
0
  0
ENDSEC
  0
SECTION
  2
ENTITIES
  0
TEXT
  5
B6F
  8
TEXT
 10
2958.6720728569758
 20
271.50014060605099
 30
0.0
 40
50.0
  1
temperzone HWP 58
  7
TITLE5
 72
     1
 11
3344.386358571262
 21
271.50014060605099
 31
0.0
  0
TEXT
  5
B70
  8
TEXT
 10
3430.0
 20
70.0
 30
0.0
 40
30.0
  1
HWP58
 41
2.0099009900990099
  7
TITLE3
 72
     5
 11
3720.0
 21
70.0
 31
0.0
  0
TEXT
  5
B72
  8
OVERLAY-A3
 10
2847.2885441441222
 20
110.8312138601009
 30
0.0
 40
24.0
  1
Date
  7
SIMPLEX
  0
TEXT
  5
B73
  8
OVERLAY-A3
 10
3746.1111923736021
 20
129.50330202341121
 30
0.0
 40
24.0
  1
Revision
 41
0.7812095035934773
  7
SIMPLEX
 72
     5
 11
3851.4628740010648
 21
129.50330202341121
 31
0.0
  0
LINE
  5
B74
  8
OVERLAY-A3
 10
3734.49134999016
 20
20.842492848317129
 30
0.0
 11
3734.49134999016
 21
168.2686557085465
 31
0.0
  0
LINE
  5
B75
  8
OVERLAY-A3
 10
2819.3515294571471
 20
337.34263345436813
 30
0.0
 11
2819.3515294571471
 21
20.842492848317129
 31
0.0
  0
LINE
  5
B76
  8
OVERLAY-A3
 10
3416.9136780130939
 20
20.842492848317129
 30
0.0
 11
3416.9136780130939
 21
168.2686557085465
 31
0.0
  0
LINE
  5
B77
  8
OVERLAY-A3
 10
3416.9136780130939
 20
93.312599269463774
 30
0.0
 11
2819.3515294571471
 21
93.312599269463774
 31
0.0
  0
LINE
  5
B78
  8
OVERLAY-A3
 10
3861.5754652378409
 20
168.2686557085465
 30
0.0
 11
2819.3515294571471
 21
168.2686557085465
 31
0.0
  0
LINE
  5
B79
  8
OVERLAY-A3
 10
2819.3515294571471
 20
20.842492848317129
 30
0.0
 11
3861.2779580594911
 21
20.842492848317129
 31
0.0
  0
LINE
  5
B7A
  8
OVERLAY-A3
 10
3861.2779580594911
 20
20.842492848317129
 30
0.0
 11
3861.2779580594911
 21
337.34263345436813
 31
0.0
  0
LINE
  5
B7B
  8
OVERLAY-A3
 10
3861.2779580594911
 20
337.34263345436813
 30
0.0
 11
2819.3515294571471
 21
337.34263345436813
 31
0.0
  0
TEXT
  5
B7C
  8
OVERLAY-A3
 10
2844.4832191031091
 20
47.922488065357669
 30
0.0
 40
20.0
  1
Scale
 41
1.3701747965659721
  7
SIMPLEX
 72
     5
 11
2944.9627041846138
 21
47.922488065357669
 31
0.0
  0
TEXT
  5
B7D
  8
OVERLAY-A3
 10
3474.8591236007978
 20
128.8934315067097
 30
0.0
 40
20.0
  1
Drawing No.
  7
SIMPLEX
 72
     2
 11
3649.1448378865121
 21
128.8934315067097
 31
0.0
  0
LINE
  5
B7E
  8
OVERLAY-A3
 10
1430.578375694022
 20
0.0
 30
0.0
 11
3890.000000000156
 21
0.0
 31
0.0
  0
LINE
  5
B7F
  8
OVERLAY-A3
 10
3890.000000000156
 20
0.0
 30
0.0
 11
3890.000000000156
 21
2100.1421540734068
 31
0.0
  0
LINE
  5
B80
  8
OVERLAY-A3
 10
3890.000000000156
 20
2100.1421540734068
 30
0.0
 11
1430.578375694022
 21
2100.1421540734068
 31
0.0
  0
LINE
  5
B81
  8
OVERLAY-A3
 10
1430.578375694022
 20
2100.1421540734068
 30
0.0
 11
1430.578375694022
 21
0.0
 31
0.0
  0
TEXT
  5
C1A
  8
TEXT
 10
2950.7035006619162
 20
110.0
 30
0.0
 40
25.0
  1
29.10.07
 41
1.0338461538461501
  7
TITLE3
 72
     5
 11
3110.7035006619149
 21
110.0
 31
0.0
  0
TEXT
  5
C49
  8
TEXT
 10
3001.04344477519
 20
47.498612732809299
 30
0.0
 40
25.0
  1
1:10
  7
TITLE3
  0
INSERT
  5
C59
  8
TEXT
  2
NEW_BLOCK
 10
1470.557764683153
 20
31.27165940950507
 30
0.0
 41
0.6999999999999889
 42
0.7
 43
0.7
  0
LINE
  5
D9E
  8
OUTLINE
 10
2744.67639425588
 20
816.78307750230863
 30
0.0
 11
1634.076394255876
 21
816.78307750230863
 31
0.0
  0
LINE
  5
DAF
  8
OUTLINE
 10
2744.67639425588
 20
816.78307750230863
 30
0.0
 11
2744.67639425588
 21
808.78307750230931
 31
0.0
  0
LINE
  5
DC3
  8
OUTLINE
 10
1634.076394255876
 20
816.78307750230863
 30
0.0
 11
1634.076394255876
 21
808.78307750230681
 31
0.0
  0
LINE
  5
DD7
  8
OUTLINE
 10
1655.0763942558769
 20
816.78307750230863
 30
0.0
 11
1655.0763942558769
 21
489.78307750230869
 31
0.0
  0
LINE
  5
DDA
  8
OUTLINE
 10
2723.6763942558769
 20
816.78307750230863
 30
0.0
 11
2723.6763942558769
 21
745.78307750230863
 31
0.0
  0
LINE
  5
DDB
  8
OUTLINE
 10
2744.67639425588
 20
489.78307750230869
 30
0.0
 11
1634.076394255876
 21
489.78307750230869
 31
0.0
  0
LINE
  5
DDC
  8
OUTLINE
 10
2744.67639425588
 20
489.78307750230869
 30
0.0
 11
2744.67639425588
 21
497.78307750230829
 31
0.0
  0
LINE
  5
DDD
  8
OUTLINE
 10
1634.076394255876
 20
489.78307750230869
 30
0.0
 11
1634.076394255876
 21
497.78307750231062
 31
0.0
  0
LINE
  5
DF8
  8
OUTLINE
 10
1686.0763942558769
 20
772.78307750230863
 30
0.0
 11
1686.0763942558769
 21
515.78307750230886
 31
0.0
  0
LINE
  5
DF9
  8
OUTLINE
 10
2428.0763942558769
 20
772.78307750230852
 30
0.0
 11
1686.0763942558769
 21
772.78307750230863
 31
0.0
  0
LINE
  5
DFA
  8
OUTLINE
 10
2428.0763942558779
 20
515.78307750230886
 30
0.0
 11
1686.0763942558769
 21
515.78307750230886
 31
0.0
  0
LINE
  5
DFB
  8
OUTLINE
 10
2428.0763942558769
 20
772.78307750230852
 30
0.0
 11
2428.0763942558779
 21
515.78307750230886
 31
0.0
  0
LINE
  5
DFC
  8
OUTLINE
 10
2744.6763942558769
 20
745.78307750230863
 30
0.0
 11
2478.67639425588
 21
745.78307750230886
 31
0.0
  0
LINE
  5
DFD
  8
OUTLINE
 10
2744.67639425588
 20
508.78307750230869
 30
0.0
 11
2478.67639425588
 21
508.78307750230869
 31
0.0
  0
LINE
  5
DFE
  8
OUTLINE
 10
2478.67639425588
 20
745.78307750230886
 30
0.0
 11
2478.67639425588
 21
508.78307750230869
 31
0.0
  0
LINE
  5
DFF
  8
DIM
 10
2744.6763942558769
 20
745.78307750230863
 30
0.0
 11
2744.67639425588
 21
508.78307750230869
 31
0.0
  0
LINE
  5
E00
  8
OUTLINE
 10
2723.6763942558769
 20
508.78307750230869
 30
0.0
 11
2723.6763942558769
 21
489.78307750230869
 31
0.0
  0
LINE
  5
E1B
  8
DIM
 10
1655.0763942558769
 20
489.78307750230869
 30
0.0
 11
1655.0763942558769
 21
461.78307750230869
 31
0.0
  0
LINE
  5
E1C
  8
DIM
 10
2723.6763942558769
 20
489.78307750230869
 30
0.0
 11
2723.6763942558769
 21
474.78307750230869
 31
0.0
  0
LINE
  5
E1D
  8
DIM
 10
2723.6763942558769
 20
474.78307750230869
 30
0.0
 11
1655.0763942558769
 21
461.78307750230869
 31
0.0
  0
LINE
  5
E22
  8
OUTLINE
 10
2744.67639425588
 20
489.78307750230869
 30
0.0
 11
2744.67639425588
 21
481.78307750230891
 31
0.0
  0
LINE
  5
E23
  8
OUTLINE
 10
1634.076394255876
 20
489.78307750230869
 30
0.0
 11
1634.076394255876
 21
481.78307750230658
 31
0.0
  0
LINE
  5
E3D
  8
OUTLINE
 10
1655.0763942558769
 20
483.28307750230869
 30
0.0
 11
1630.076394255876
 21
483.28307750230869
 31
0.0
  0
LINE
  5
E3E
  8
OUTLINE
 10
1655.0763942558769
 20
464.28307750230869
 30
0.0
 11
1630.076394255876
 21
464.28307750230869
 31
0.0
  0
LINE
  5
E3F
  8
DIM
 10
1630.076394255876
 20
483.28307750230869
 30
0.0
 11
1630.076394255876
 21
464.28307750230869
 31
0.0
  0
LINE
  5
E59
  8
OUTLINE
 10
1655.0763942558769
 20
705.78307750230886
 30
0.0
 11
1589.0763942558769
 21
705.78307750230886
 31
0.0
  0
LINE
  5
E5A
  8
OUTLINE
 10
1593.576394255876
 20
705.78307750230886
 30
0.0
 11
1624.5763942558781
 21
705.78307750230886
 31
0.0
  0
LINE
  5
E5B
  8
OUTLINE
 10
1617.076394255876
 20
698.78307750230886
 30
0.0
 11
1597.0763942558769
 21
698.78307750230886
 31
0.0
  0
LINE
  5
E5C
  8
OUTLINE
 10
1589.0763942558769
 20
717.78307750230886
 30
0.0
 11
1589.0763942558769
 21
705.78307750230886
 31
0.0
  0
LINE
  5
E61
  8
OUTLINE
 10
1655.0763942558769
 20
775.78307750230863
 30
0.0
 11
1655.0763942558769
 21
715.78307750230886
 31
0.0
  0
LINE
  5
E66
  8
OUTLINE
 10
1655.0763942558769
 20
779.78307750230863
 30
0.0
 11
1643.076394255876
 21
779.78307750230863
 31
0.0
  0
LINE
  5
E67
  8
OUTLINE
 10
1643.076394255876
 20
717.78307750230886
 30
0.0
 11
1589.0763942558769
 21
717.78307750230886
 31
0.0
  0
LINE
  5
E68
  8
OUTLINE
 10
1643.076394255876
 20
779.78307750230863
 30
0.0
 11
1643.076394255876
 21
717.78307750230886
 31
0.0
  0
LINE
  5
E6E
  8
DIM
 10
1595.076394255876
 20
705.78307750230886
 30
0.0
 11
1597.0763942558769
 21
698.78307750230886
 31
0.0
  0
LINE
  5
E6F
  8
DIM
 10
1619.0763942558769
 20
705.78307750230886
 30
0.0
 11
1617.076394255876
 21
698.78307750230886
 31
0.0
  0
LINE
  5
E73
  8
OUTLINE
 10
2723.6763942558769
 20
779.78307750230863
 30
0.0
 11
2735.6763942558769
 21
779.78307750230863
 31
0.0
  0
LINE
  5
E75
  8
OUTLINE
 10
2761.6763942558769
 20
698.78307750230886
 30
0.0
 11
2781.6763942558769
 21
698.78307750230886
 31
0.0
  0
LINE
  5
E76
  8
OUTLINE
 10
2789.6763942558782
 20
717.78307750230886
 30
0.0
 11
2789.6763942558782
 21
705.78307750230886
 31
0.0
  0
LINE
  5
E77
  8
OUTLINE
 10
2723.6763942558769
 20
775.78307750230863
 30
0.0
 11
2723.6763942558769
 21
745.78307750230886
 31
0.0
  0
LINE
  5
E78
  8
OUTLINE
 10
2735.6763942558769
 20
779.78307750230863
 30
0.0
 11
2735.6763942558769
 21
745.78307750230863
 31
0.0
  0
LINE
  5
E79
  8
DIM
 10
2783.6763942558769
 20
705.78307750230886
 30
0.0
 11
2781.6763942558769
 21
698.78307750230886
 31
0.0
  0
LINE
  5
E7A
  8
DIM
 10
2759.6763942558769
 20
705.78307750230886
 30
0.0
 11
2761.6763942558769
 21
698.78307750230886
 31
0.0
  0
LINE
  5
E93
  8
OUTLINE
 10
3753.7101823869079
 20
816.78307750230863
 30
0.0
 11
3202.1101823869099
 21
816.78307750230863
 31
0.0
  0
LINE
  5
E94
  8
OUTLINE
 10
3202.1101823869099
 20
816.78307750230863
 30
0.0
 11
3202.1101823869099
 21
808.78307750230681
 31
0.0
  0
LINE
  5
E95
  8
OUTLINE
 10
3753.7101823869079
 20
816.78307750230863
 30
0.0
 11
3753.7101823869089
 21
808.78307750230681
 31
0.0
  0
LINE
  5
E96
  8
OUTLINE
 10
3753.7101823869079
 20
489.78307750230869
 30
0.0
 11
3202.1101823869099
 21
489.78307750230869
 31
0.0
  0
LINE
  5
E97
  8
OUTLINE
 10
3202.1101823869099
 20
489.78307750230869
 30
0.0
 11
3202.1101823869099
 21
497.78307750231062
 31
0.0
  0
LINE
  5
E98
  8
OUTLINE
 10
3753.7101823869079
 20
489.78307750230869
 30
0.0
 11
3753.7101823869089
 21
497.78307750231062
 31
0.0
  0
LINE
  5
E99
  8
OUTLINE
 10
3222.9101823869109
 20
816.78307750230863
 30
0.0
 11
3222.9101823869109
 21
779.78307750230863
 31
0.0
  0
LINE
  5
E9A
  8
OUTLINE
 10
3732.9101823869082
 20
816.78307750230726
 30
0.0
 11
3732.9101823869091
 21
779.78307750230863
 31
0.0
  0
LINE
  5
E9D
  8
OUTLINE
 10
3113.1101823869089
 20
745.78307750230863
 30
0.0
 11
3113.1101823869089
 21
508.78307750230869
 31
0.0
  0
LINE
  5
E9F
  8
OUTLINE
 10
3117.9901823869091
 20
772.78307750230886
 30
0.0
 11
3117.9901823869091
 21
746.78307750230863
 31
0.0
  0
LINE
  5
EA2
  8
DIM
  6
HIDDEN
 10
3117.9901823869091
 20
746.78307750230863
 30
0.0
 11
3117.9901823869091
 21
515.78307750230886
 31
0.0
  0
LINE
  5
EBC
  8
DIM
 10
3218.2101823869102
 20
705.78307750230886
 30
0.0
 11
3265.2101823869111
 21
705.78307750230863
 31
0.0
  0
LINE
  5
EBD
  8
DIM
 10
3218.2101823869102
 20
779.78307750230863
 30
0.0
 11
3265.2101823869111
 21
779.78307750230863
 31
0.0
  0
LINE
  5
EBE
  8
OUTLINE
 10
3218.2101823869102
 20
779.78307750230863
 30
0.0
 11
3218.2101823869102
 21
705.78307750230886
 31
0.0
  0
LINE
  5
EBF
  8
OUTLINE
 10
3265.2101823869111
 20
779.78307750230931
 30
0.0
 11
3265.2101823869111
 21
705.7830775023092
 31
0.0
  0
LINE
  5
EC0
  8
OUTLINE
 10
3222.9101823869082
 20
705.78307750230886
 30
0.0
 11
3222.9101823869082
 21
461.78307750230869
 31
0.0
  0
LINE
  5
EC2
  8
OUTLINE
 10
3231.7101823869102
 20
698.78307750230886
 30
0.0
 11
3251.7101823869089
 21
698.78307750230886
 31
0.0
  0
LINE
  5
EC3
  8
DIM
 10
3253.7101823869089
 20
705.78307750230886
 30
0.0
 11
3251.7101823869089
 21
698.78307750230886
 31
0.0
  0
LINE
  5
EC4
  8
DIM
 10
3229.7101823869089
 20
705.78307750230886
 30
0.0
 11
3231.7101823869102
 21
698.78307750230886
 31
0.0
  0
LINE
  5
EC5
  8
OUTLINE
 10
3737.610182386908
 20
779.78307750230863
 30
0.0
 11
3737.6101823869071
 21
705.78307750230886
 31
0.0
  0
LINE
  5
EC6
  8
OUTLINE
 10
3690.610182386908
 20
779.78307750230931
 30
0.0
 11
3690.6101823869071
 21
705.7830775023092
 31
0.0
  0
LINE
  5
EC7
  8
DIM
 10
3737.6101823869071
 20
717.78307750230886
 30
0.0
 11
3735.1101823869071
 21
717.78307750230886
 31
0.0
  0
LINE
  5
EC8
  8
DIM
 10
3737.6101823869071
 20
705.78307750230886
 30
0.0
 11
3690.6101823869071
 21
705.78307750230863
 31
0.0
  0
LINE
  5
EC9
  8
DIM
 10
3737.610182386908
 20
779.78307750230863
 30
0.0
 11
3690.6101823869071
 21
779.78307750230863
 31
0.0
  0
LINE
  5
ECA
  8
OUTLINE
 10
3724.110182386908
 20
698.78307750230886
 30
0.0
 11
3704.1101823869071
 21
698.78307750230886
 31
0.0
  0
LINE
  5
ECB
  8
DIM
 10
3702.110182386908
 20
705.78307750230886
 30
0.0
 11
3704.1101823869071
 21
698.78307750230886
 31
0.0
  0
LINE
  5
ECC
  8
DIM
 10
3726.110182386908
 20
705.78307750230886
 30
0.0
 11
3724.110182386908
 21
698.78307750230886
 31
0.0
  0
LINE
  5
ECD
  8
OUTLINE
 10
3732.9101823869141
 20
705.78307750230863
 30
0.0
 11
3732.9101823869269
 21
461.78307750230857
 31
0.0
  0
LINE
  5
ECE
  8
DIM
 10
3220.7101823869089
 20
708.28307750230886
 30
0.0
 11
3262.7101823869111
 21
708.28307750230886
 31
0.0
  0
LINE
  5
ECF
  8
OUTLINE
 10
3220.7101823869089
 20
779.78307750230863
 30
0.0
 11
3220.7101823869089
 21
708.28307750230886
 31
0.0
  0
LINE
  5
ED0
  8
OUTLINE
 10
3262.7101823869111
 20
779.78307750230931
 30
0.0
 11
3262.7101823869111
 21
708.28307750230886
 31
0.0
  0
LINE
  5
ED1
  8
OUTLINE
 10
3693.110182386908
 20
779.78307750230931
 30
0.0
 11
3693.1101823869062
 21
708.28307750230852
 31
0.0
  0
LINE
  5
ED2
  8
DIM
 10
3735.1101823869071
 20
708.28307750230852
 30
0.0
 11
3693.1101823869062
 21
708.28307750230852
 31
0.0
  0
LINE
  5
ED3
  8
OUTLINE
 10
3735.110182386908
 20
779.78307750230863
 30
0.0
 11
3735.1101823869071
 21
708.28307750230852
 31
0.0
  0
LINE
  5
ED4
  8
DIM
 10
3693.1101823869062
 20
717.78307750230863
 30
0.0
 11
3690.610182386908
 21
717.78307750230863
 31
0.0
  0
LINE
  5
ED5
  8
DIM
 10
3218.2101823869102
 20
717.78307750230886
 30
0.0
 11
3220.7101823869089
 21
717.78307750230886
 31
0.0
  0
LINE
  5
ED6
  8
DIM
 10
3262.7101823869111
 20
717.78307750230886
 30
0.0
 11
3265.2101823869111
 21
717.78307750230886
 31
0.0
  0
LINE
  5
EEF
  8
OUTLINE
 10
3753.7101823869079
 20
489.78307750230869
 30
0.0
 11
3753.7101823869089
 21
481.78307750230658
 31
0.0
  0
LINE
  5
EF0
  8
DIM
 10
3222.9101823869082
 20
474.78307750230869
 30
0.0
 11
3732.9101823869269
 21
474.78307750230857
 31
0.0
  0
LINE
  5
EF1
  8
DIM
 10
3222.9101823869082
 20
461.78307750230869
 30
0.0
 11
3732.9101823869269
 21
461.78307750230857
 31
0.0
  0
LINE
  5
EF2
  8
OUTLINE
 10
3202.1101823869099
 20
489.78307750230869
 30
0.0
 11
3202.110182386908
 21
481.78307750230658
 31
0.0
  0
LINE
  5
F0C
  8
OUTLINE
 10
3794.9101823869241
 20
526.18307750230872
 30
0.0
 11
3732.9101823869241
 21
526.18307750230872
 31
0.0
  0
LINE
  5
F0D
  8
OUTLINE
 10
3794.9101823869109
 20
782.78307750230863
 30
0.0
 11
3794.9101823869241
 21
526.18307750230872
 31
0.0
  0
LINE
  5
F44
  8
DIM
 10
1607.0763942558769
 20
693.78307750230886
 30
0.0
 11
1607.0763942558769
 21
710.78307750230886
 31
0.0
  0
LINE
  5
F47
  8
DIM
 10
2771.6763942558769
 20
693.78307750230886
 30
0.0
 11
2771.6763942558769
 21
710.78307750230886
 31
0.0
  0
LINE
  5
F48
  8
DIM
 10
3241.7101823869102
 20
693.78307750230886
 30
0.0
 11
3241.7101823869102
 21
710.78307750230886
 31
0.0
  0
LINE
  5
F49
  8
DIM
 10
3714.110182386908
 20
693.78307750230886
 30
0.0
 11
3714.110182386908
 21
710.78307750230886
 31
0.0
  0
TEXT
  5
F62
  8
TEXT
 62
     7
 10
1952.413984965247
 20
618.32085907201395
 30
0.0
 40
50.0
  1
HWP58
  7
TITLE3
  0
TEXT
  5
F63
  8
TEXT
 62
     7
 10
3358.4663118552671
 20
562.89339347563305
 30
0.0
 40
50.0
  1
HWP58
  7
TITLE3
  0
LINE
  5
F64
  8
DIM
 10
3651.1600372652711
 20
659.48307750230924
 30
0.0
 11
3682.4960915934821
 21
640.43241326786574
 31
0.0
  0
LINE
  5
F65
  8
DIM
 10
3651.1600372652711
 20
659.48307750230924
 30
0.0
 11
3682.4960915934821
 21
678.5337417367482
 31
0.0
  0
LINE
  5
F66
  8
DIM
 10
3719.1533600651801
 20
652.26506830362075
 30
0.0
 11
3719.1533600651801
 21
666.70108670099683
 31
0.0
  0
LINE
  5
F67
  8
DIM
 10
3682.4960915934821
 20
652.26506830362075
 30
0.0
 11
3719.1533600651801
 21
652.26506830362075
 31
0.0
  0
LINE
  5
F68
  8
DIM
 10
3682.4960915934821
 20
640.43241326786574
 30
0.0
 11
3682.4960915934821
 21
652.26506830362075
 31
0.0
  0
LINE
  5
F69
  8
DIM
 10
3682.4960915934821
 20
666.70108670099683
 30
0.0
 11
3719.1533600651801
 21
666.70108670099683
 31
0.0
  0
LINE
  5
F6A
  8
DIM
 10
3682.4960915934821
 20
678.5337417367482
 30
0.0
 11
3682.4960915934821
 21
666.70108670099683
 31
0.0
  0
LINE
  5
F6D
  8
DIM
 10
3232.1123698425481
 20
649.28307750230863
 30
0.0
 11
3263.4484241707592
 21
630.23241326786513
 31
0.0
  0
LINE
  5
F6E
  8
DIM
 10
3232.1123698425481
 20
649.28307750230863
 30
0.0
 11
3263.4484241707592
 21
668.33374173674736
 31
0.0
  0
LINE
  5
F6F
  8
DIM
 10
3300.1056926424558
 20
642.06506830362025
 30
0.0
 11
3300.1056926424558
 21
656.50108670099576
 31
0.0
  0
LINE
  5
F70
  8
DIM
 10
3263.4484241707592
 20
642.06506830362025
 30
0.0
 11
3300.1056926424558
 21
642.06506830362025
 31
0.0
  0
LINE
  5
F71
  8
DIM
 10
3263.4484241707592
 20
630.23241326786513
 30
0.0
 11
3263.4484241707592
 21
642.06506830362025
 31
0.0
  0
LINE
  5
F72
  8
DIM
 10
3263.4484241707592
 20
656.50108670099576
 30
0.0
 11
3300.1056926424558
 21
656.50108670099576
 31
0.0
  0
LINE
  5
F73
  8
DIM
 10
3263.4484241707592
 20
668.33374173674736
 30
0.0
 11
3263.4484241707592
 21
656.50108670099576
 31
0.0
  0
LINE
  5
F93
  8
OUTLINE
 10
2723.6763942558769
 20
1369.990735559124
 30
0.0
 11
2789.6763942558782
 21
1369.990735559124
 31
0.0
  0
LINE
  5
F94
  8
OUTLINE
 10
2723.6763942558769
 20
1372.490735559124
 30
0.0
 11
2789.6763942558782
 21
1372.490735559124
 31
0.0
  0
LINE
  5
F95
  8
OUTLINE
 10
2744.6763942558769
 20
1416.990735559124
 30
0.0
 11
2789.6763942558782
 21
1416.9907355591249
 31
0.0
  0
LINE
  5
F96
  8
OUTLINE
 10
2744.6763942558769
 20
1414.490735559124
 30
0.0
 11
2789.6763942558782
 21
1414.490735559124
 31
0.0
  0
LINE
  5
FC3
  8
DIM
 10
1634.076394255876
 20
1374.6907355591241
 30
0.0
 11
1634.076394255876
 21
1884.6907355591229
 31
0.0
  0
LINE
  5
FC4
  8
DIM
 10
2744.6763942558769
 20
1374.6907355591241
 30
0.0
 11
2744.67639425588
 21
1884.6907355591229
 31
0.0
  0
LINE
  5
FC5
  8
DIM
 10
2723.6763942558769
 20
1905.4907355591231
 30
0.0
 11
1655.0763942558769
 21
1905.4907355591231
 31
0.0
  0
LINE
  5
FC6
  8
DIM
 10
2723.6763942558769
 20
1353.890735559123
 30
0.0
 11
1655.0763942558769
 21
1353.890735559123
 31
0.0
  0
LINE
  5
FC7
  8
DIM
 10
1655.0763942558769
 20
1353.890735559123
 30
0.0
 11
1655.0763942558769
 21
1905.4907355591231
 31
0.0
  0
LINE
  5
FC8
  8
DIM
 10
2723.6763942558769
 20
1353.890735559123
 30
0.0
 11
2723.6763942558769
 21
1905.4907355591231
 31
0.0
  0
LINE
  5
FC9
  8
DIM
 10
2744.67639425588
 20
1884.6907355591229
 30
0.0
 11
1634.076394255876
 21
1884.6907355591229
 31
0.0
  0
LINE
  5
FCA
  8
DIM
 10
2744.6763942558769
 20
1374.6907355591241
 30
0.0
 11
1634.076394255876
 21
1374.6907355591241
 31
0.0
  0
LINE
  5
FCB
  8
OUTLINE
 10
1674.0763942558769
 20
1946.6907355591211
 30
0.0
 11
2416.476394255877
 21
1946.6907355591479
 31
0.0
  0
LINE
  5
FCC
  8
OUTLINE
 10
1686.0763942558769
 20
1353.8907355591241
 30
0.0
 11
1686.0763942558769
 21
1269.770735559124
 31
0.0
  0
LINE
  5
FCD
  8
OUTLINE
 10
2428.0763942558779
 20
1353.890735559123
 30
0.0
 11
2428.0763942558779
 21
1269.7707355591249
 31
0.0
  0
LINE
  5
FCE
  8
OUTLINE
 10
1686.0763942558769
 20
1269.770735559124
 30
0.0
 11
2428.0763942558779
 21
1269.7707355591249
 31
0.0
  0
LINE
  5
FCF
  8
OUTLINE
 10
2478.67639425588
 20
1353.890735559123
 30
0.0
 11
2478.67639425588
 21
1264.8907355591241
 31
0.0
  0
LINE
  5
FD0
  8
DIM
 10
2744.6763942558769
 20
1369.990735559124
 30
0.0
 11
2744.67639425588
 21
1264.8907355591241
 31
0.0
  0
LINE
  5
FD1
  8
OUTLINE
 10
2478.67639425588
 20
1264.8907355591241
 30
0.0
 11
2744.67639425588
 21
1264.8907355591241
 31
0.0
  0
LINE
  5
FEA
  8
DIM
 10
1674.0763942558769
 20
1905.4907355591231
 30
0.0
 11
1674.0763942558769
 21
1946.6907355591211
 31
0.0
  0
LINE
  5
FEB
  8
DIM
 10
2416.4763942558779
 20
1905.4907355591281
 30
0.0
 11
2416.476394255877
 21
1946.6907355591479
 31
0.0
  0
LINE
  5
FED
  8
OUTLINE
 10
3257.91018238691
 20
821.78307750230863
 30
0.0
 11
3257.91018238691
 21
811.78307750230874
 31
0.0
  0
LINE
  5
FEE
  8
OUTLINE
 10
3697.9101823869082
 20
821.78307750230863
 30
0.0
 11
3697.9101823869082
 21
811.78307750230886
 31
0.0
  0
ARC
  5
FF6
  8
DIM
 10
1645.0763942558769
 20
1854.9407355591229
 30
0.0
 40
4.75
 50
0.0
 51
180.0
  0
ARC
  5
FF7
  8
DIM
 10
1645.0763942558769
 20
1844.4407355591229
 30
0.0
 40
4.75
 50
180.0
 51
0.0
  0
LINE
  5
FF8
  8
DIM
 10
1640.326394255876
 20
1854.9407355591229
 30
0.0
 11
1640.326394255876
 21
1844.4407355591229
 31
0.0
  0
LINE
  5
FF9
  8
DIM
 10
1649.8263942558749
 20
1854.9407355591229
 30
0.0
 11
1649.8263942558749
 21
1844.4407355591229
 31
0.0
  0
ARC
  5
FFA
  8
DIM
 10
1645.0763942558769
 20
1414.9407355591241
 30
0.0
 40
4.75
 50
0.0
 51
180.0
  0
ARC
  5
FFB
  8
DIM
 10
1645.0763942558769
 20
1404.4407355591241
 30
0.0
 40
4.75
 50
180.0
 51
0.0
  0
LINE
  5
FFC
  8
DIM
 10
1640.326394255876
 20
1414.9407355591241
 30
0.0
 11
1640.326394255876
 21
1404.4407355591241
 31
0.0
  0
LINE
  5
FFD
  8
DIM
 10
1649.8263942558749
 20
1414.9407355591241
 30
0.0
 11
1649.8263942558749
 21
1404.4407355591241
 31
0.0
  0
ARC
  5
FFE
  8
DIM
 10
2733.6763942558791
 20
1854.9407355591229
 30
0.0
 40
4.75
 50
0.0
 51
180.0
  0
ARC
  5
FFF
  8
DIM
 10
2733.6763942558791
 20
1844.4407355591229
 30
0.0
 40
4.75
 50
180.0
 51
0.0
  0
LINE
  5
1000
  8
DIM
 10
2738.4263942558791
 20
1854.9407355591229
 30
0.0
 11
2738.4263942558791
 21
1844.4407355591229
 31
0.0
  0
LINE
  5
1001
  8
DIM
 10
2728.9263942558769
 20
1854.9407355591229
 30
0.0
 11
2728.9263942558769
 21
1844.4407355591229
 31
0.0
  0
ARC
  5
1002
  8
DIM
 10
2733.6763942558791
 20
1414.9407355591241
 30
0.0
 40
4.75
 50
0.0
 51
180.0
  0
ARC
  5
1003
  8
DIM
 10
2733.6763942558791
 20
1404.4407355591241
 30
0.0
 40
4.75
 50
180.0
 51
0.0
  0
LINE
  5
1004
  8
DIM
 10
2738.4263942558791
 20
1414.9407355591241
 30
0.0
 11
2738.4263942558791
 21
1404.4407355591241
 31
0.0
  0
LINE
  5
1005
  8
DIM
 10
2728.9263942558769
 20
1414.9407355591241
 30
0.0
 11
2728.9263942558769
 21
1404.4407355591241
 31
0.0
  0
LINE
  5
101E
  8
DIM
 10
2789.6763942558782
 20
1369.990735559124
 30
0.0
 11
2789.6763942558782
 21
1416.9907355591249
 31
0.0
  0
CIRCLE
  5
1021
  8
DIM
 10
2771.6763942558769
 20
1393.490735559124
 30
0.0
 40
12.0
  0
CIRCLE
  5
1022
  8
DIM
 10
2771.6763942558769
 20
1393.490735559124
 30
0.0
 40
10.0
  0
LINE
  5
1023
  8
OUTLINE
 10
1655.076394255876
 20
1369.990735559124
 30
0.0
 11
1589.076394255876
 21
1369.990735559124
 31
0.0
  0
LINE
  5
1024
  8
OUTLINE
 10
1655.0763942558769
 20
1372.490735559124
 30
0.0
 11
1589.0763942558769
 21
1372.490735559124
 31
0.0
  0
LINE
  5
1025
  8
OUTLINE
 10
1634.076394255876
 20
1416.990735559124
 30
0.0
 11
1589.0763942558769
 21
1416.9907355591249
 31
0.0
  0
LINE
  5
1026
  8
OUTLINE
 10
1634.076394255876
 20
1414.490735559124
 30
0.0
 11
1589.076394255876
 21
1414.490735559124
 31
0.0
  0
LINE
  5
1027
  8
DIM
 10
1589.0763942558769
 20
1369.990735559124
 30
0.0
 11
1589.0763942558769
 21
1416.9907355591249
 31
0.0
  0
CIRCLE
  5
1028
  8
DIM
 10
1607.0763942558769
 20
1393.490735559124
 30
0.0
 40
12.0
  0
CIRCLE
  5
1029
  8
DIM
 10
1607.0763942558769
 20
1393.490735559124
 30
0.0
 40
10.0
  0
LINE
  5
102A
  8
OUTLINE
 10
2723.6763942558769
 20
1889.390735559123
 30
0.0
 11
2789.6763942558782
 21
1889.390735559122
 31
0.0
  0
LINE
  5
102B
  8
OUTLINE
 10
2723.6763942558769
 20
1886.890735559123
 30
0.0
 11
2789.6763942558782
 21
1886.890735559122
 31
0.0
  0
LINE
  5
102C
  8
OUTLINE
 10
2744.6763942558769
 20
1842.390735559122
 30
0.0
 11
2789.6763942558782
 21
1842.390735559122
 31
0.0
  0
LINE
  5
102D
  8
OUTLINE
 10
2744.6763942558769
 20
1844.890735559122
 30
0.0
 11
2789.6763942558782
 21
1844.890735559122
 31
0.0
  0
LINE
  5
102E
  8
DIM
 10
2789.6763942558782
 20
1889.390735559122
 30
0.0
 11
2789.6763942558782
 21
1842.390735559122
 31
0.0
  0
CIRCLE
  5
102F
  8
DIM
 10
2771.6763942558769
 20
1865.890735559122
 30
0.0
 40
12.0
  0
CIRCLE
  5
1030
  8
DIM
 10
2771.6763942558769
 20
1865.890735559122
 30
0.0
 40
10.0
  0
LINE
  5
1031
  8
OUTLINE
 10
1655.076394255876
 20
1889.390735559123
 30
0.0
 11
1589.076394255876
 21
1889.390735559122
 31
0.0
  0
LINE
  5
1032
  8
OUTLINE
 10
1655.0763942558769
 20
1886.890735559123
 30
0.0
 11
1589.0763942558769
 21
1886.890735559122
 31
0.0
  0
LINE
  5
1033
  8
OUTLINE
 10
1634.076394255876
 20
1842.390735559122
 30
0.0
 11
1589.0763942558769
 21
1842.390735559122
 31
0.0
  0
LINE
  5
1034
  8
OUTLINE
 10
1634.076394255876
 20
1844.890735559122
 30
0.0
 11
1589.076394255876
 21
1844.890735559122
 31
0.0
  0
LINE
  5
1035
  8
DIM
 10
1589.0763942558769
 20
1889.390735559122
 30
0.0
 11
1589.0763942558769
 21
1842.390735559122
 31
0.0
  0
CIRCLE
  5
1036
  8
DIM
 10
1607.0763942558769
 20
1865.890735559122
 30
0.0
 40
12.0
  0
CIRCLE
  5
1037
  8
DIM
 10
1607.0763942558769
 20
1865.890735559122
 30
0.0
 40
10.0
  0
TEXT
  5
1038
  8
TEXT
 62
     7
 10
2067.873964433214
 20
1615.107649685021
 30
0.0
 40
50.0
  1
HWP58
  7
TITLE3
  0
LINE
  5
1051
  8
DIM
 10
2177.7763942558772
 20
1794.0600056787009
 30
0.0
 11
2196.8270584903198
 21
1825.396060006912
 31
0.0
  0
LINE
  5
1052
  8
DIM
 10
2177.7763942558772
 20
1794.0600056787009
 30
0.0
 11
2158.7257300214369
 21
1825.396060006912
 31
0.0
  0
LINE
  5
1053
  8
DIM
 10
2184.9944034545651
 20
1862.05332847861
 30
0.0
 11
2170.5583850571888
 21
1862.05332847861
 31
0.0
  0
LINE
  5
1054
  8
DIM
 10
2184.9944034545651
 20
1825.396060006912
 30
0.0
 11
2184.9944034545651
 21
1862.05332847861
 31
0.0
  0
LINE
  5
1055
  8
DIM
 10
2196.8270584903198
 20
1825.396060006912
 30
0.0
 11
2184.9944034545651
 21
1825.396060006912
 31
0.0
  0
LINE
  5
1056
  8
DIM
 10
2170.5583850571888
 20
1825.396060006912
 30
0.0
 11
2170.5583850571888
 21
1862.05332847861
 31
0.0
  0
LINE
  5
1057
  8
DIM
 10
2158.7257300214369
 20
1825.396060006912
 30
0.0
 11
2170.5583850571888
 21
1825.396060006912
 31
0.0
  0
LINE
  5
1058
  8
DIM
 10
2189.5763942558769
 20
1394.90634538479
 30
0.0
 11
2208.62705849032
 21
1426.2423997130011
 31
0.0
  0
LINE
  5
1059
  8
DIM
 10
2189.5763942558769
 20
1394.90634538479
 30
0.0
 11
2170.525730021438
 21
1426.2423997130011
 31
0.0
  0
LINE
  5
105A
  8
DIM
 10
2196.7944034545649
 20
1462.8996681846991
 30
0.0
 11
2182.358385057189
 21
1462.8996681846991
 31
0.0
  0
LINE
  5
105B
  8
DIM
 10
2196.7944034545649
 20
1426.2423997130011
 30
0.0
 11
2196.7944034545649
 21
1462.8996681846991
 31
0.0
  0
LINE
  5
105C
  8
DIM
 10
2208.62705849032
 20
1426.2423997130011
 30
0.0
 11
2196.7944034545649
 21
1426.2423997130011
 31
0.0
  0
LINE
  5
105D
  8
DIM
 10
2182.358385057189
 20
1426.2423997130011
 30
0.0
 11
2182.358385057189
 21
1462.8996681846991
 31
0.0
  0
LINE
  5
105E
  8
DIM
 10
2170.525730021438
 20
1426.2423997130011
 30
0.0
 11
2182.358385057189
 21
1426.2423997130011
 31
0.0
  0
LINE
  5
1079
  8
DIM
 10
1675.076394255876
 20
1184.65027609101
 30
0.0
 11
1940.0763942558769
 21
1184.65027609101
 31
0.0
  0
LINE
  5
107A
  8
DIM
 10
2703.6763942558791
 20
1184.65027609101
 30
0.0
 11
2438.6763942558769
 21
1184.65027609101
 31
0.0
  0
SOLID
  5
107B
  8
DIM
 10
1675.076394255876
 20
1189.6502760910109
 30
0.0
 11
1675.076394255876
 21
1179.6502760910109
 31
0.0
 12
1645.0763942558769
 22
1184.65027609101
 32
0.0
 13
1645.0763942558769
 23
1184.65027609101
 33
0.0
  0
SOLID
  5
107C
  8
DIM
 10
2703.6763942558791
 20
1189.6502760910109
 30
0.0
 11
2703.6763942558791
 21
1179.6502760910109
 31
0.0
 12
2733.6763942558791
 22
1184.65027609101
 32
0.0
 13
2733.6763942558791
 23
1184.65027609101
 33
0.0
  0
LINE
  5
107E
  8
DIM
 10
1607.0763942558769
 20
1373.490735559124
 30
0.0
 11
1607.0763942558769
 21
1102.627356150924
 31
0.0
  0
LINE
  5
107F
  8
DIM
 10
2771.6763942558769
 20
1373.490735559124
 30
0.0
 11
2771.6763942558769
 21
1102.627356150924
 31
0.0
  0
LINE
  5
1080
  8
DIM
 10
2741.6763942558769
 20
1122.6273561509249
 30
0.0
 11
2616.8754055210502
 21
1122.6273561509249
 31
0.0
  0
LINE
  5
1081
  8
DIM
 10
1637.0763942558781
 20
1122.6273561509249
 30
0.0
 11
1781.8754055210491
 21
1122.6273561509249
 31
0.0
  0
SOLID
  5
1082
  8
DIM
 10
2741.6763942558769
 20
1127.6273561509249
 30
0.0
 11
2741.6763942558769
 21
1117.627356150924
 31
0.0
 12
2771.6763942558769
 22
1122.6273561509249
 32
0.0
 13
2771.6763942558769
 23
1122.6273561509249
 33
0.0
  0
SOLID
  5
1083
  8
DIM
 10
1637.0763942558781
 20
1127.6273561509249
 30
0.0
 11
1637.0763942558781
 21
1117.627356150924
 31
0.0
 12
1607.0763942558769
 22
1122.6273561509249
 32
0.0
 13
1607.0763942558769
 23
1122.6273561509249
 33
0.0
  0
LINE
  5
1085
  8
DIM
 10
1674.0763942558769
 20
1976.69073555912
 30
0.0
 11
1674.0763942558769
 21
2008.8238483064431
 31
0.0
  0
LINE
  5
1086
  8
DIM
 10
1634.076394255876
 20
1904.6907355591229
 30
0.0
 11
1634.076394255876
 21
2008.8238483064431
 31
0.0
  0
LINE
  5
1087
  8
DIM
 10
1704.0763942558769
 20
1988.8238483064431
 30
0.0
 11
1734.076394255876
 21
1988.8238483064431
 31
0.0
  0
LINE
  5
1088
  8
DIM
 10
1604.0763942558769
 20
1988.8238483064431
 30
0.0
 11
1574.0763942558769
 21
1988.8238483064431
 31
0.0
  0
SOLID
  5
1089
  8
DIM
 10
1704.0763942558769
 20
1993.8238483064431
 30
0.0
 11
1704.0763942558769
 21
1983.8238483064431
 31
0.0
 12
1674.0763942558769
 22
1988.8238483064431
 32
0.0
 13
1674.0763942558769
 23
1988.8238483064431
 33
0.0
  0
SOLID
  5
108A
  8
DIM
 10
1604.0763942558769
 20
1993.8238483064431
 30
0.0
 11
1604.0763942558769
 21
1983.8238483064431
 31
0.0
 12
1634.076394255876
 22
1988.8238483064431
 32
0.0
 13
1634.076394255876
 23
1988.8238483064431
 33
0.0
  0
LINE
  5
108C
  8
DIM
 10
1674.0763942558769
 20
1966.690735559122
 30
0.0
 11
1674.0763942558769
 21
2008.5781206860299
 31
0.0
  0
LINE
  5
108D
  8
DIM
 10
2416.4763942558761
 20
1966.6907355591211
 30
0.0
 11
2416.476394255877
 21
2008.5781206860299
 31
0.0
  0
LINE
  5
108E
  8
DIM
 10
1704.0763942558769
 20
1988.578120686029
 30
0.0
 11
1985.2763942558761
 21
1988.578120686029
 31
0.0
  0
LINE
  5
108F
  8
DIM
 10
2386.476394255877
 20
1988.578120686029
 30
0.0
 11
2105.2763942558772
 21
1988.578120686029
 31
0.0
  0
SOLID
  5
1090
  8
DIM
 10
1704.0763942558769
 20
1993.578120686029
 30
0.0
 11
1704.0763942558769
 21
1983.578120686029
 31
0.0
 12
1674.0763942558769
 22
1988.578120686029
 32
0.0
 13
1674.0763942558769
 23
1988.578120686029
 33
0.0
  0
SOLID
  5
1091
  8
DIM
 10
2386.476394255877
 20
1993.578120686029
 30
0.0
 11
2386.476394255877
 21
1983.578120686029
 31
0.0
 12
2416.476394255877
 22
1988.578120686029
 32
0.0
 13
2416.476394255877
 23
1988.578120686029
 33
0.0
  0
LINE
  5
1093
  8
DIM
 10
1686.0763942558769
 20
792.78307750230863
 30
0.0
 11
1686.0763942558769
 21
879.62060687402311
 31
0.0
  0
LINE
  5
1094
  8
DIM
 10
1634.076394255876
 20
836.78307750230886
 30
0.0
 11
1634.076394255876
 21
879.62060687402311
 31
0.0
  0
LINE
  5
1095
  8
DIM
 10
1716.076394255876
 20
859.62060687402266
 30
0.0
 11
1746.0763942558769
 21
859.62060687402266
 31
0.0
  0
LINE
  5
1096
  8
DIM
 10
1604.0763942558769
 20
859.62060687402266
 30
0.0
 11
1574.0763942558769
 21
859.62060687402266
 31
0.0
  0
SOLID
  5
1097
  8
DIM
 10
1716.076394255876
 20
864.62060687402254
 30
0.0
 11
1716.076394255876
 21
854.62060687402311
 31
0.0
 12
1686.0763942558769
 22
859.62060687402266
 32
0.0
 13
1686.0763942558769
 23
859.62060687402266
 33
0.0
  0
SOLID
  5
1098
  8
DIM
 10
1604.0763942558769
 20
864.62060687402254
 30
0.0
 11
1604.0763942558769
 21
854.62060687402311
 31
0.0
 12
1634.076394255876
 22
859.62060687402266
 32
0.0
 13
1634.076394255876
 23
859.62060687402266
 33
0.0
  0
LINE
  5
109A
  8
DIM
 10
1686.0763942558769
 20
792.78307750230863
 30
0.0
 11
1686.0763942558769
 21
879.53877973191607
 31
0.0
  0
LINE
  5
109B
  8
DIM
 10
2428.0763942558769
 20
792.7830775023084
 30
0.0
 11
2428.0763942558769
 21
879.53877973191607
 31
0.0
  0
LINE
  5
109C
  8
DIM
 10
1716.076394255876
 20
859.53877973191652
 30
0.0
 11
1997.0763942558769
 21
859.53877973191652
 31
0.0
  0
LINE
  5
109D
  8
DIM
 10
2398.0763942558769
 20
859.53877973191652
 30
0.0
 11
2117.0763942558769
 21
859.53877973191652
 31
0.0
  0
SOLID
  5
109E
  8
DIM
 10
1716.076394255876
 20
864.53877973191607
 30
0.0
 11
1716.076394255876
 21
854.53877973191607
 31
0.0
 12
1686.0763942558769
 22
859.53877973191652
 32
0.0
 13
1686.0763942558769
 23
859.53877973191652
 33
0.0
  0
SOLID
  5
109F
  8
DIM
 10
2398.0763942558769
 20
864.53877973191607
 30
0.0
 11
2398.0763942558769
 21
854.53877973191607
 31
0.0
 12
2428.0763942558769
 22
859.53877973191652
 32
0.0
 13
2428.0763942558769
 23
859.53877973191652
 33
0.0
  0
LINE
  5
10A1
  8
DIM
 10
1634.076394255876
 20
836.78307750230886
 30
0.0
 11
1634.076394255876
 21
943.44540194757417
 31
0.0
  0
LINE
  5
10A2
  8
DIM
 10
2744.67639425588
 20
836.78307750230886
 30
0.0
 11
2744.67639425588
 21
943.44540194757417
 31
0.0
  0
LINE
  5
10A3
  8
DIM
 10
1664.076394255876
 20
923.44540194757406
 30
0.0
 11
2069.3763942558771
 21
923.44540194757406
 31
0.0
  0
LINE
  5
10A4
  8
DIM
 10
2714.6763942558791
 20
923.44540194757406
 30
0.0
 11
2309.376394255878
 21
923.44540194757406
 31
0.0
  0
SOLID
  5
10A5
  8
DIM
 10
1664.076394255876
 20
928.44540194757428
 30
0.0
 11
1664.076394255876
 21
918.44540194757417
 31
0.0
 12
1634.076394255876
 22
923.44540194757406
 32
0.0
 13
1634.076394255876
 23
923.44540194757406
 33
0.0
  0
SOLID
  5
10A6
  8
DIM
 10
2714.6763942558791
 20
928.44540194757428
 30
0.0
 11
2714.6763942558791
 21
918.44540194757417
 31
0.0
 12
2744.67639425588
 22
923.44540194757406
 32
0.0
 13
2744.67639425588
 23
923.44540194757406
 33
0.0
  0
LINE
  5
10A8
  8
DIM
 10
1614.076394255876
 20
816.78307750230863
 30
0.0
 11
1496.711091623167
 21
816.78307750230863
 31
0.0
  0
LINE
  5
10A9
  8
DIM
 10
1635.0763942558769
 20
461.78307750230869
 30
0.0
 11
1496.711091623167
 21
461.78307750230869
 31
0.0
  0
LINE
  5
10AA
  8
DIM
 10
1516.711091623167
 20
786.78307750230863
 30
0.0
 11
1516.711091623167
 21
759.28307750230863
 31
0.0
  0
LINE
  5
10AB
  8
DIM
 10
1516.711091623167
 20
491.78307750230869
 30
0.0
 11
1516.711091623167
 21
524.28307750230886
 31
0.0
  0
SOLID
  5
10AC
  8
DIM
 10
1511.711091623167
 20
786.78307750230863
 30
0.0
 11
1521.711091623167
 21
786.78307750230863
 31
0.0
 12
1516.711091623167
 22
816.78307750230863
 32
0.0
 13
1516.711091623167
 23
816.78307750230863
 33
0.0
  0
SOLID
  5
10AD
  8
DIM
 10
1511.711091623167
 20
491.78307750230869
 30
0.0
 11
1521.711091623167
 21
491.78307750230869
 31
0.0
 12
1516.711091623167
 22
461.78307750230869
 32
0.0
 13
1516.711091623167
 23
461.78307750230869
 33
0.0
  0
LINE
  5
10AF
  8
DIM
 10
2764.6763942558769
 20
816.78307750230863
 30
0.0
 11
2905.1655178475498
 21
816.78307750230863
 31
0.0
  0
LINE
  5
10B0
  8
DIM
 10
2743.6763942558769
 20
474.78307750230869
 30
0.0
 11
2905.1655178475498
 21
474.78307750230869
 31
0.0
  0
LINE
  5
10B1
  8
DIM
 10
2885.1655178475498
 20
786.78307750230863
 30
0.0
 11
2885.1655178475498
 21
703.28307750230886
 31
0.0
  0
LINE
  5
10B2
  8
DIM
 10
2885.1655178475498
 20
504.78307750230869
 30
0.0
 11
2885.1655178475498
 21
588.28307750230874
 31
0.0
  0
SOLID
  5
10B3
  8
DIM
 10
2880.1655178475512
 20
786.78307750230863
 30
0.0
 11
2890.1655178475512
 21
786.78307750230863
 31
0.0
 12
2885.1655178475498
 22
816.78307750230863
 32
0.0
 13
2885.1655178475498
 23
816.78307750230863
 33
0.0
  0
SOLID
  5
10B4
  8
DIM
 10
2880.1655178475512
 20
504.78307750230869
 30
0.0
 11
2890.1655178475512
 21
504.78307750230869
 31
0.0
 12
2885.1655178475498
 22
474.78307750230869
 32
0.0
 13
2885.1655178475498
 23
474.78307750230869
 33
0.0
  0
LINE
  5
10B6
  8
DIM
 10
2809.6763942558769
 20
705.78307750230886
 30
0.0
 11
2845.3053354073272
 21
705.78307750230886
 31
0.0
  0
LINE
  5
10B7
  8
DIM
 10
2764.6763942558769
 20
816.78307750230863
 30
0.0
 11
2845.3053354073272
 21
816.78307750230863
 31
0.0
  0
LINE
  5
10B8
  8
DIM
 10
2825.3053354073272
 20
735.78307750230863
 30
0.0
 11
2825.3053354073272
 21
786.78307750230863
 31
0.0
  0
LINE
  5
10B9
  8
DIM
 10
2825.3053354073272
 20
675.78307750230874
 30
0.0
 11
2825.3053354073272
 21
705.78307750230886
 31
0.0
  0
SOLID
  5
10BA
  8
DIM
 10
2820.3053354073272
 20
735.78307750230863
 30
0.0
 11
2830.3053354073281
 21
735.78307750230863
 31
0.0
 12
2825.3053354073272
 22
705.78307750230886
 32
0.0
 13
2825.3053354073272
 23
705.78307750230886
 33
0.0
  0
SOLID
  5
10BB
  8
DIM
 10
2820.3053354073272
 20
786.78307750230863
 30
0.0
 11
2830.3053354073281
 21
786.78307750230863
 31
0.0
 12
2825.3053354073272
 22
816.78307750230863
 32
0.0
 13
2825.3053354073272
 23
816.78307750230863
 33
0.0
  0
LINE
  5
10FF
  8
DIM
 10
3097.9901823869091
 20
772.78307750230863
 30
0.0
 11
3050.6972662228582
 21
772.78307750230863
 31
0.0
  0
LINE
  5
1100
  8
DIM
 10
3182.1101823869099
 20
816.78307750230863
 30
0.0
 11
3050.6972662228582
 21
816.78307750230863
 31
0.0
  0
LINE
  5
1101
  8
DIM
 10
3070.6972662228582
 20
742.78307750230863
 30
0.0
 11
3070.6972662228582
 21
712.78307750230863
 31
0.0
  0
LINE
  5
1102
  8
DIM
 10
3070.6972662228582
 20
846.78307750230863
 30
0.0
 11
3070.6972662228582
 21
876.78307750230852
 31
0.0
  0
SOLID
  5
1103
  8
DIM
 10
3065.6972662228582
 20
742.78307750230863
 30
0.0
 11
3075.6972662228582
 21
742.78307750230863
 31
0.0
 12
3070.6972662228582
 22
772.78307750230863
 32
0.0
 13
3070.6972662228582
 23
772.78307750230863
 33
0.0
  0
SOLID
  5
1104
  8
DIM
 10
3065.6972662228582
 20
846.78307750230863
 30
0.0
 11
3075.6972662228582
 21
846.78307750230863
 31
0.0
 12
3070.6972662228582
 22
816.78307750230863
 32
0.0
 13
3070.6972662228582
 23
816.78307750230863
 33
0.0
  0
LINE
  5
1106
  8
DIM
 10
3097.9901823869091
 20
772.78307750230863
 30
0.0
 11
3050.6819240103109
 21
772.78307750230863
 31
0.0
  0
LINE
  5
1107
  8
DIM
 10
3097.9901823869091
 20
515.78307750230886
 30
0.0
 11
3050.6819240103109
 21
515.78307750230886
 31
0.0
  0
LINE
  5
1108
  8
DIM
 10
3070.68192401031
 20
742.78307750230863
 30
0.0
 11
3070.68192401031
 21
704.28307750230886
 31
0.0
  0
LINE
  5
1109
  8
DIM
 10
3070.68192401031
 20
545.78307750230886
 30
0.0
 11
3070.68192401031
 21
584.28307750230874
 31
0.0
  0
SOLID
  5
110A
  8
DIM
 10
3065.6819240103109
 20
742.78307750230863
 30
0.0
 11
3075.6819240103118
 21
742.78307750230863
 31
0.0
 12
3070.68192401031
 22
772.78307750230863
 32
0.0
 13
3070.68192401031
 23
772.78307750230863
 33
0.0
  0
SOLID
  5
110B
  8
DIM
 10
3065.6819240103109
 20
545.78307750230886
 30
0.0
 11
3075.6819240103118
 21
545.78307750230886
 31
0.0
 12
3070.68192401031
 22
515.78307750230886
 32
0.0
 13
3070.68192401031
 23
515.78307750230886
 33
0.0
  0
LINE
  5
110D
  8
DIM
 10
3814.91018238691
 20
782.78307750230863
 30
0.0
 11
3852.8235724551769
 21
782.78307750230863
 31
0.0
  0
LINE
  5
110E
  8
DIM
 10
3773.7101823869102
 20
816.78307750230863
 30
0.0
 11
3852.8235724551769
 21
816.78307750230863
 31
0.0
  0
LINE
  5
110F
  8
DIM
 10
3832.823572455176
 20
752.78307750230863
 30
0.0
 11
3832.823572455176
 21
722.78307750230863
 31
0.0
  0
LINE
  5
1110
  8
DIM
 10
3832.823572455176
 20
846.78307750230863
 30
0.0
 11
3832.823572455176
 21
876.78307750230852
 31
0.0
  0
SOLID
  5
1111
  8
DIM
 10
3827.8235724551769
 20
752.78307750230863
 30
0.0
 11
3837.823572455176
 21
752.78307750230863
 31
0.0
 12
3832.823572455176
 22
782.78307750230863
 32
0.0
 13
3832.823572455176
 23
782.78307750230863
 33
0.0
  0
SOLID
  5
1112
  8
DIM
 10
3827.8235724551769
 20
846.78307750230863
 30
0.0
 11
3837.823572455176
 21
846.78307750230863
 31
0.0
 12
3832.823572455176
 22
816.78307750230863
 32
0.0
 13
3832.823572455176
 23
816.78307750230863
 33
0.0
  0
LINE
  5
1114
  8
DIM
 10
3814.91018238691
 20
782.78307750230863
 30
0.0
 11
3852.8235724551769
 21
782.78307750230863
 31
0.0
  0
LINE
  5
1115
  8
DIM
 10
3814.9101823869232
 20
526.18307750230872
 30
0.0
 11
3852.8235724551769
 21
526.18307750230861
 31
0.0
  0
LINE
  5
1116
  8
DIM
 10
3832.823572455176
 20
752.78307750230863
 30
0.0
 11
3832.823572455176
 21
714.48307750230879
 31
0.0
  0
LINE
  5
1117
  8
DIM
 10
3832.823572455176
 20
556.18307750230872
 30
0.0
 11
3832.823572455176
 21
594.48307750230867
 31
0.0
  0
SOLID
  5
1118
  8
DIM
 10
3827.8235724551769
 20
752.78307750230863
 30
0.0
 11
3837.823572455176
 21
752.78307750230863
 31
0.0
 12
3832.823572455176
 22
782.78307750230863
 32
0.0
 13
3832.823572455176
 23
782.78307750230863
 33
0.0
  0
SOLID
  5
1119
  8
DIM
 10
3827.8235724551769
 20
556.18307750230872
 30
0.0
 11
3837.823572455176
 21
556.18307750230872
 31
0.0
 12
3832.823572455176
 22
526.18307750230872
 32
0.0
 13
3832.823572455176
 23
526.18307750230872
 33
0.0
  0
LINE
  5
11BB
  8
DIM
 10
2791.6763942558769
 20
1865.890735559122
 30
0.0
 11
2959.4617922506932
 21
1865.890735559122
 31
0.0
  0
LINE
  5
11BC
  8
DIM
 10
2791.6763942558769
 20
1393.490735559124
 30
0.0
 11
2959.4617922506932
 21
1393.490735559124
 31
0.0
  0
LINE
  5
11BD
  8
DIM
 10
2939.4617922506932
 20
1835.890735559122
 30
0.0
 11
2939.4617922506932
 21
1764.690735559122
 31
0.0
  0
LINE
  5
11BE
  8
DIM
 10
2939.4617922506932
 20
1423.490735559124
 30
0.0
 11
2939.4617922506932
 21
1494.6907355591229
 31
0.0
  0
SOLID
  5
11BF
  8
DIM
 10
2934.4617922506932
 20
1835.890735559122
 30
0.0
 11
2944.4617922506932
 21
1835.890735559122
 31
0.0
 12
2939.4617922506932
 22
1865.890735559122
 32
0.0
 13
2939.4617922506932
 23
1865.890735559122
 33
0.0
  0
SOLID
  5
11C0
  8
DIM
 10
2934.4617922506932
 20
1423.490735559124
 30
0.0
 11
2944.4617922506932
 21
1423.490735559124
 31
0.0
 12
2939.4617922506932
 22
1393.490735559124
 32
0.0
 13
2939.4617922506932
 23
1393.490735559124
 33
0.0
  0
LINE
  5
11C2
  8
DIM
 10
2759.1263942558771
 20
1849.690735559122
 30
0.0
 11
2887.5966279507579
 21
1849.690735559122
 31
0.0
  0
LINE
  5
11C3
  8
DIM
 10
2759.1263942558771
 20
1409.6907355591241
 30
0.0
 11
2887.5966279507579
 21
1409.6907355591241
 31
0.0
  0
LINE
  5
11C4
  8
DIM
 10
2867.5966279507579
 20
1819.6907355591229
 30
0.0
 11
2867.5966279507579
 21
1762.1907355591241
 31
0.0
  0
LINE
  5
11C5
  8
DIM
 10
2867.5966279507579
 20
1439.6907355591241
 30
0.0
 11
2867.5966279507579
 21
1497.190735559122
 31
0.0
  0
SOLID
  5
11C6
  8
DIM
 10
2862.5966279507579
 20
1819.6907355591229
 30
0.0
 11
2872.5966279507579
 21
1819.6907355591229
 31
0.0
 12
2867.5966279507579
 22
1849.690735559122
 32
0.0
 13
2867.5966279507579
 23
1849.690735559122
 33
0.0
  0
SOLID
  5
11C7
  8
DIM
 10
2862.5966279507579
 20
1439.6907355591241
 30
0.0
 11
2872.5966279507579
 21
1439.6907355591241
 31
0.0
 12
2867.5966279507579
 22
1409.6907355591241
 32
0.0
 13
2867.5966279507579
 23
1409.6907355591241
 33
0.0
  0
CIRCLE
  5
11CD
  8
DIM
 10
3291.110182386908
 20
760.78307750230863
 30
0.0
 40
10.25
  0
CIRCLE
  5
11CE
  8
DIM
 10
3291.110182386908
 20
685.78307750230874
 30
0.0
 40
10.25
  0
LINE
  5
11CF
  8
DIM
 10
3202.1101823869099
 20
836.78307750230886
 30
0.0
 11
3202.1101823869099
 21
898.87767562589374
 31
0.0
  0
LINE
  5
11D0
  8
DIM
 10
3291.110182386908
 20
780.78307750230863
 30
0.0
 11
3291.110182386908
 21
898.87767562589374
 31
0.0
  0
LINE
  5
11D1
  8
DIM
 10
3232.1101823869099
 20
878.87767562589374
 30
0.0
 11
3261.1101823869089
 21
878.87767562589374
 31
0.0
  0
LINE
  5
11D2
  8
DIM
 10
3291.110182386908
 20
878.87767562589374
 30
0.0
 11
3321.1101823869099
 21
878.87767562589374
 31
0.0
  0
SOLID
  5
11D3
  8
DIM
 10
3232.1101823869099
 20
883.87767562589374
 30
0.0
 11
3232.1101823869099
 21
873.87767562589374
 31
0.0
 12
3202.1101823869099
 22
878.87767562589374
 32
0.0
 13
3202.1101823869099
 23
878.87767562589374
 33
0.0
  0
SOLID
  5
11D4
  8
DIM
 10
3261.1101823869089
 20
883.87767562589374
 30
0.0
 11
3261.1101823869089
 21
873.87767562589374
 31
0.0
 12
3291.110182386908
 22
878.87767562589374
 32
0.0
 13
3291.110182386908
 23
878.87767562589374
 33
0.0
  0
LINE
  5
11D6
  8
DIM
 10
3311.1101823869089
 20
760.78307750230863
 30
0.0
 11
3381.4462582876522
 21
760.78307750230863
 31
0.0
  0
LINE
  5
11D7
  8
DIM
 10
3311.1101823869089
 20
685.78307750230874
 30
0.0
 11
3381.4462582876522
 21
685.78307750230863
 31
0.0
  0
LINE
  5
11DE
  8
DIM
 10
3347.2001384628338
 20
685.78307750230874
 30
0.0
 11
3347.2001384628338
 21
816.78307750230863
 31
0.0
  0
LINE
  5
11E5
  8
DIM
 10
3342.0120993194769
 20
811.59503835895293
 30
0.0
 11
3347.2001384628338
 21
816.78307750230863
 31
0.0
  0
LINE
  5
11E6
  8
DIM
 10
3347.2001384628338
 20
816.78307750230863
 30
0.0
 11
3352.388177606188
 21
811.59503835895259
 31
0.0
  0
LINE
  5
11E7
  8
DIM
 10
3342.0120993194769
 20
755.59503835895293
 30
0.0
 11
3352.388177606188
 21
765.97111664566432
 31
0.0
  0
LINE
  5
11E8
  8
DIM
 10
3342.0120993194769
 20
765.9711166456641
 30
0.0
 11
3352.388177606188
 21
755.59503835895293
 31
0.0
  0
LINE
  5
11E9
  8
DIM
 10
3347.2001384628338
 20
685.78307750230886
 30
0.0
 11
3352.388177606188
 21
690.97111664566432
 31
0.0
  0
LINE
  5
11EA
  8
DIM
 10
3342.0120993194769
 20
690.9711166456641
 30
0.0
 11
3347.200138462832
 21
685.78307750230874
 31
0.0
  0
LINE
  5
11EB
  8
DIM
 10
1654.0763942558769
 20
1946.6907355591211
 30
0.0
 11
1496.698602351978
 21
1946.6907355591211
 31
0.0
  0
LINE
  5
11EC
  8
DIM
 10
2463.1533725823151
 20
1264.8907355591241
 30
0.0
 11
1496.698602351978
 21
1264.8907355591241
 31
0.0
  0
LINE
  5
11ED
  8
DIM
 10
1516.6986023519789
 20
1916.6907355591211
 30
0.0
 11
1516.6986023519789
 21
1728.230735559122
 31
0.0
  0
LINE
  5
11EE
  8
DIM
 10
1516.698602351978
 20
1294.8907355591241
 30
0.0
 11
1516.698602351978
 21
1488.230735559122
 31
0.0
  0
SOLID
  5
11EF
  8
DIM
 10
1511.6986023519789
 20
1916.6907355591211
 30
0.0
 11
1521.698602351978
 21
1916.6907355591211
 31
0.0
 12
1516.6986023519789
 22
1946.6907355591211
 32
0.0
 13
1516.6986023519789
 23
1946.6907355591211
 33
0.0
  0
SOLID
  5
11F0
  8
DIM
 10
1511.698602351978
 20
1294.8907355591241
 30
0.0
 11
1521.698602351978
 21
1294.8907355591241
 31
0.0
 12
1516.698602351978
 22
1264.8907355591241
 32
0.0
 13
1516.698602351978
 23
1264.8907355591241
 33
0.0
  0
LINE
  5
1464
  8
DIM
 10
2791.6763942558769
 20
1865.890735559122
 30
0.0
 11
2959.2307652224681
 21
1865.890735559122
 31
0.0
  0
LINE
  5
1466
  8
DIM
 10
2939.2307652224681
 20
1835.890735559122
 30
0.0
 11
2939.2307652224681
 21
1805.890735559122
 31
0.0
  0
SOLID
  5
1468
  8
DIM
 10
2934.2307652224681
 20
1835.890735559122
 30
0.0
 11
2944.2307652224681
 21
1835.890735559122
 31
0.0
 12
2939.2307652224681
 22
1865.890735559122
 32
0.0
 13
2939.2307652224681
 23
1865.890735559122
 33
0.0
  0
LINE
  5
146B
  8
DIM
 10
2759.1263942558771
 20
1849.690735559122
 30
0.0
 11
2887.5981340099311
 21
1849.690735559122
 31
0.0
  0
LINE
  5
146D
  8
DIM
 10
2867.5981340099311
 20
1819.6907355591229
 30
0.0
 11
2867.5981340099311
 21
1789.6907355591229
 31
0.0
  0
SOLID
  5
146F
  8
DIM
 10
2862.5981340099311
 20
1819.6907355591229
 30
0.0
 11
2872.5981340099311
 21
1819.6907355591229
 31
0.0
 12
2867.5981340099311
 22
1849.690735559122
 32
0.0
 13
2867.5981340099311
 23
1849.690735559122
 33
0.0
  0
TEXT
  5
1774
  8
DIM
 10
1529.6518303126811
 20
1508.2307355591231
 30
0.0
 40
30.0
  1
682 O/A
 50
90.0
  0
TEXT
  5
1775
  8
DIM
 10
3359.3427641167218
 20
772.18850348168223
 30
0.0
 40
30.0
  1
56
  0
TEXT
  5
1776
  8
DIM
 10
3359.3427641167218
 20
710.62936786208115
 30
0.0
 40
30.0
  1
75
  0
TEXT
  5
1777
  8
DIM
 10
3341.110182386908
 20
863.87767562589374
 30
0.0
 40
30.0
  1
89
  0
TEXT
  5
1778
  8
DIM
 10
2882.596627950757
 20
1517.1907355591241
 30
0.0
 40
30.0
  1
440 CTRS
 50
90.0
  0
TEXT
  5
1779
  8
DIM
 10
2954.4617922506932
 20
1514.6907355591241
 30
0.0
 40
30.0
  1
472 CTRS
 50
90.0
  0
TEXT
  5
177A
  8
DIM
 10
3847.823572455176
 20
614.48307750230924
 30
0.0
 40
30.0
  1
257
 50
90.0
  0
TEXT
  5
177B
  8
DIM
 10
3847.823572455176
 20
896.78307750230931
 30
0.0
 40
30.0
  1
34
 50
90.0
  0
TEXT
  5
177C
  8
DIM
 10
3085.6819240103109
 20
604.28307750230931
 30
0.0
 40
30.0
  1
257
 50
90.0
  0
TEXT
  5
177D
  8
DIM
 10
3085.6972662228591
 20
896.78307750230897
 30
0.0
 40
30.0
  1
44
 50
90.0
  0
TEXT
  5
177E
  8
DIM
 10
2840.3053354073272
 20
620.3290225423566
 30
0.0
 40
30.0
  1
111
 50
90.0
  0
TEXT
  5
177F
  8
DIM
 10
2900.1655178475498
 20
608.28307750230931
 30
0.0
 40
30.0
  1
342
 50
90.0
  0
TEXT
  5
1780
  8
DIM
 10
1529.664319583869
 20
544.28307750230886
 30
0.0
 40
30.0
  1
355 O/A
 50
90.0
  0
TEXT
  5
1781
  8
DIM
 10
2089.3763942558771
 20
908.44540194757406
 30
0.0
 40
30.0
  1
1111 O/A
  0
TEXT
  5
1782
  8
DIM
 10
2017.0763942558769
 20
844.53877973191629
 30
0.0
 40
30.0
  1
742
  0
TEXT
  5
1783
  8
DIM
 10
1502.02962221658
 20
844.62060687402266
 30
0.0
 40
30.0
  1
52
  0
TEXT
  5
1784
  8
DIM
 10
2005.276394255877
 20
1973.578120686029
 30
0.0
 40
30.0
  1
742
  0
TEXT
  5
1785
  8
DIM
 10
1513.3945932521769
 20
1973.8238483064431
 30
0.0
 40
30.0
  1
40
  0
TEXT
  5
1786
  8
DIM
 10
1789.376394255876
 20
1107.627356150924
 30
0.0
 40
30.0
  1
1165 OPTIONAL SPRING MTG CTRS
  0
TEXT
  5
1787
  8
DIM
 10
1959.376394255876
 20
1169.6502760910109
 30
0.0
 40
30.0
  1
1089 HANGING CTRS
  0
LINE
  5
17A7
  8
DIM
 10
2789.6763942558782
 20
717.78307750230886
 30
0.0
 11
2744.67639425588
 21
717.78307750230886
 31
0.0
  0
LINE
  5
17A8
  8
DIM
 10
2789.6763942558782
 20
705.78307750230886
 30
0.0
 11
2744.67639425588
 21
705.78307750230886
 31
0.0
  0
LINE
  5
17AD
  8
OUTLINE
 10
3218.2101823869102
 20
745.78307750230852
 30
0.0
 11
3113.1101823869089
 21
745.78307750230863
 31
0.0
  0
LINE
  5
17AE
  8
OUTLINE
 10
3222.9101823869082
 20
508.78307750230869
 30
0.0
 11
3113.1101823869089
 21
508.78307750230869
 31
0.0
  0
LINE
  5
17AF
  8
DIM
 10
3117.9901823869091
 20
772.78307750230886
 30
0.0
 11
3218.2101823869102
 21
772.78307750230829
 31
0.0
  0
LINE
  5
17B1
  8
OUTLINE
  6
HIDDEN
 10
3222.9101823869109
 20
515.78307750230886
 30
0.0
 11
3117.9901823869091
 21
515.78307750230886
 31
0.0
  0
LINE
  5
17B2
  8
OUTLINE
 10
3794.9101823869109
 20
782.78307750230863
 30
0.0
 11
3732.9101823869091
 21
782.78307750230863
 31
0.0
  0
LINE
  5
1A26
  8
DIM
 10
2764.6763942558769
 20
1903.290735559123
 30
0.0
 11
2959.2307652224681
 21
1903.290735559123
 31
0.0
  0
LINE
  5
1A27
  8
DIM
 10
2939.2307652224681
 20
1933.290735559123
 30
0.0
 11
2939.2307652224681
 21
1963.290735559123
 31
0.0
  0
SOLID
  5
1A28
  8
DIM
 10
2934.2307652224681
 20
1933.290735559123
 30
0.0
 11
2944.2307652224681
 21
1933.290735559123
 31
0.0
 12
2939.2307652224681
 22
1903.290735559123
 32
0.0
 13
2939.2307652224681
 23
1903.290735559123
 33
0.0
  0
TEXT
  5
1A29
  8
DIM
 10
2954.2307652224681
 20
1983.290735559123
 30
0.0
 40
30.0
  1
37
 50
90.0
  0
LINE
  5
1A2A
  8
DIM
 10
2764.6763942558769
 20
1903.290735559123
 30
0.0
 11
2887.5981340099311
 21
1903.290735559123
 31
0.0
  0
LINE
  5
1A2B
  8
DIM
 10
2867.5981340099311
 20
1933.290735559123
 30
0.0
 11
2867.5981340099311
 21
1963.290735559123
 31
0.0
  0
SOLID
  5
1A2C
  8
DIM
 10
2862.5981340099311
 20
1933.290735559123
 30
0.0
 11
2872.5981340099311
 21
1933.290735559123
 31
0.0
 12
2867.5981340099311
 22
1903.290735559123
 32
0.0
 13
2867.5981340099311
 23
1903.290735559123
 33
0.0
  0
TEXT
  5
1A2D
  8
DIM
 10
2882.5981340099311
 20
1983.290735559123
 30
0.0
 40
30.0
  1
54
 50
90.0
  0
LINE
  5
1B5D
  8
DIM
 10
1645.0763942558769
 20
1384.4407355591241
 30
0.0
 11
1645.0763942558769
 21
1164.6502760910109
 31
0.0
  0
LINE
  5
1B60
  8
DIM
 10
2733.6763942558791
 20
1384.4407355591241
 30
0.0
 11
2733.6763942558791
 21
1164.6502760910109
 31
0.0
  0
LINE
  5
1B61
  8
OUTLINE
 10
2733.6763942558791
 20
821.78307750230863
 30
0.0
 11
2733.6763942558791
 21
811.78307750230886
 31
0.0
  0
LINE
  5
1B62
  8
OUTLINE
 10
1645.0763942558769
 20
821.78307750230863
 30
0.0
 11
1645.0763942558769
 21
811.78307750230886
 31
0.0
  0
ENDSEC
  0
EOF
