  0
SECTION
  2
HEADER
  9
$ACADVER
  1
AC1009
  9
$INSBASE
 10
0.0
 20
0.0
 30
0.0
  9
$EXTMIN
 10
1911.679472788484
 20
0.0
 30
0.0
  9
$EXTMAX
 10
7780.000000000312
 20
4379.502457367631
 30
0.0
  9
$LIMMIN
 10
0.0
 20
0.0
  9
$LIMMAX
 10
7780.0
 20
5320.0
  9
$ORTHOMODE
 70
     1
  9
$REGENMODE
 70
     1
  9
$FILLMODE
 70
     1
  9
$QTEXTMODE
 70
     0
  9
$MIRRTEXT
 70
     0
  9
$DRAGMODE
 70
     2
  9
$LTSCALE
 40
275.0
  9
$OSMODE
 70
     0
  9
$ATTMODE
 70
     1
  9
$TEXTSIZE
 40
60.0
  9
$TRACEWID
 40
0.05
  9
$TEXTSTYLE
  7
TITLE3
  9
$CLAYER
  8
DIM
  9
$CELTYPE
  6
BYLAYER
  9
$CECOLOR
 62
   256
  9
$DIMSCALE
 40
1.0
  9
$DIMASZ
 40
0.12
  9
$DIMEXO
 40
0.05
  9
$DIMDLI
 40
0.5
  9
$DIMRND
 40
0.0
  9
$DIMDLE
 40
0.0
  9
$DIMEXE
 40
0.1
  9
$DIMTP
 40
0.1
  9
$DIMTM
 40
0.1
  9
$DIMTXT
 40
0.12
  9
$DIMCEN
 40
0.0
  9
$DIMTSZ
 40
0.0
  9
$DIMTOL
 70
     0
  9
$DIMLIM
 70
     0
  9
$DIMTIH
 70
     1
  9
$DIMTOH
 70
     1
  9
$DIMSE1
 70
     0
  9
$DIMSE2
 70
     0
  9
$DIMTAD
 70
     0
  9
$DIMZIN
 70
     7
  9
$DIMBLK
  1

  9
$DIMASO
 70
     0
  9
$DIMSHO
 70
     0
  9
$DIMPOST
  1

  9
$DIMAPOST
  1
mm
  9
$DIMALT
 70
     0
  9
$DIMALTD
 70
     2
  9
$DIMALTF
 40
25.399999999999999
  9
$DIMLFAC
 40
1.0
  9
$DIMTOFL
 70
     0
  9
$DIMTVP
 40
0.0
  9
$DIMTIX
 70
     0
  9
$DIMSOXD
 70
     0
  9
$DIMSAH
 70
     0
  9
$DIMBLK1
  1

  9
$DIMBLK2
  1

  9
$DIMSTYLE
  2
AM_ANSI
  9
$DIMCLRD
 70
   256
  9
$DIMCLRE
 70
   256
  9
$DIMCLRT
 70
     2
  9
$DIMTFAC
 40
0.71
  9
$DIMGAP
 40
0.06
  9
$LUNITS
 70
     2
  9
$LUPREC
 70
     2
  9
$SKETCHINC
 40
0.1
  9
$FILLETRAD
 40
0.0
  9
$AUNITS
 70
     0
  9
$AUPREC
 70
     2
  9
$MENU
  1
\acad12\support\cnc
  9
$ELEVATION
 40
0.0
  9
$PELEVATION
 40
0.0
  9
$THICKNESS
 40
0.0
  9
$LIMCHECK
 70
     0
  9
$BLIPMODE
 70
     0
  9
$CHAMFERA
 40
0.0
  9
$CHAMFERB
 40
0.0
  9
$SKPOLY
 70
     0
  9
$TDCREATE
 40
2451145.6847506939
  9
$TDUPDATE
 40
2454699.4892278821
  9
$TDINDWG
 40
1.2861861921
  9
$TDUSRTIMER
 40
1.2861851156999999
  9
$USRTIMER
 70
     1
  9
$ANGBASE
 50
0.0
  9
$ANGDIR
 70
     0
  9
$PDMODE
 70
     2
  9
$PDSIZE
 40
20.0
  9
$PLINEWID
 40
0.0
  9
$COORDS
 70
     1
  9
$SPLFRAME
 70
     0
  9
$SPLINETYPE
 70
     6
  9
$SPLINESEGS
 70
     8
  9
$ATTDIA
 70
     1
  9
$ATTREQ
 70
     1
  9
$HANDLING
 70
     1
  9
$HANDSEED
  5
2B37
  9
$SURFTAB1
 70
     6
  9
$SURFTAB2
 70
     6
  9
$SURFTYPE
 70
     6
  9
$SURFU
 70
     6
  9
$SURFV
 70
     6
  9
$UCSNAME
  2

  9
$UCSORG
 10
0.0
 20
0.0
 30
0.0
  9
$UCSXDIR
 10
1.0
 20
0.0
 30
0.0
  9
$UCSYDIR
 10
0.0
 20
1.0
 30
0.0
  9
$PUCSNAME
  2

  9
$PUCSORG
 10
0.0
 20
0.0
 30
0.0
  9
$PUCSXDIR
 10
1.0
 20
0.0
 30
0.0
  9
$PUCSYDIR
 10
0.0
 20
1.0
 30
0.0
  9
$USERI1
 70
     0
  9
$USERI2
 70
     0
  9
$USERI3
 70
     0
  9
$USERI4
 70
     0
  9
$USERI5
 70
     0
  9
$USERR1
 40
0.0
  9
$USERR2
 40
0.0
  9
$USERR3
 40
0.0
  9
$USERR4
 40
0.0
  9
$USERR5
 40
0.0
  9
$WORLDVIEW
 70
     1
  9
$SHADEDGE
 70
     3
  9
$SHADEDIF
 70
    70
  9
$TILEMODE
 70
     1
  9
$MAXACTVP
 70
    16
  9
$PLIMCHECK
 70
     0
  9
$PEXTMIN
 10
1.0000000000000000E+020
 20
1.0000000000000000E+020
 30
1.0000000000000000E+020
  9
$PEXTMAX
 10
-1.0000000000000000E+020
 20
-1.0000000000000000E+020
 30
-1.0000000000000000E+020
  9
$PLIMMIN
 10
0.0
 20
0.0
  9
$PLIMMAX
 10
12.0
 20
9.0
  9
$UNITMODE
 70
     0
  9
$VISRETAIN
 70
     0
  9
$PLINEGEN
 70
     0
  9
$PSLTSCALE
 70
     0
  0
ENDSEC
  0
SECTION
  2
TABLES
  0
TABLE
  2
VPORT
 70
     1
  0
VPORT
  2
*ACTIVE
 70
     0
 10
0.0
 20
0.0
 11
1.0
 21
1.0
 12
5227.7708544340439
 22
2329.4105080956001
 13
0.0
 23
0.0
 14
50.0
 24
50.0
 15
100.0
 25
100.0
 16
0.0
 26
0.0
 36
1.0
 17
0.0
 27
0.0
 37
0.0
 40
4696.9616728152123
 41
1.5308953341740219
 42
50.0
 43
0.0
 44
0.0
 50
0.0
 51
0.0
 71
     0
 72
   100
 73
     1
 74
     0
 75
     0
 76
     0
 77
     0
 78
     0
  0
ENDTAB
  0
TABLE
  2
LTYPE
 70
    17
  0
LTYPE
  2
CONTINUOUS
 70
     0
  3
Solid line
 72
    65
 73
     0
 40
0.0
  0
LTYPE
  2
HIDDEN
 70
     0
  3
_ _ _ _ _ _ _ _ _ _ _ _ _ _ _ _ _ _ _ _ _ _ _
 72
    65
 73
     2
 40
0.375
 49
0.25
 49
-0.125
  0
LTYPE
  2
DASHED
 70
     0
  3
__ __ __ __ __ __ __ __ __ __ __ __ __ __ __
 72
    65
 73
     2
 40
0.75
 49
0.5
 49
-0.25
  0
LTYPE
  2
PHANTOM2
 70
     0
  3
Phantom (.5x) ___ _ _ ___ _ _ ___ _ _ ___ _ _
 72
    65
 73
     6
 40
1.25
 49
0.625
 49
-0.125
 49
0.125
 49
-0.125
 49
0.125
 49
-0.125
  0
LTYPE
  2
CENTER
 70
     0
  3
Center ____ _ ____ _ ____ _ ____ _ ____ _ ____
 72
    65
 73
     4
 40
2.0
 49
1.25
 49
-0.25
 49
0.25
 49
-0.25
  0
LTYPE
  2
AM_ISO02W050
 70
     0
  3
__ __ __ __ __ __ __ __ __ __ __ __ __ __ __
 72
    65
 73
     2
 40
7.5
 49
6.0
 49
-1.5
  0
LTYPE
  2
AM_ISO08W050
 70
     0
  3
____ . ____ . ____ . ____ . ____ . ____ . ____
 72
    65
 73
     4
 40
18.0
 49
12.0
 49
-1.5
 49
3.0
 49
-1.5
  0
LTYPE
  2
AM_ISO09W050
 70
     0
  3
_____ . . _____ . . _____ . . ____ .. ____
 72
    65
 73
     6
 40
22.5
 49
12.0
 49
-1.5
 49
3.0
 49
-1.5
 49
3.0
 49
-1.5
  0
LTYPE
  2
AMCONSTR
 70
     0
  3
_______________________
 72
    65
 73
     2
 40
9999.0
 49
9999.0
 49
0.0
  0
LTYPE
  2
AM_ISO08W050X2
 70
     0
  3
__ . __ . __ . __ . __ . __
 72
    65
 73
     4
 40
9.0
 49
6.0
 49
-0.75
 49
1.5
 49
-0.75
  0
LTYPE
  2
AM_ISO02W050X2
 70
     0
  3
 _ _ _ _ _ _ _ _ _ _ _ _
 72
    65
 73
     2
 40
3.75
 49
3.0
 49
-0.75
  0
LTYPE
  2
AMZIGZAG
 70
     0
  3
/\/-/\/-/\/-/\/-/\/-/\/
 72
    65
 73
     2
 40
11.0001
 49
0.0001
 49
-11.0
  0
LTYPE
  2
CENTER2
 70
     0
  3
Center (.5x) ___ _ ___ _ ___ _ ___ _ ___ _ ___
 72
    65
 73
     4
 40
1.125
 49
0.75
 49
-0.125
 49
0.125
 49
-0.125
  0
LTYPE
  2
HIDDEN2
 70
     0
  3
Hidden (.5x) _ _ _ _ _ _ _ _ _ _ _ _ _ _ _ _ _
 72
    65
 73
     2
 40
0.1875
 49
0.125
 49
-0.0625
  0
LTYPE
  2
AMZIGZAG2
 70
     0
  3
/\/-/\/-/\/-/\/-/\/-/\/
 72
    65
 73
     2
 40
0.4401
 49
0.0001
 49
-0.4400000000000001
  0
LTYPE
  2
ACANSTGB
 70
     0
  3
__ . . __ . .
 72
    65
 73
     6
 40
0.35433070866
 49
0.15748031496
 49
-0.03937007874
 49
0.03937007874
 49
-0.03937007874
 49
0.03937007874
 49
-0.03937007874
  0
LTYPE
  2
ACANSTGL
 70
     0
  3
_ _ _ _ _
 72
    65
 73
     2
 40
0.11811023622
 49
0.07874015748
 49
-0.03937007874
  0
ENDTAB
  0
TABLE
  2
LAYER
 70
     6
  0
LAYER
  2
0
 70
     0
 62
     7
  6
CONTINUOUS
  0
LAYER
  2
DIM
 70
     0
 62
     7
  6
CONTINUOUS
  0
LAYER
  2
TEXT
 70
     0
 62
     3
  6
CONTINUOUS
  0
LAYER
  2
OUTLINE
 70
     0
 62
     7
  6
CONTINUOUS
  0
LAYER
  2
OVERLAY-A3
 70
     0
 62
     7
  6
CONTINUOUS
  0
LAYER
  2
CLEAR
 70
     0
 62
     1
  6
PHANTOM2
  0
ENDTAB
  0
TABLE
  2
STYLE
 70
     8
  0
STYLE
  2
STANDARD
 70
     0
 40
0.0
 41
1.0
 50
0.0
 71
     0
 42
0.2
  3
txt
  4

  0
STYLE
  2
ANNOTATIVE
 70
     0
 40
0.0
 41
1.0
 50
0.0
 71
     0
 42
0.2
  3
txt
  4

  0
STYLE
  2
TITLE3
 70
     0
 40
54.869999999999997
 41
1.0
 50
0.0
 71
     0
 42
60.0
  3
SIMPLEX.shx
  4

  0
STYLE
  2
TITLE5
 70
     0
 40
100.0
 41
1.0
 50
0.0
 71
     0
 42
100.0
  3
SIMPLEX
  4

  0
STYLE
  2
SIMPLEX
 70
     0
 40
60.0
 41
1.0
 50
0.0
 71
     0
 42
60.0
  3
simplex
  4

  0
STYLE
  2

 70
     1
 40
0.0
 41
1.0
 50
0.0
 71
     0
 42
60.0
  3
genltshp.shx
  4

  0
STYLE
  2
ACANSTS
 70
     0
 40
1.0
 41
1.0
 50
0.0
 71
     0
 42
60.0
  3
romans.shx
  4

  0
STYLE
  2
ACANSGDT
 70
     0
 40
0.0
 41
1.0
 50
0.0
 71
     0
 42
60.0
  3
amgdt.shx
  4

  0
ENDTAB
  0
TABLE
  2
VIEW
 70
     0
  0
ENDTAB
  0
TABLE
  2
UCS
 70
     0
  0
ENDTAB
  0
TABLE
  2
APPID
 70
    10
  0
APPID
  2
ACAD
 70
     0
  0
APPID
  2
ACADANNOTATIVE
 70
     0
  0
APPID
  2
ACAD_MLEADERVER
 70
     0
  0
APPID
  2
MCAD_NO_VIS
 70
     0
  0
APPID
  2
ACAD_TEMP_GRAPHIC
 70
     0
  0
APPID
  2
AD_DRAW
 70
     0
  0
APPID
  2
ACATTRIBSERVICES
 70
     0
  0
APPID
  2
DESIGNERASSEMBLIES
 70
     0
  0
APPID
  2
ACADM_DIM_EDIT
 70
     0
  0
APPID
  2
AMDT_DM_ADJ
 70
     0
  0
ENDTAB
  0
TABLE
  2
DIMSTYLE
 70
     8
  0
DIMSTYLE
  2
STANDARD
 70
     0
  3

  4

  5

  6

  7

 40
1.0
 41
0.18
 42
0.0625
 43
0.38
 44
0.18
 45
0.0
 46
0.0
 47
0.0
 48
0.0
140
0.18
141
0.09
142
0.0
143
25.399999999999999
144
1.0
145
0.0
146
1.0
147
0.09
 71
     0
 72
     0
 73
     1
 74
     1
 75
     0
 76
     0
 77
     0
 78
     0
170
     0
171
     2
172
     0
173
     0
174
     0
175
     0
176
     0
177
     0
178
     0
  0
DIMSTYLE
  2
ANNOTATIVE
 70
     0
  3

  4

  5

  6

  7

 40
1.0
 41
0.18
 42
0.0625
 43
0.38
 44
0.18
 45
0.0
 46
0.0
 47
0.0
 48
0.0
140
0.18
141
0.09
142
0.0
143
25.399999999999999
144
1.0
145
0.0
146
1.0
147
0.09
 71
     0
 72
     0
 73
     1
 74
     1
 75
     0
 76
     0
 77
     0
 78
     0
170
     0
171
     2
172
     0
173
     0
174
     0
175
     0
176
     0
177
     0
178
     0
  0
DIMSTYLE
  2
AM_ANSI
 70
     0
  3

  4
mm
  5

  6

  7

 40
1.0
 41
0.12
 42
0.05
 43
0.5
 44
0.1
 45
0.0
 46
0.0
 47
0.1
 48
0.1
140
0.12
141
0.0
142
0.0
143
25.399999999999999
144
1.0
145
0.0
146
0.71
147
0.06
 71
     0
 72
     0
 73
     1
 74
     1
 75
     0
 76
     0
 77
     0
 78
     7
170
     0
171
     2
172
     0
173
     0
174
     0
175
     0
176
   256
177
   256
178
     2
  0
DIMSTYLE
  2
AM_ANSI$3
 70
     0
  3

  4
mm
  5

  6

  7

 40
1.0
 41
0.12
 42
0.05
 43
0.5
 44
0.1
 45
0.0
 46
0.0
 47
0.1
 48
0.1
140
0.12
141
0.0
142
0.0
143
25.399999999999999
144
1.0
145
0.0
146
0.71
147
0.06
 71
     0
 72
     0
 73
     1
 74
     1
 75
     0
 76
     0
 77
     0
 78
     7
170
     0
171
     2
172
     0
173
     0
174
     0
175
     0
176
   256
177
   256
178
     2
  0
DIMSTYLE
  2
AM_ANSI$4
 70
     0
  3

  4
mm
  5

  6

  7

 40
1.0
 41
0.12
 42
0.05
 43
0.5
 44
0.1
 45
0.0
 46
0.0
 47
0.1
 48
0.1
140
0.12
141
0.0
142
0.0
143
25.399999999999999
144
1.0
145
0.0
146
0.71
147
0.06
 71
     0
 72
     0
 73
     1
 74
     1
 75
     0
 76
     0
 77
     0
 78
     7
170
     0
171
     2
172
     0
173
     0
174
     0
175
     0
176
   256
177
   256
178
     2
  0
DIMSTYLE
  2
AM_ANSI$7
 70
     0
  3

  4
mm
  5

  6

  7

 40
1.0
 41
0.12
 42
0.05
 43
0.5
 44
0.1
 45
0.0
 46
0.0
 47
0.1
 48
0.1
140
0.12
141
0.0
142
0.0
143
25.399999999999999
144
1.0
145
0.0
146
0.71
147
0.06
 71
     0
 72
     0
 73
     1
 74
     1
 75
     0
 76
     0
 77
     0
 78
     7
170
     0
171
     2
172
     0
173
     0
174
     0
175
     0
176
   256
177
   256
178
     2
  0
DIMSTYLE
  2
AM_ANSI$SF
 70
     0
  3

  4
mm
  5

  6

  7

 40
1.0
 41
0.12
 42
0.05
 43
0.5
 44
0.1
 45
0.0
 46
0.0
 47
0.1
 48
0.1
140
0.12
141
0.0
142
0.0
143
25.399999999999999
144
1.0
145
0.0
146
0.71
147
0.06
 71
     0
 72
     0
 73
     1
 74
     1
 75
     1
 76
     1
 77
     0
 78
     7
170
     0
171
     2
172
     0
173
     0
174
     0
175
     0
176
   256
177
   256
178
     2
  0
DIMSTYLE
  2
AM_ANSI$SH
 70
     0
  3

  4
mm
  5

  6
GENAXEH
  7

 40
1.0
 41
0.12
 42
0.05
 43
0.5
 44
0.1
 45
0.0
 46
0.0
 47
0.1
 48
0.1
140
0.12
141
0.0
142
0.0
143
25.399999999999999
144
1.0
145
0.0
146
0.71
147
0.06
 71
     0
 72
     0
 73
     1
 74
     1
 75
     1
 76
     1
 77
     0
 78
     7
170
     0
171
     2
172
     0
173
     1
174
     0
175
     0
176
   256
177
   256
178
     2
  0
ENDTAB
  0
ENDSEC
  0
SECTION
  2
BLOCKS
  0
BLOCK
  8
0
  2
$MODEL_SPACE
 70
     0
 10
0.0
 20
0.0
 30
0.0
  3
$MODEL_SPACE
  1

  0
ENDBLK
  5
2A59
  8
0
  0
BLOCK
 67
     1
  8
0
  2
$PAPER_SPACE
 70
     0
 10
0.0
 20
0.0
 30
0.0
  3
$PAPER_SPACE
  1

  0
ENDBLK
  5
2A55
 67
     1
  8
0
  0
BLOCK
  8
0
  2
NEW_BLOCK
 70
     0
 10
0.0
 20
0.0
 30
0.0
  3
NEW_BLOCK
  1

  0
TEXT
  5
28D5
  8
TEXT
 10
27.285946821803002
 20
25.27142175952417
 30
0.0
 40
40.0
  1
available on request
  7
TITLE3
  0
TEXT
  5
28D6
  8
TEXT
 10
27.285946821803002
 20
93.842850330952714
 30
0.0
 40
40.0
  1
Certified dimensions
  7
TITLE3
  0
TEXT
  5
28D7
  8
TEXT
 10
27.285946821803002
 20
162.4142789023812
 30
0.0
 40
40.0
  1
without notice or obligation.
  7
TITLE3
  0
TEXT
  5
28D8
  8
TEXT
 10
27.285946821803002
 20
230.9857074738097
 30
0.0
 40
40.0
  1
specifications at any time
  7
TITLE3
  0
TEXT
  5
28D9
  8
TEXT
 10
27.285946821803002
 20
299.55713604523839
 30
0.0
 40
40.0
  1
the right to change 
  7
TITLE3
  0
TEXT
  5
28DA
  8
TEXT
 10
27.285946821803002
 20
436.69999318809488
 30
0.0
 40
40.0
  1
NOTE
  7
TITLE3
  0
TEXT
  5
28DB
  8
TEXT
 10
27.285946821803002
 20
368.12856461666672
 30
0.0
 40
40.0
  1
The manufacturer reserves
  7
TITLE3
  0
ENDBLK
  5
28DC
  8
0
  0
BLOCK
  8
0
  2
NEW_BLOCK0
 70
     0
 10
0.0
 20
0.0
 30
0.0
  3
NEW_BLOCK0
  1

  0
INSERT
  5
28DF
  8
DIM
  2
NEW_BLOCK
 10
13.048098169647799
 20
6.0725618626865971
 30
0.0
 41
0.7000000000000455
 42
0.6999999999999993
 43
0.7
  0
ENDBLK
  5
28E0
  8
0
  0
BLOCK
  8
0
  2
IJD
 70
     0
 10
0.0
 20
0.0
 30
0.0
  3
IJD
  1

  0
LINE
  5
28E3
  8
OUTLINE
 10
-2073.0018365667511
 20
26.299999999999951
 30
0.0
 11
-72.998163433257091
 21
26.299999999999951
 31
0.0
  0
LINE
  5
28E4
  8
OUTLINE
 10
-2073.0018365667511
 20
990.29999999999995
 30
0.0
 11
-2073.0018365667511
 21
26.299999999999951
 31
0.0
  0
TEXT
  5
28E5
  8
TEXT
  6
CONTINUOUS
 10
-1469.1363510031899
 20
457.77461629208869
 30
0.0
 40
109.7399999999999
  1
IJD1400 
  7
TITLE3
  0
LINE
  5
28E6
  8
OUTLINE
 10
-2073.0018365667511
 20
990.29999999999995
 30
0.0
 11
-72.998163433257091
 21
990.29999999999995
 31
0.0
  0
LINE
  5
28E7
  8
OUTLINE
 10
-72.998163433257091
 20
990.29999999999995
 30
0.0
 11
-72.998163433257091
 21
26.299999999999951
 31
0.0
  0
ENDBLK
  5
28E8
  8
0
  0
BLOCK
  8
0
  2
GENAXEH
 70
     0
 10
0.0
 20
0.0
 30
0.0
  3
GENAXEH
  1

  0
LINE
  5
2AFD
  8
0
 10
-1.0
 20
0.0
 30
0.0
 11
1.0
 21
0.0
 31
0.0
  0
ENDBLK
  5
2AFF
  8
0
  0
ENDSEC
  0
SECTION
  2
ENTITIES
  0
LINE
  5
28E9
  8
OUTLINE
 10
4300.6722549143387
 20
2302.641335729395
 30
0.0
 11
4300.6722549143387
 21
1294.841335729395
 31
0.0
  0
LINE
  5
28EA
  8
OUTLINE
  6
CONTINUOUS
 10
4300.6722549143387
 20
1294.841335729395
 30
0.0
 11
6521.6722549143424
 21
1294.841335729395
 31
0.0
  0
LINE
  5
28EB
  8
OUTLINE
 10
6521.6722549143424
 20
2302.641335729395
 30
0.0
 11
4300.6722549143387
 21
2302.641335729395
 31
0.0
  0
LINE
  5
28EC
  8
OUTLINE
 10
6521.6722549143424
 20
1294.841335729395
 30
0.0
 11
6521.6722549143424
 21
2302.641335729395
 31
0.0
  0
LINE
  5
28ED
  8
OUTLINE
 10
2516.9528731789092
 20
2303.141335729395
 30
0.0
 11
3624.952873178911
 21
2303.141335729395
 31
0.0
  0
LINE
  5
28EE
  8
OUTLINE
 10
2516.9528731789092
 20
1294.941335729395
 30
0.0
 11
2516.9528731789092
 21
2303.141335729395
 31
0.0
  0
LINE
  5
28EF
  8
OUTLINE
 10
3624.952873178911
 20
2253.141335729395
 30
0.0
 11
3624.952873178911
 21
2303.141335729395
 31
0.0
  0
LINE
  5
28F0
  8
OUTLINE
  6
BYBLOCK
 10
6521.6722549143406
 20
4045.3523332664358
 30
0.0
 11
6521.6722549143406
 21
2937.3523332664349
 31
0.0
  0
LINE
  5
28F1
  8
OUTLINE
  6
BYBLOCK
 10
4300.6722549143387
 20
4045.3523332664358
 30
0.0
 11
6521.6722549143406
 21
4045.3523332664358
 31
0.0
  0
LINE
  5
28F2
  8
OUTLINE
  6
BYBLOCK
 10
6521.6722549143406
 20
2937.3523332664349
 30
0.0
 11
4300.6722549143433
 21
2937.3523332664349
 31
0.0
  0
LINE
  5
28F3
  8
OUTLINE
  6
BYBLOCK
 10
4300.6722549143433
 20
2937.3523332664349
 30
0.0
 11
4300.6722549143387
 21
4045.3523332664358
 31
0.0
  0
CIRCLE
  5
28F4
  8
OUTLINE
  6
CONTINUOUS
 10
3289.585641741457
 20
1335.8674695980369
 30
0.0
 40
17.0
  0
LINE
  5
28F5
  8
OUTLINE
  6
CONTINUOUS
 10
2517.1563820935812
 20
2250.4413357293952
 30
0.0
 11
2457.1563820935821
 21
2250.4413357293952
 31
0.0
  0
LINE
  5
28F6
  8
OUTLINE
  6
CONTINUOUS
 10
2517.1563820935812
 20
1772.441335729395
 30
0.0
 11
2457.1563820935821
 21
1772.441335729395
 31
0.0
  0
LINE
  5
28F7
  8
OUTLINE
  6
CONTINUOUS
 10
2457.1563820935821
 20
2250.4413357293952
 30
0.0
 11
2457.1563820935821
 21
1772.441335729395
 31
0.0
  0
LINE
  5
28F8
  8
OUTLINE
  6
CONTINUOUS
 10
5691.1722549143406
 20
4105.6463033534656
 30
0.0
 11
5131.1722549143433
 21
4105.6463033534656
 31
0.0
  0
LINE
  5
28F9
  8
OUTLINE
  6
CONTINUOUS
 10
5131.1722549143433
 20
4045.6463033534651
 30
0.0
 11
5131.1722549143433
 21
4105.6463033534656
 31
0.0
  0
LINE
  5
28FA
  8
OUTLINE
  6
CONTINUOUS
 10
5691.1722549143406
 20
4045.6463033534651
 30
0.0
 11
5691.1722549143406
 21
4105.6463033534656
 31
0.0
  0
LINE
  5
28FB
  8
OUTLINE
  6
CONTINUOUS
 10
4300.6722549143387
 20
1320.152998702946
 30
0.0
 11
4232.5722549143393
 21
1320.152998702946
 31
0.0
  0
LINE
  5
28FC
  8
OUTLINE
  6
CONTINUOUS
 10
4232.5722549143393
 20
1320.152998702946
 30
0.0
 11
4232.5722549143393
 21
1348.152998702946
 31
0.0
  0
LINE
  5
28FD
  8
OUTLINE
  6
CONTINUOUS
 10
4232.5722549143393
 20
1348.152998702946
 30
0.0
 11
4300.6722549143387
 21
1348.152998702946
 31
0.0
  0
LINE
  5
28FE
  8
OUTLINE
  6
CONTINUOUS
 10
4448.670418347594
 20
2787.3478144081751
 30
0.0
 11
6448.6740914810871
 21
2787.3478144081751
 31
0.0
  0
LINE
  5
28FF
  8
OUTLINE
  6
CONTINUOUS
 10
4448.6704183475949
 20
2937.3523332664349
 30
0.0
 11
4448.670418347594
 21
2787.3478144081751
 31
0.0
  0
LINE
  5
2900
  8
DIM
  6
CONTINUOUS
 10
4300.6722549143387
 20
2342.6413357293941
 30
0.0
 11
4300.6722549143387
 21
2523.7382307806852
 31
0.0
  0
LINE
  5
2901
  8
DIM
  6
CONTINUOUS
 10
6521.6722549143424
 20
2342.6413357293941
 30
0.0
 11
6521.6722549143424
 21
2523.7382307806852
 31
0.0
  0
LINE
  5
2902
  8
DIM
  6
CONTINUOUS
 10
4360.6722549143396
 20
2483.7382307806852
 30
0.0
 11
5253.6350537476792
 21
2483.7382307806852
 31
0.0
  0
LINE
  5
2903
  8
DIM
  6
CONTINUOUS
 10
6461.6722549143424
 20
2483.7382307806852
 30
0.0
 11
5544.831916398346
 21
2483.7382307806852
 31
0.0
  0
SOLID
  5
2904
  8
DIM
  6
CONTINUOUS
 10
4360.6722549143396
 20
2493.7382307806861
 30
0.0
 11
4360.6722549143396
 21
2473.7382307806861
 31
0.0
 12
4300.6722549143387
 22
2483.7382307806852
 32
0.0
 13
4300.6722549143387
 23
2483.7382307806852
 33
0.0
  0
SOLID
  5
2905
  8
DIM
  6
CONTINUOUS
 10
6461.6722549143424
 20
2493.7382307806861
 30
0.0
 11
6461.6722549143424
 21
2473.7382307806861
 31
0.0
 12
6521.6722549143424
 22
2483.7382307806852
 32
0.0
 13
6521.6722549143424
 23
2483.7382307806852
 33
0.0
  0
TEXT
  5
2906
  8
DIM
  6
CONTINUOUS
 10
5291.9522031258912
 20
2453.7382307806852
 30
0.0
 40
60.0
  1
2220
  7
TITLE3
 72
     4
 11
5397.6664888401756
 21
2483.7382307806852
 31
0.0
  0
LINE
  5
2907
  8
OUTLINE
  6
CONTINUOUS
 10
4232.5722549143393
 20
3286.6755585619189
 30
0.0
 11
4300.6722549143424
 21
3286.6755585619198
 31
0.0
  0
LINE
  5
2908
  8
OUTLINE
  6
CONTINUOUS
 10
4300.6722549143424
 20
3258.6755585619198
 30
0.0
 11
4232.5722549143393
 21
3258.6755585619198
 31
0.0
  0
LINE
  5
2909
  8
OUTLINE
  6
CONTINUOUS
 10
4232.5722549143393
 20
3258.6755585619198
 30
0.0
 11
4232.5722549143393
 21
3286.6755585619189
 31
0.0
  0
LINE
  5
290A
  8
DIM
  6
CONTINUOUS
 10
6091.1722549143442
 20
1218.841335729395
 30
0.0
 11
6091.1722549143442
 21
1054.7117160322839
 31
0.0
  0
SOLID
  5
290B
  8
DIM
  6
CONTINUOUS
 10
6031.1722549143433
 20
1104.711716032283
 30
0.0
 11
6031.1722549143433
 21
1084.71171603228
 31
0.0
 12
6091.1722549143442
 22
1094.711716032283
 32
0.0
 13
6091.1722549143442
 23
1094.711716032283
 33
0.0
  0
TEXT
  5
290C
  8
DIM
  6
CONTINUOUS
 10
5270.1040554063093
 20
1123.1530504583111
 30
0.0
 40
60.0
  1
1360
  7
TITLE3
 72
     4
 11
5370.1040554063093
 21
1153.1530504583111
 31
0.0
  0
TEXT
  5
290D
  8
DIM
  6
CONTINUOUS
 10
6227.9775619707852
 20
1118.565998629965
 30
0.0
 40
60.0
  1
430
  7
TITLE3
 72
     4
 11
6305.1204191136421
 21
1148.565998629965
 31
0.0
  0
LINE
  5
290E
  8
DIM
  6
CONTINUOUS
 10
6519.9722549143416
 20
1256.441335729395
 30
0.0
 11
6519.9722549143416
 21
1054.7117160322839
 31
0.0
  0
LINE
  5
290F
  8
DIM
  6
CONTINUOUS
 10
6151.1722549143433
 20
1094.711716032283
 30
0.0
 11
6459.9722549143416
 21
1094.711716032283
 31
0.0
  0
SOLID
  5
2910
  8
DIM
  6
CONTINUOUS
 10
6151.1722549143433
 20
1104.711716032283
 30
0.0
 11
6151.1722549143433
 21
1084.71171603228
 31
0.0
 12
6091.1722549143442
 22
1094.711716032283
 32
0.0
 13
6091.1722549143442
 23
1094.711716032283
 33
0.0
  0
SOLID
  5
2911
  8
DIM
  6
CONTINUOUS
 10
6459.9722549143416
 20
1104.711716032283
 30
0.0
 11
6459.9722549143416
 21
1084.71171603228
 31
0.0
 12
6519.9722549143416
 22
1094.711716032283
 32
0.0
 13
6519.9722549143416
 23
1094.711716032283
 33
0.0
  0
LINE
  5
2912
  8
DIM
  6
CONTINUOUS
 10
4302.372254914344
 20
1256.441335729395
 30
0.0
 11
4302.372254914344
 21
1054.7117160322839
 31
0.0
  0
SOLID
  5
2913
  8
DIM
  6
CONTINUOUS
 10
4362.372254914344
 20
1104.711716032283
 30
0.0
 11
4362.372254914344
 21
1084.71171603228
 31
0.0
 12
4302.372254914344
 22
1094.711716032283
 32
0.0
 13
4302.372254914344
 23
1094.711716032283
 33
0.0
  0
LINE
  5
2914
  8
OUTLINE
  6
CONTINUOUS
 10
6448.674091481088
 20
2937.3523332664349
 30
0.0
 11
6448.6740914810871
 21
2787.3478144081751
 31
0.0
  0
LINE
  5
2915
  8
OUTLINE
 10
3774.9528731789092
 20
1321.141335729395
 30
0.0
 11
3774.9528731789092
 21
2275.141335729395
 31
0.0
  0
LINE
  5
2916
  8
OUTLINE
  6
CONTINUOUS
 10
3774.9528731789092
 20
1321.141335729395
 30
0.0
 11
3624.9528731789142
 21
1321.141335729395
 31
0.0
  0
LINE
  5
2917
  8
OUTLINE
  6
CONTINUOUS
 10
3774.9528731789092
 20
2275.141335729395
 30
0.0
 11
3624.952873178911
 21
2275.1413357293968
 31
0.0
  0
LINE
  5
2918
  8
DIM
  6
CONTINUOUS
 10
4731.1722549143424
 20
1094.711716032283
 30
0.0
 11
6091.1722549143442
 21
1094.711716032285
 31
0.0
  0
LINE
  5
2919
  8
DIM
  6
CONTINUOUS
 10
4731.1722549143424
 20
1218.841335729395
 30
0.0
 11
4731.1722549143424
 21
1054.7117160322839
 31
0.0
  0
LINE
  5
291A
  8
DIM
  6
CONTINUOUS
 10
4671.1722549143406
 20
1094.711716032283
 30
0.0
 11
4362.3722549143431
 21
1094.711716032283
 31
0.0
  0
SOLID
  5
291B
  8
DIM
  6
CONTINUOUS
 10
4671.1722549143406
 20
1104.711716032283
 30
0.0
 11
4671.1722549143406
 21
1084.71171603228
 31
0.0
 12
4731.1722549143424
 22
1094.711716032283
 32
0.0
 13
4731.1722549143424
 23
1094.711716032283
 33
0.0
  0
SOLID
  5
291C
  8
DIM
  6
CONTINUOUS
 10
4791.1722549143378
 20
1104.711716032283
 30
0.0
 11
4791.1722549143378
 21
1084.71171603228
 31
0.0
 12
4731.1722549143424
 22
1094.711716032283
 32
0.0
 13
4731.1722549143424
 23
1094.711716032283
 33
0.0
  0
TEXT
  5
291D
  8
DIM
  6
CONTINUOUS
 10
4434.0165011516547
 20
1118.565998629965
 30
0.0
 40
60.0
  1
430
  7
TITLE3
 72
     4
 11
4511.1593582945115
 21
1148.565998629965
 31
0.0
  0
LINE
  5
291E
  8
OUTLINE
 10
2502.7028731789101
 20
1244.84133572939
 30
0.0
 11
3640.702873178911
 21
1244.84133572939
 31
0.0
  0
LINE
  5
291F
  8
OUTLINE
  6
CONTINUOUS
 10
4300.6722549143424
 20
3337.440128709115
 30
0.0
 11
4116.045554845593
 21
3987.530332091696
 31
0.0
  0
ARC
  5
2920
  8
OUTLINE
  6
CONTINUOUS
 10
4285.646384092006
 20
3390.3478144081741
 30
0.0
 40
620.79900185801046
 50
88.613072732055983
 51
105.85463470220191
  0
TEXT
  5
2921
  8
TEXT
  6
CONTINUOUS
 10
5773.4030068471911
 20
477.68798376746781
 30
0.0
 40
100.0
  1
IJD 1400 (HORIZ.DISCH.)
 41
1.016290429763004
  7
TITLE5
 72
     5
 11
7636.6021280793666
 21
477.68798376746781
 31
0.0
  0
TEXT
  5
2922
  8
TEXT
  6
CONTINUOUS
 10
5903.4922402034608
 20
220.0
 30
0.0
 40
60.0
  1
15.10.03
 41
0.8888888888888891
  7
TITLE3
 72
     5
 11
6223.4922402034608
 21
220.0
 31
0.0
  0
LINE
  5
2923
  8
OUTLINE
  6
CONTINUOUS
 10
6039.1722549143396
 20
1244.841335729395
 30
0.0
 11
6143.1722549143424
 21
1244.841335729395
 31
0.0
  0
LINE
  5
2924
  8
OUTLINE
  6
CONTINUOUS
 10
6143.1722549143424
 20
1244.841335729395
 30
0.0
 11
6143.1722549143424
 21
1294.841335729395
 31
0.0
  0
LINE
  5
2925
  8
OUTLINE
  6
CONTINUOUS
 10
6039.1722549143396
 20
1244.841335729395
 30
0.0
 11
6039.1722549143433
 21
1294.841335729395
 31
0.0
  0
LINE
  5
2926
  8
OUTLINE
  6
CONTINUOUS
 10
4679.1722549143369
 20
1244.841335729395
 30
0.0
 11
4783.1722549143424
 21
1244.841335729395
 31
0.0
  0
LINE
  5
2927
  8
OUTLINE
  6
CONTINUOUS
 10
4679.1722549143369
 20
1244.841335729395
 30
0.0
 11
4679.1722549143369
 21
1294.841335729395
 31
0.0
  0
LINE
  5
2928
  8
OUTLINE
  6
CONTINUOUS
 10
4783.1722549143424
 20
1244.841335729395
 30
0.0
 11
4783.1722549143424
 21
1294.841335729395
 31
0.0
  0
LINE
  5
2929
  8
OUTLINE
  6
CONTINUOUS
 10
2502.7028731789101
 20
1272.941335729395
 30
0.0
 11
2502.7028731789101
 21
1244.84133572939
 31
0.0
  0
LINE
  5
292A
  8
OUTLINE
  6
CONTINUOUS
 10
3640.702873178911
 20
1272.941335729395
 30
0.0
 11
3640.702873178911
 21
1244.84133572939
 31
0.0
  0
LINE
  5
292B
  8
OUTLINE
  6
CONTINUOUS
 10
2516.9528731789092
 20
1294.941335729395
 30
0.0
 11
3624.9528731789142
 21
1294.941335729395
 31
0.0
  0
LINE
  5
292C
  8
OUTLINE
  6
CONTINUOUS
 10
3618.8028731789009
 20
1294.841335729403
 30
0.0
 11
3640.702873178911
 21
1272.941335729395
 31
0.0
  0
LINE
  5
292D
  8
OUTLINE
  6
CONTINUOUS
 10
2524.7028731789101
 20
1294.941335729395
 30
0.0
 11
2502.7028731789101
 21
1272.941335729395
 31
0.0
  0
LINE
  5
292E
  8
OUTLINE
  6
CONTINUOUS
 10
3624.952873178911
 20
2275.1413357293968
 30
0.0
 11
3624.9528731789142
 21
1294.941335729395
 31
0.0
  0
LINE
  5
292F
  8
DIM
  6
CONTINUOUS
 10
2538.7028731789101
 20
1204.84133572939
 30
0.0
 11
2538.7028731789101
 21
1099.037063559955
 31
0.0
  0
LINE
  5
2930
  8
DIM
  6
CONTINUOUS
 10
3604.702873178911
 20
1204.84133572939
 30
0.0
 11
3604.702873178911
 21
1099.037063559955
 31
0.0
  0
LINE
  5
2931
  8
DIM
  6
CONTINUOUS
 10
2598.7028731789101
 20
1139.037063559954
 30
0.0
 11
2790.274301750339
 21
1139.037063559954
 31
0.0
  0
LINE
  5
2932
  8
DIM
  6
CONTINUOUS
 10
3544.7028731789101
 20
1139.037063559954
 30
0.0
 11
3353.131444607483
 21
1139.037063559954
 31
0.0
  0
SOLID
  5
2933
  8
DIM
  6
CONTINUOUS
 10
2598.7028731789101
 20
1149.037063559955
 30
0.0
 11
2598.7028731789101
 21
1129.037063559954
 31
0.0
 12
2538.7028731789101
 22
1139.037063559954
 32
0.0
 13
2538.7028731789101
 23
1139.037063559954
 33
0.0
  0
SOLID
  5
2934
  8
DIM
  6
CONTINUOUS
 10
3544.7028731789101
 20
1149.037063559955
 30
0.0
 11
3544.7028731789101
 21
1129.037063559954
 31
0.0
 12
3604.702873178911
 22
1139.037063559954
 32
0.0
 13
3604.702873178911
 23
1139.037063559954
 33
0.0
  0
TEXT
  5
2935
  8
DIM
 10
2830.274301750339
 20
1109.037063559955
 30
0.0
 40
60.0
  1
1066 CTRS
  7
TITLE3
  0
LINE
  5
2936
  8
DIM
  6
CONTINUOUS
 10
3604.702873178911
 20
1204.84133572939
 30
0.0
 11
3604.702873178911
 21
1099.037063559955
 31
0.0
  0
LINE
  5
2937
  8
DIM
  6
CONTINUOUS
 10
3640.702873178911
 20
1204.84133572939
 30
0.0
 11
3640.702873178911
 21
1099.037063559955
 31
0.0
  0
LINE
  5
2938
  8
DIM
  6
CONTINUOUS
 10
3544.7028731789101
 20
1139.037063559954
 30
0.0
 11
3484.7028731789101
 21
1139.037063559954
 31
0.0
  0
LINE
  5
2939
  8
DIM
  6
CONTINUOUS
 10
3700.702873178911
 20
1139.037063559954
 30
0.0
 11
3760.702873178911
 21
1139.037063559954
 31
0.0
  0
TEXT
  5
293A
  8
DIM
 10
3723.7335390854469
 20
1151.2175310493431
 30
0.0
 40
60.0
  1
36
  7
TITLE3
  0
SOLID
  5
293B
  8
DIM
  6
CONTINUOUS
 10
3544.7028731789101
 20
1149.037063559955
 30
0.0
 11
3544.7028731789101
 21
1129.037063559954
 31
0.0
 12
3604.702873178911
 22
1139.037063559954
 32
0.0
 13
3604.702873178911
 23
1139.037063559954
 33
0.0
  0
SOLID
  5
293C
  8
DIM
  6
CONTINUOUS
 10
3700.702873178911
 20
1149.037063559955
 30
0.0
 11
3700.702873178911
 21
1129.037063559954
 31
0.0
 12
3640.702873178911
 22
1139.037063559954
 32
0.0
 13
3640.702873178911
 23
1139.037063559954
 33
0.0
  0
LINE
  5
293D
  8
DIM
  6
CONTINUOUS
 10
2538.7028731789101
 20
1204.84133572939
 30
0.0
 11
2538.7028731789101
 21
1099.037063559955
 31
0.0
  0
LINE
  5
293E
  8
DIM
  6
CONTINUOUS
 10
2502.7028731789101
 20
1204.84133572939
 30
0.0
 11
2502.7028731789101
 21
1099.037063559955
 31
0.0
  0
LINE
  5
293F
  8
DIM
  6
CONTINUOUS
 10
2598.7028731789101
 20
1139.037063559954
 30
0.0
 11
2658.7028731789101
 21
1139.037063559954
 31
0.0
  0
LINE
  5
2940
  8
DIM
  6
CONTINUOUS
 10
2442.702873178911
 20
1139.037063559954
 30
0.0
 11
2382.7028731789101
 21
1139.037063559954
 31
0.0
  0
TEXT
  5
2941
  8
DIM
 10
2325.3865147080551
 20
1154.238230413946
 30
0.0
 40
60.0
  1
36
  7
TITLE3
  0
SOLID
  5
2942
  8
DIM
  6
CONTINUOUS
 10
2598.7028731789101
 20
1149.037063559955
 30
0.0
 11
2598.7028731789101
 21
1129.037063559954
 31
0.0
 12
2538.7028731789101
 22
1139.037063559954
 32
0.0
 13
2538.7028731789101
 23
1139.037063559954
 33
0.0
  0
SOLID
  5
2943
  8
DIM
  6
CONTINUOUS
 10
2442.702873178911
 20
1149.037063559955
 30
0.0
 11
2442.702873178911
 21
1129.037063559954
 31
0.0
 12
2502.7028731789101
 22
1139.037063559954
 32
0.0
 13
2502.7028731789101
 23
1139.037063559954
 33
0.0
  0
LINE
  5
2944
  8
DIM
  6
CONTINUOUS
 10
2513.7028731789101
 20
1204.84133572939
 30
0.0
 11
2513.7028731789101
 21
987.27079717552795
 31
0.0
  0
LINE
  5
2945
  8
DIM
  6
CONTINUOUS
 10
3629.7028731789101
 20
1204.84133572939
 30
0.0
 11
3629.7028731789101
 21
987.27079717552795
 31
0.0
  0
LINE
  5
2946
  8
DIM
  6
CONTINUOUS
 10
2573.7028731789101
 20
1027.270797175526
 30
0.0
 11
2801.702873178911
 21
1027.270797175526
 31
0.0
  0
LINE
  5
2947
  8
DIM
  6
CONTINUOUS
 10
3569.7028731789101
 20
1027.270797175526
 30
0.0
 11
3341.7028731789101
 21
1027.270797175526
 31
0.0
  0
SOLID
  5
2948
  8
DIM
  6
CONTINUOUS
 10
2573.7028731789101
 20
1037.2707971755281
 30
0.0
 11
2573.7028731789101
 21
1017.270797175527
 31
0.0
 12
2513.7028731789101
 22
1027.270797175526
 32
0.0
 13
2513.7028731789101
 23
1027.270797175526
 33
0.0
  0
SOLID
  5
2949
  8
DIM
  6
CONTINUOUS
 10
3569.7028731789101
 20
1037.2707971755281
 30
0.0
 11
3569.7028731789101
 21
1017.270797175527
 31
0.0
 12
3629.7028731789101
 22
1027.270797175526
 32
0.0
 13
3629.7028731789101
 23
1027.270797175526
 33
0.0
  0
TEXT
  5
294A
  8
DIM
 10
2841.7028731789101
 20
997.27079717552795
 30
0.0
 40
60.0
  1
1116 CTRS
  7
TITLE3
  0
LINE
  5
294B
  8
DIM
  6
CONTINUOUS
 10
3629.7028731789101
 20
1204.84133572939
 30
0.0
 11
3629.7028731789101
 21
987.27079717552795
 31
0.0
  0
LINE
  5
294C
  8
DIM
  6
CONTINUOUS
 10
3640.702873178911
 20
1204.84133572939
 30
0.0
 11
3640.702873178911
 21
987.27079717552795
 31
0.0
  0
LINE
  5
294D
  8
DIM
  6
CONTINUOUS
 10
3569.7028731789101
 20
1027.270797175526
 30
0.0
 11
3509.702873178911
 21
1027.270797175526
 31
0.0
  0
LINE
  5
294E
  8
DIM
  6
CONTINUOUS
 10
3700.702873178911
 20
1027.270797175526
 30
0.0
 11
3760.702873178911
 21
1027.270797175526
 31
0.0
  0
TEXT
  5
294F
  8
DIM
 10
3726.1608338899568
 20
1045.4926759713501
 30
0.0
 40
60.0
  1
11
  7
TITLE3
  0
SOLID
  5
2950
  8
DIM
  6
CONTINUOUS
 10
3569.7028731789101
 20
1037.2707971755281
 30
0.0
 11
3569.7028731789101
 21
1017.270797175527
 31
0.0
 12
3629.7028731789101
 22
1027.270797175526
 32
0.0
 13
3629.7028731789101
 23
1027.270797175526
 33
0.0
  0
SOLID
  5
2951
  8
DIM
  6
CONTINUOUS
 10
3700.702873178911
 20
1037.2707971755281
 30
0.0
 11
3700.702873178911
 21
1017.270797175527
 31
0.0
 12
3640.702873178911
 22
1027.270797175526
 32
0.0
 13
3640.702873178911
 23
1027.270797175526
 33
0.0
  0
LINE
  5
2952
  8
DIM
  6
CONTINUOUS
 10
2513.7028731789101
 20
1204.84133572939
 30
0.0
 11
2513.7028731789101
 21
987.27079717552795
 31
0.0
  0
LINE
  5
2953
  8
DIM
  6
CONTINUOUS
 10
2502.7028731789101
 20
1204.84133572939
 30
0.0
 11
2502.7028731789101
 21
987.27079717552795
 31
0.0
  0
LINE
  5
2954
  8
DIM
  6
CONTINUOUS
 10
2573.7028731789101
 20
1027.270797175526
 30
0.0
 11
2633.7028731789101
 21
1027.270797175526
 31
0.0
  0
LINE
  5
2955
  8
DIM
  6
CONTINUOUS
 10
2442.702873178911
 20
1027.270797175526
 30
0.0
 11
2382.7028731789101
 21
1027.270797175526
 31
0.0
  0
TEXT
  5
2956
  8
DIM
 10
2341.128244907849
 20
1041.9717926009951
 30
0.0
 40
60.0
  1
11
  7
TITLE3
  0
SOLID
  5
2957
  8
DIM
  6
CONTINUOUS
 10
2573.7028731789101
 20
1037.2707971755281
 30
0.0
 11
2573.7028731789101
 21
1017.270797175527
 31
0.0
 12
2513.7028731789101
 22
1027.270797175526
 32
0.0
 13
2513.7028731789101
 23
1027.270797175526
 33
0.0
  0
SOLID
  5
2958
  8
DIM
  6
CONTINUOUS
 10
2442.702873178911
 20
1037.2707971755281
 30
0.0
 11
2442.702873178911
 21
1017.270797175527
 31
0.0
 12
2502.7028731789101
 22
1027.270797175526
 32
0.0
 13
2502.7028731789101
 23
1027.270797175526
 33
0.0
  0
LINE
  5
2959
  8
OUTLINE
  6
HIDDEN
 10
4679.1722549143369
 20
2922.3523332664372
 30
0.0
 11
4679.1722549143369
 21
2937.3523332664349
 31
0.0
  0
LINE
  5
295A
  8
OUTLINE
  6
HIDDEN
 10
4783.1722549143424
 20
2922.3523332664372
 30
0.0
 11
4783.1722549143378
 21
2937.3523332664349
 31
0.0
  0
LINE
  5
295B
  8
OUTLINE
  6
CONTINUOUS
 10
4783.1722549143424
 20
4060.3523332664358
 30
0.0
 11
4679.1722549143369
 21
4060.3523332664331
 31
0.0
  0
LINE
  5
295C
  8
OUTLINE
  6
HIDDEN
 10
4783.1722549143424
 20
2922.3523332664372
 30
0.0
 11
4679.1722549143369
 21
2922.3523332664372
 31
0.0
  0
LINE
  5
295D
  8
OUTLINE
  6
CONTINUOUS
 10
4783.1722549143378
 20
4045.3523332664358
 30
0.0
 11
4783.1722549143424
 21
4060.3523332664331
 31
0.0
  0
LINE
  5
295E
  8
OUTLINE
  6
CONTINUOUS
 10
4679.1722549143369
 20
4045.3523332664358
 30
0.0
 11
4679.1722549143369
 21
4060.3523332664331
 31
0.0
  0
ARC
  5
295F
  8
OUTLINE
  6
CONTINUOUS
 10
4731.1722549143424
 20
4049.3523332664322
 30
0.0
 40
6.5800000000000001
 50
322.561988906777
 51
217.4380110932228
  0
ARC
  5
2960
  8
OUTLINE
  6
HIDDEN
 10
4731.1722549143424
 20
2933.3523332664349
 30
0.0
 40
6.5800000000000001
 50
142.56198890675691
 51
37.438011093242771
  0
LINE
  5
2961
  8
OUTLINE
  6
HIDDEN
 10
6143.1722549143442
 20
2922.3523332664372
 30
0.0
 11
6039.1722549143433
 21
2922.3523332664372
 31
0.0
  0
LINE
  5
2962
  8
OUTLINE
  6
HIDDEN
 10
6039.1722549143433
 20
2922.3523332664372
 30
0.0
 11
6039.1722549143433
 21
2937.3523332664349
 31
0.0
  0
ARC
  5
2963
  8
OUTLINE
  6
HIDDEN
 10
6091.1722549143442
 20
2933.3523332664349
 30
0.0
 40
6.5800000000000001
 50
142.56198890675691
 51
37.438011093242771
  0
LINE
  5
2964
  8
OUTLINE
  6
HIDDEN
 10
6143.1722549143442
 20
2922.3523332664372
 30
0.0
 11
6143.1722549143433
 21
2937.3523332664349
 31
0.0
  0
LINE
  5
2965
  8
OUTLINE
  6
CONTINUOUS
 10
6143.1722549143442
 20
4060.3523332664358
 30
0.0
 11
6039.1722549143433
 21
4060.3523332664331
 31
0.0
  0
LINE
  5
2966
  8
OUTLINE
  6
CONTINUOUS
 10
6039.1722549143433
 20
4045.3523332664358
 30
0.0
 11
6039.1722549143433
 21
4060.3523332664331
 31
0.0
  0
ARC
  5
2967
  8
OUTLINE
  6
CONTINUOUS
 10
6091.1722549143442
 20
4049.3523332664322
 30
0.0
 40
6.5800000000000001
 50
322.561988906777
 51
217.4380110932228
  0
LINE
  5
2968
  8
OUTLINE
  6
CONTINUOUS
 10
6143.1722549143433
 20
4045.3523332664358
 30
0.0
 11
6143.1722549143442
 21
4060.3523332664331
 31
0.0
  0
ARC
  5
2969
  8
OUTLINE
  6
HIDDEN
 10
2899.643790165022
 20
1835.9749817634031
 30
0.0
 40
325.49999999999989
 50
220.6942925306949
 51
264.19995699454188
  0
ARC
  5
296A
  8
OUTLINE
  6
HIDDEN
 10
2888.882114558086
 20
1857.9337694463361
 30
0.0
 40
346.49999999999972
 50
266.33778778248461
 51
310.03329337180111
  0
LINE
  5
296B
  8
OUTLINE
  6
HIDDEN
 10
2554.2497223666901
 20
2248.1413357293941
 30
0.0
 11
2866.7497223666901
 21
2248.1413357293941
 31
0.0
  0
CIRCLE
  5
296C
  8
OUTLINE
  6
HIDDEN
 10
2866.7497223666901
 20
1837.641335729395
 30
0.0
 40
202.49999999999989
  0
ARC
  5
296D
  8
OUTLINE
  6
HIDDEN
 10
2891.5493495383962
 20
1809.560889825163
 30
0.0
 40
302.49999999999989
 50
186.9149123976544
 51
217.89953970490521
  0
ARC
  5
296E
  8
OUTLINE
  6
HIDDEN
 10
2845.9035533871029
 20
1860.2003000207681
 30
0.0
 40
389.49999999999972
 50
356.67969919473433
 51
40.480486043008717
  0
ARC
  5
296F
  8
OUTLINE
  6
HIDDEN
 10
2868.032916548791
 20
1868.346129015084
 30
0.0
 40
368.0
 50
311.47612443038707
 51
355.21385128139917
  0
ARC
  5
2970
  8
OUTLINE
  6
HIDDEN
 10
2836.7876496201338
 20
1838.736250029755
 30
0.0
 40
410.5
 50
41.9333715053506
 51
85.814303909471946
  0
CIRCLE
  5
2971
  8
OUTLINE
 10
3563.549825568879
 20
2188.6236575371781
 30
0.0
 40
31.85000000000036
  0
LINE
  5
2972
  8
OUTLINE
 10
4230.1722549143387
 20
2216.473657537179
 30
0.0
 11
4230.1722549143387
 21
2160.7736575371791
 31
0.0
  0
LINE
  5
2973
  8
OUTLINE
 10
4257.1722549143396
 20
2220.473657537179
 30
0.0
 11
4257.1722549143396
 21
2156.7736575371791
 31
0.0
  0
LINE
  5
2974
  8
OUTLINE
 10
4280.1722549143369
 20
2220.473657537179
 30
0.0
 11
4280.1722549143369
 21
2156.7736575371791
 31
0.0
  0
CIRCLE
  5
2975
  8
OUTLINE
 10
3481.049825568879
 20
1420.7536575371771
 30
0.0
 40
31.85000000000036
  0
LINE
  5
2976
  8
OUTLINE
 10
4257.1722549143424
 20
1452.6036575371791
 30
0.0
 11
4280.1722549143433
 21
1452.6036575371791
 31
0.0
  0
LINE
  5
2977
  8
OUTLINE
 10
4257.1722549143424
 20
1388.903657537179
 30
0.0
 11
4280.1722549143433
 21
1388.903657537179
 31
0.0
  0
LINE
  5
2978
  8
OUTLINE
 10
4230.1722549143424
 20
1448.6036575371791
 30
0.0
 11
4230.1722549143424
 21
1392.903657537179
 31
0.0
  0
LINE
  5
2979
  8
OUTLINE
 10
4257.1722549143424
 20
1452.6036575371791
 30
0.0
 11
4257.1722549143424
 21
1388.903657537179
 31
0.0
  0
LINE
  5
297A
  8
OUTLINE
 10
4231.6722549143424
 20
1391.4036575371781
 30
0.0
 11
4257.1722549143424
 21
1391.403657537179
 31
0.0
  0
LINE
  5
297B
  8
OUTLINE
  6
DASHED
 10
4280.1722549143433
 20
1395.403657537179
 30
0.0
 11
4300.6722549143424
 21
1395.403657537179
 31
0.0
  0
LINE
  5
297C
  8
OUTLINE
 10
4230.1722549143424
 20
1392.903657537179
 30
0.0
 11
4231.6722549143424
 21
1391.4036575371781
 31
0.0
  0
LINE
  5
297D
  8
OUTLINE
 10
4231.6722549143424
 20
1450.1036575371791
 30
0.0
 11
4257.1722549143424
 21
1450.1036575371791
 31
0.0
  0
LINE
  5
297E
  8
OUTLINE
  6
DASHED
 10
4280.1722549143433
 20
1446.1036575371791
 30
0.0
 11
4300.6722549143387
 21
1446.1036575371791
 31
0.0
  0
LINE
  5
297F
  8
OUTLINE
 10
4230.1722549143424
 20
1448.6036575371791
 30
0.0
 11
4231.6722549143424
 21
1450.1036575371791
 31
0.0
  0
LINE
  5
2980
  8
OUTLINE
 10
4280.1722549143433
 20
1452.6036575371791
 30
0.0
 11
4280.1722549143433
 21
1388.903657537179
 31
0.0
  0
LINE
  5
2981
  8
OUTLINE
 10
4257.1722549143396
 20
2156.7736575371791
 30
0.0
 11
4280.1722549143369
 21
2156.7736575371791
 31
0.0
  0
LINE
  5
2982
  8
OUTLINE
 10
4231.6722549143387
 20
2159.2736575371791
 30
0.0
 11
4257.1722549143396
 21
2159.2736575371791
 31
0.0
  0
LINE
  5
2983
  8
OUTLINE
  6
DASHED
 10
4280.1722549143369
 20
2163.2736575371791
 30
0.0
 11
4300.6722549143424
 21
2163.2736575371791
 31
0.0
  0
LINE
  5
2984
  8
OUTLINE
 10
4230.1722549143387
 20
2160.7736575371791
 30
0.0
 11
4231.6722549143387
 21
2159.2736575371791
 31
0.0
  0
LINE
  5
2985
  8
OUTLINE
 10
4280.1722549143369
 20
2965.0023332664368
 30
0.0
 11
4280.1722549143369
 21
3028.7023332664371
 31
0.0
  0
LINE
  5
2986
  8
OUTLINE
 10
4257.1722549143396
 20
2965.0023332664368
 30
0.0
 11
4257.1722549143396
 21
3028.7023332664371
 31
0.0
  0
LINE
  5
2987
  8
OUTLINE
 10
4257.1722549143396
 20
3028.7023332664371
 30
0.0
 11
4280.1722549143369
 21
3028.7023332664371
 31
0.0
  0
LINE
  5
2988
  8
OUTLINE
 10
4257.1722549143442
 20
3047.5023332664391
 30
0.0
 11
4280.1722549143442
 21
3047.5023332664391
 31
0.0
  0
LINE
  5
2989
  8
OUTLINE
 10
4257.1722549143442
 20
3111.2023332664398
 30
0.0
 11
4280.1722549143442
 21
3111.2023332664398
 31
0.0
  0
LINE
  5
298A
  8
OUTLINE
 10
4257.1722549143396
 20
2220.473657537179
 30
0.0
 11
4280.1722549143369
 21
2220.473657537179
 31
0.0
  0
LINE
  5
298B
  8
OUTLINE
 10
4231.6722549143387
 20
2217.973657537179
 30
0.0
 11
4257.1722549143396
 21
2217.973657537179
 31
0.0
  0
LINE
  5
298C
  8
OUTLINE
  6
DASHED
 10
4280.1722549143369
 20
2213.973657537179
 30
0.0
 11
4300.6722549143424
 21
2213.973657537179
 31
0.0
  0
LINE
  5
298D
  8
OUTLINE
 10
4230.1722549143387
 20
2216.473657537179
 30
0.0
 11
4231.6722549143387
 21
2217.973657537179
 31
0.0
  0
LINE
  5
298E
  8
OUTLINE
 10
4230.1722549143442
 20
3051.5023332664391
 30
0.0
 11
4230.1722549143442
 21
3107.2023332664389
 31
0.0
  0
LINE
  5
298F
  8
OUTLINE
 10
4257.1722549143442
 20
3047.5023332664391
 30
0.0
 11
4257.1722549143442
 21
3111.2023332664398
 31
0.0
  0
LINE
  5
2990
  8
OUTLINE
  6
DASHED
 10
4280.1722549143442
 20
3104.7023332664398
 30
0.0
 11
4300.6722549143424
 21
3104.7023332664398
 31
0.0
  0
LINE
  5
2991
  8
OUTLINE
 10
4231.6722549143442
 20
3108.7023332664389
 30
0.0
 11
4257.1722549143442
 21
3108.7023332664389
 31
0.0
  0
LINE
  5
2992
  8
OUTLINE
 10
4230.1722549143442
 20
3107.2023332664389
 30
0.0
 11
4231.6722549143442
 21
3108.7023332664389
 31
0.0
  0
LINE
  5
2993
  8
OUTLINE
 10
4230.1722549143387
 20
2969.0023332664359
 30
0.0
 11
4230.1722549143387
 21
3024.7023332664362
 31
0.0
  0
LINE
  5
2994
  8
OUTLINE
 10
4231.6722549143387
 20
3026.2023332664362
 30
0.0
 11
4257.1722549143396
 21
3026.2023332664362
 31
0.0
  0
LINE
  5
2995
  8
OUTLINE
  6
DASHED
 10
4280.1722549143369
 20
3022.2023332664371
 30
0.0
 11
4300.6722549143424
 21
3022.2023332664371
 31
0.0
  0
LINE
  5
2996
  8
OUTLINE
 10
4231.6722549143442
 20
3050.0023332664391
 30
0.0
 11
4257.1722549143442
 21
3050.0023332664391
 31
0.0
  0
LINE
  5
2997
  8
OUTLINE
  6
DASHED
 10
4280.1722549143442
 20
3054.0023332664391
 30
0.0
 11
4300.6722549143424
 21
3054.0023332664391
 31
0.0
  0
LINE
  5
2998
  8
OUTLINE
 10
4230.1722549143387
 20
3024.7023332664362
 30
0.0
 11
4231.6722549143387
 21
3026.2023332664362
 31
0.0
  0
LINE
  5
2999
  8
OUTLINE
 10
4230.1722549143442
 20
3051.5023332664391
 30
0.0
 11
4231.6722549143442
 21
3050.0023332664391
 31
0.0
  0
LINE
  5
299A
  8
OUTLINE
  6
DASHED
 10
4280.1722549143369
 20
2971.502333266435
 30
0.0
 11
4300.6722549143424
 21
2971.502333266435
 31
0.0
  0
LINE
  5
299B
  8
OUTLINE
 10
4231.6722549143387
 20
2967.5023332664359
 30
0.0
 11
4257.1722549143396
 21
2967.5023332664359
 31
0.0
  0
LINE
  5
299C
  8
OUTLINE
 10
4230.1722549143387
 20
2969.0023332664359
 30
0.0
 11
4231.6722549143387
 21
2967.5023332664359
 31
0.0
  0
LINE
  5
299D
  8
OUTLINE
 10
4280.1722549143442
 20
3047.5023332664391
 30
0.0
 11
4280.1722549143442
 21
3111.2023332664398
 31
0.0
  0
LINE
  5
299E
  8
OUTLINE
 10
4257.1722549143396
 20
2965.0023332664368
 30
0.0
 11
4280.1722549143369
 21
2965.0023332664368
 31
0.0
  0
TEXT
  5
299F
  8
OVERLAY-A3
 10
5696.6623271678736
 20
221.6624277202018
 30
0.0
 40
48.0
  1
Date
  7
SIMPLEX
  0
TEXT
  5
29A0
  8
OVERLAY-A3
 10
7492.2223847472042
 20
259.00660404682242
 30
0.0
 40
48.0
  1
Revision
 41
0.7812095035934775
  7
SIMPLEX
 72
     5
 11
7702.9257480021297
 21
259.00660404682242
 31
0.0
  0
LINE
  5
29A1
  8
OVERLAY-A3
 10
7468.9826999803199
 20
41.684985696634271
 30
0.0
 11
7468.982699980319
 21
336.53731141709312
 31
0.0
  0
LINE
  5
29A2
  8
OVERLAY-A3
 10
5638.7030589142951
 20
692.43234862115571
 30
0.0
 11
5638.7030589142951
 21
41.684985696634271
 31
0.0
  0
LINE
  5
29A3
  8
OVERLAY-A3
 10
6833.8273560261878
 20
41.684985696634271
 30
0.0
 11
6833.8273560261878
 21
336.53731141709312
 31
0.0
  0
LINE
  5
29A4
  8
OVERLAY-A3
 10
6833.8273560261869
 20
186.62519853892741
 30
0.0
 11
5638.7030589142951
 21
186.62519853892741
 31
0.0
  0
LINE
  5
29A5
  8
OVERLAY-A3
 10
7723.1509304756837
 20
336.53731141709312
 30
0.0
 11
5638.7030589142951
 21
336.53731141709312
 31
0.0
  0
LINE
  5
29A6
  8
OVERLAY-A3
 10
5638.7030589142951
 20
41.684985696634271
 30
0.0
 11
7722.5559161189822
 21
41.684985696634271
 31
0.0
  0
LINE
  5
29A7
  8
OVERLAY-A3
 10
7722.5559161189822
 20
41.684985696634271
 30
0.0
 11
7722.5559161189822
 21
692.43234862115571
 31
0.0
  0
LINE
  5
29A8
  8
OVERLAY-A3
 10
7722.5559161189822
 20
692.43234862115571
 30
0.0
 11
5638.7030589142951
 21
692.43234862115571
 31
0.0
  0
TEXT
  5
29A9
  8
OVERLAY-A3
 10
5688.9664382062192
 20
95.844976130715395
 30
0.0
 40
40.0
  1
Scale
 41
1.3701747965659721
  7
SIMPLEX
 72
     5
 11
5889.9254083692276
 21
95.844976130715395
 31
0.0
  0
TEXT
  5
29AA
  8
OVERLAY-A3
 10
6949.7182472015938
 20
257.78686301341941
 30
0.0
 40
40.0
  1
Drawing No.
  7
SIMPLEX
 72
     2
 11
7298.2896757730232
 21
257.78686301341941
 31
0.0
  0
LINE
  5
29AB
  8
OVERLAY-A3
 10
1911.679472788484
 20
0.0
 30
0.0
 11
7780.000000000312
 21
0.0
 31
0.0
  0
LINE
  5
29AC
  8
OVERLAY-A3
 10
7780.000000000312
 20
0.0
 30
0.0
 11
7780.000000000312
 21
4379.502457367631
 31
0.0
  0
LINE
  5
29AD
  8
OVERLAY-A3
 10
7780.000000000312
 20
4379.502457367631
 30
0.0
 11
1911.679472788484
 21
4379.5024573676292
 31
0.0
  0
LINE
  5
29AE
  8
OVERLAY-A3
 10
1911.679472788484
 20
4379.5024573676292
 30
0.0
 11
1911.679472788484
 21
0.0
 31
0.0
  0
TEXT
  5
29AF
  8
TEXT
 10
5949.630098592288
 20
97.495443421963515
 30
0.0
 40
54.869999999999997
  1
1:20
  7
TITLE3
  0
TEXT
  5
29B0
  8
TEXT
 10
6944.3300418177969
 20
109.43569865485181
 30
0.0
 40
54.869999999999997
  1
IJD1400
  7
TITLE3
  0
LINE
  5
29B1
  8
CLEAR
 10
6521.6722549143406
 20
4045.3523332664358
 30
0.0
 11
7521.6722549143387
 21
4045.3523332664358
 31
0.0
  0
LINE
  5
29B2
  8
CLEAR
 10
6521.6722549143406
 20
2937.3523332664349
 30
0.0
 11
7521.6722549143387
 21
2937.3523332664358
 31
0.0
  0
LINE
  5
29B3
  8
CLEAR
 10
4300.6722549143387
 20
4045.3523332664358
 30
0.0
 11
3300.6722549143419
 21
4045.3523332664358
 31
0.0
  0
LINE
  5
29B4
  8
CLEAR
 10
4300.6722549143433
 20
2937.3523332664349
 30
0.0
 11
3300.6722549143419
 21
2937.3523332664349
 31
0.0
  0
LINE
  5
29B5
  8
CLEAR
 10
3300.6722549143419
 20
2937.3523332664349
 30
0.0
 11
3300.6722549143419
 21
4045.3523332664358
 31
0.0
  0
LINE
  5
29B6
  8
CLEAR
 10
7521.6722549143387
 20
2937.3523332664358
 30
0.0
 11
7521.6722549143387
 21
4045.3523332664358
 31
0.0
  0
INSERT
  5
29B7
  8
TEXT
  2
NEW_BLOCK0
 10
1980.640863305772
 20
52.361869311738701
 30
0.0
 41
1.5
 42
1.5
 43
1.5
  0
LINE
  5
29B8
  8
DIM
 10
5405.1956784275799
 20
2913.6281570459419
 30
0.0
 11
5348.043685724253
 21
2819.6199940613042
 31
0.0
  0
LINE
  5
29B9
  8
DIM
 10
5405.1956784275799
 20
2913.6281570459419
 30
0.0
 11
5462.3476711309086
 21
2819.6199940613042
 31
0.0
  0
LINE
  5
29BA
  8
DIM
 10
5348.043685724253
 20
2819.6199940613042
 30
0.0
 11
5383.5416508315138
 21
2819.6199940613042
 31
0.0
  0
LINE
  5
29BB
  8
DIM
 10
5383.5416508315138
 20
2819.6199940613042
 30
0.0
 11
5383.5416508315138
 21
2709.648188646212
 31
0.0
  0
LINE
  5
29BC
  8
DIM
 10
5426.8497060236468
 20
2819.6199940613042
 30
0.0
 11
5426.8497060236468
 21
2709.648188646212
 31
0.0
  0
LINE
  5
29BD
  8
DIM
 10
5383.5416508315138
 20
2709.648188646212
 30
0.0
 11
5426.8497060236468
 21
2709.648188646212
 31
0.0
  0
LINE
  5
29BE
  8
DIM
 10
5462.3476711309086
 20
2819.6199940613042
 30
0.0
 11
5426.8497060236468
 21
2819.6199940613042
 31
0.0
  0
LINE
  5
29BF
  8
DIM
 10
5383.5416508315138
 20
4122.6275770007542
 30
0.0
 11
5383.5416508315138
 21
4012.6557715856638
 31
0.0
  0
LINE
  5
29C0
  8
DIM
 10
5426.8497060236468
 20
4122.6275770007542
 30
0.0
 11
5426.8497060236468
 21
4012.6557715856638
 31
0.0
  0
LINE
  5
29C1
  8
DIM
 10
5383.5416508315138
 20
4012.6557715856638
 30
0.0
 11
5426.8497060236468
 21
4012.6557715856638
 31
0.0
  0
LINE
  5
29C2
  8
DIM
 10
5405.1956784275799
 20
4216.6357399853914
 30
0.0
 11
5348.043685724253
 21
4122.6275770007542
 31
0.0
  0
LINE
  5
29C3
  8
DIM
 10
5348.043685724253
 20
4122.6275770007542
 30
0.0
 11
5383.5416508315138
 21
4122.6275770007542
 31
0.0
  0
LINE
  5
29C4
  8
DIM
 10
5462.3476711309086
 20
4122.6275770007542
 30
0.0
 11
5426.8497060236468
 21
4122.6275770007542
 31
0.0
  0
LINE
  5
29C5
  8
DIM
 10
5405.1956784275799
 20
4216.6357399853914
 30
0.0
 11
5462.3476711309086
 21
4122.6275770007542
 31
0.0
  0
TEXT
  5
29C6
  8
TEXT
  6
PHANTOM2
 10
3400.3875358941241
 20
3367.9542467205629
 30
0.0
 40
60.0
  1
1000 min 
 50
90.0
  7
TITLE3
  0
TEXT
  5
29C7
  8
TEXT
  6
PHANTOM2
 10
3503.2446787512681
 20
3324.971182396871
 30
0.0
 40
60.0
  1
CLEARANCE
 50
90.0
  7
TITLE3
  0
TEXT
  5
29C8
  8
TEXT
  6
PHANTOM2
 10
7371.1823345210423
 20
3367.9542467205629
 30
0.0
 40
60.0
  1
1000 min 
 50
90.0
  7
TITLE3
  0
TEXT
  5
29C9
  8
TEXT
  6
PHANTOM2
 10
7474.0394773781827
 20
3324.971182396871
 30
0.0
 40
60.0
  1
CLEARANCE
 50
90.0
  7
TITLE3
  0
LINE
  5
29CA
  8
DIM
 10
2457.1563820935821
 20
2290.4413357293952
 30
0.0
 11
2457.1563820935821
 21
2521.1209379435732
 31
0.0
  0
LINE
  5
29CB
  8
DIM
 10
3774.9528731789092
 20
2315.141335729395
 30
0.0
 11
3774.9528731789092
 21
2521.1209379435732
 31
0.0
  0
LINE
  5
29CC
  8
DIM
 10
2517.1563820935812
 20
2481.1209379435732
 30
0.0
 11
2989.8303419219601
 21
2481.1209379435732
 31
0.0
  0
LINE
  5
29CD
  8
DIM
 10
3714.9528731789078
 20
2481.1209379435732
 30
0.0
 11
3242.2789133505312
 21
2481.1209379435732
 31
0.0
  0
SOLID
  5
29CE
  8
DIM
 10
2517.1563820935812
 20
2491.1209379435732
 30
0.0
 11
2517.1563820935812
 21
2471.1209379435732
 31
0.0
 12
2457.1563820935821
 22
2481.1209379435732
 32
0.0
 13
2457.1563820935821
 23
2481.1209379435732
 33
0.0
  0
SOLID
  5
29CF
  8
DIM
 10
3714.9528731789078
 20
2491.1209379435732
 30
0.0
 11
3714.9528731789078
 21
2471.1209379435732
 31
0.0
 12
3774.9528731789092
 22
2481.1209379435732
 32
0.0
 13
3774.9528731789092
 23
2481.1209379435732
 33
0.0
  0
TEXT
  5
29D0
  8
DIM
 10
3029.8303419219601
 20
2453.6859379435741
 30
0.0
 40
54.869999999999997
  1
1318
  7
TITLE3
  0
LINE
  5
29D1
  8
OUTLINE
  6
HIDDEN
 10
2591.2497223666892
 20
1773.141335729395
 30
0.0
 11
2554.2497223666901
 21
1773.141335729395
 31
0.0
  0
LINE
  5
29D2
  8
OUTLINE
  6
HIDDEN
 10
2554.2497223666901
 20
2248.1413357293941
 30
0.0
 11
2554.2497223666901
 21
1773.141335729395
 31
0.0
  0
LINE
  5
29D3
  8
DIM
 10
4260.6722549143378
 20
2302.641335729395
 30
0.0
 11
3962.0130348356051
 21
2302.641335729395
 31
0.0
  0
LINE
  5
29D4
  8
DIM
 10
4639.1722549143406
 20
1244.841335729395
 30
0.0
 11
3962.0130348356051
 21
1244.841335729395
 31
0.0
  0
LINE
  5
29D5
  8
DIM
 10
4002.0130348356051
 20
2242.6413357293941
 30
0.0
 11
4002.0130348356051
 21
1900.191335729395
 31
0.0
  0
LINE
  5
29D6
  8
DIM
 10
4002.0130348356051
 20
1304.841335729395
 30
0.0
 11
4002.0130348356051
 21
1637.291335729393
 31
0.0
  0
SOLID
  5
29D7
  8
DIM
 10
3992.0130348356051
 20
2242.6413357293941
 30
0.0
 11
4012.0130348356051
 21
2242.6413357293941
 31
0.0
 12
4002.0130348356051
 22
2302.641335729395
 32
0.0
 13
4002.0130348356051
 23
2302.641335729395
 33
0.0
  0
SOLID
  5
29D8
  8
DIM
 10
3992.0130348356051
 20
1304.841335729395
 30
0.0
 11
4012.0130348356051
 21
1304.841335729395
 31
0.0
 12
4002.0130348356051
 22
1244.841335729395
 32
0.0
 13
4002.0130348356051
 23
1244.841335729395
 33
0.0
  0
TEXT
  5
29D9
  8
DIM
 10
4029.4480348356042
 20
1677.2913357293951
 30
0.0
 40
54.869999999999997
  1
1058
 50
90.0
  7
TITLE3
  0
TEXT
  5
29DA
  8
TEXT
 10
5047.7814986924895
 20
3447.916301507049
 30
0.0
 40
109.7399999999999
  1
IJD1400
  7
TITLE3
  0
INSERT
  5
29DB
  8
TEXT
  2
IJD
 10
6521.6722549143424
 20
1294.841335729395
 30
0.0
  0
ENDSEC
  0
EOF
