  0
SECTION
  2
HEADER
  9
$ACADVER
  1
AC1009
  9
$INSBASE
 10
0.0
 20
0.0
 30
0.0
  9
$EXTMIN
 10
2862.556972289738
 20
0.0
 30
0.0
  9
$EXTMAX
 10
7780.000000000312
 20
5320.0000000002146
 30
0.0
  9
$LIMMIN
 10
0.0
 20
0.0
  9
$LIMMAX
 10
7780.0
 20
5320.0
  9
$ORTHOMODE
 70
     1
  9
$REGENMODE
 70
     1
  9
$FILLMODE
 70
     1
  9
$QTEXTMODE
 70
     0
  9
$MIRRTEXT
 70
     0
  9
$DRAGMODE
 70
     2
  9
$LTSCALE
 40
250.0
  9
$OSMODE
 70
     0
  9
$ATTMODE
 70
     1
  9
$TEXTSIZE
 40
60.0
  9
$TRACEWID
 40
0.05
  9
$TEXTSTYLE
  7
TITLE3
  9
$CLAYER
  8
DIM
  9
$CELTYPE
  6
BYLAYER
  9
$CECOLOR
 62
   256
  9
$DIMSCALE
 40
1.0
  9
$DIMASZ
 40
60.0
  9
$DIMEXO
 40
40.0
  9
$DIMDLI
 40
0.38
  9
$DIMRND
 40
0.0
  9
$DIMDLE
 40
0.0
  9
$DIMEXE
 40
40.0
  9
$DIMTP
 40
0.0
  9
$DIMTM
 40
0.0
  9
$DIMTXT
 40
60.0
  9
$DIMCEN
 40
0.09
  9
$DIMTSZ
 40
0.0
  9
$DIMTOL
 70
     0
  9
$DIMLIM
 70
     0
  9
$DIMTIH
 70
     0
  9
$DIMTOH
 70
     0
  9
$DIMSE1
 70
     0
  9
$DIMSE2
 70
     0
  9
$DIMTAD
 70
     0
  9
$DIMZIN
 70
     0
  9
$DIMBLK
  1

  9
$DIMASO
 70
     0
  9
$DIMSHO
 70
     0
  9
$DIMPOST
  1

  9
$DIMAPOST
  1

  9
$DIMALT
 70
     0
  9
$DIMALTD
 70
     2
  9
$DIMALTF
 40
25.399999999999999
  9
$DIMLFAC
 40
1.0
  9
$DIMTOFL
 70
     0
  9
$DIMTVP
 40
0.0
  9
$DIMTIX
 70
     0
  9
$DIMSOXD
 70
     0
  9
$DIMSAH
 70
     0
  9
$DIMBLK1
  1

  9
$DIMBLK2
  1

  9
$DIMSTYLE
  2
STANDARD
  9
$DIMCLRD
 70
    52
  9
$DIMCLRE
 70
    52
  9
$DIMCLRT
 70
    50
  9
$DIMTFAC
 40
1.0
  9
$DIMGAP
 40
40.0
  9
$LUNITS
 70
     2
  9
$LUPREC
 70
     2
  9
$SKETCHINC
 40
0.1
  9
$FILLETRAD
 40
0.0
  9
$AUNITS
 70
     0
  9
$AUPREC
 70
     2
  9
$MENU
  1
\acad12\support\cnc
  9
$ELEVATION
 40
0.0
  9
$PELEVATION
 40
0.0
  9
$THICKNESS
 40
0.0
  9
$LIMCHECK
 70
     0
  9
$BLIPMODE
 70
     0
  9
$CHAMFERA
 40
0.0
  9
$CHAMFERB
 40
0.0
  9
$SKPOLY
 70
     0
  9
$TDCREATE
 40
2451256.4329863428
  9
$TDUPDATE
 40
2453096.4934892119
  9
$TDINDWG
 40
1.8760568171000001
  9
$TDUSRTIMER
 40
1.8760566319
  9
$USRTIMER
 70
     1
  9
$ANGBASE
 50
0.0
  9
$ANGDIR
 70
     0
  9
$PDMODE
 70
     2
  9
$PDSIZE
 40
20.0
  9
$PLINEWID
 40
0.0
  9
$COORDS
 70
     2
  9
$SPLFRAME
 70
     0
  9
$SPLINETYPE
 70
     6
  9
$SPLINESEGS
 70
     8
  9
$ATTDIA
 70
     0
  9
$ATTREQ
 70
     1
  9
$HANDLING
 70
 22529
  9
$HANDSEED
  5
3291
  9
$SURFTAB1
 70
     6
  9
$SURFTAB2
 70
     6
  9
$SURFTYPE
 70
     6
  9
$SURFU
 70
     6
  9
$SURFV
 70
     6
  9
$UCSNAME
  2

  9
$UCSORG
 10
0.0
 20
0.0
 30
0.0
  9
$UCSXDIR
 10
1.0
 20
0.0
 30
0.0
  9
$UCSYDIR
 10
0.0
 20
1.0
 30
0.0
  9
$PUCSNAME
  2

  9
$PUCSORG
 10
0.0
 20
0.0
 30
0.0
  9
$PUCSXDIR
 10
1.0
 20
0.0
 30
0.0
  9
$PUCSYDIR
 10
0.0
 20
1.0
 30
0.0
  9
$USERI1
 70
     0
  9
$USERI2
 70
     0
  9
$USERI3
 70
     0
  9
$USERI4
 70
     0
  9
$USERI5
 70
     0
  9
$USERR1
 40
0.0
  9
$USERR2
 40
0.0
  9
$USERR3
 40
0.0
  9
$USERR4
 40
0.0
  9
$USERR5
 40
0.0
  9
$WORLDVIEW
 70
     0
  9
$SHADEDGE
 70
     3
  9
$SHADEDIF
 70
    70
  9
$TILEMODE
 70
     1
  9
$MAXACTVP
 70
    16
  9
$PLIMCHECK
 70
     0
  9
$PEXTMIN
 10
1.0000000000000000E+020
 20
1.0000000000000000E+020
 30
1.0000000000000000E+020
  9
$PEXTMAX
 10
-1.0000000000000000E+020
 20
-1.0000000000000000E+020
 30
-1.0000000000000000E+020
  9
$PLIMMIN
 10
0.0
 20
0.0
  9
$PLIMMAX
 10
12.0
 20
9.0
  9
$UNITMODE
 70
     0
  9
$VISRETAIN
 70
     0
  9
$PLINEGEN
 70
     0
  9
$PSLTSCALE
 70
     0
  0
ENDSEC
  0
SECTION
  2
TABLES
  0
TABLE
  2
VPORT
 70
     2
  0
VPORT
  2
*ACTIVE
 70
     0
 10
0.0
 20
0.0
 11
1.0
 21
1.0
 12
5785.2658373996583
 22
2660.000012386698
 13
0.0
 23
0.0
 14
50.0
 24
50.0
 15
100.0
 25
100.0
 16
0.0
 26
0.0
 36
1.0
 17
0.0
 27
0.0
 37
0.0
 40
5364.6607462571083
 41
1.6277372262773711
 42
50.0
 43
0.0
 44
0.0
 50
0.0
 51
0.0
 71
     0
 72
   100
 73
     1
 74
     0
 75
     0
 76
     0
 77
     0
 78
     1
  0
ENDTAB
  0
TABLE
  2
LTYPE
 70
     3
  0
LTYPE
  2
CONTINUOUS
 70
     0
  3
Solid line
 72
    65
 73
     0
 40
0.0
  0
LTYPE
  2
HIDDEN
 70
     0
  3
_ _ _ _ _ _ _ _ _ _ _ _ _ _ _ _ _ _ _ _ _ _ _
 72
    65
 73
     2
 40
0.375
 49
0.25
 49
-0.125
  0
LTYPE
  2
PHANTOM2
 70
     0
  3
Phantom (.5x) ___ _ _ ___ _ _ ___ _ _ ___ _ _
 72
    65
 73
     6
 40
1.25
 49
0.625
 49
-0.125
 49
0.125
 49
-0.125
 49
0.125
 49
-0.125
  0
ENDTAB
  0
TABLE
  2
LAYER
 70
     6
  0
LAYER
  2
0
 70
     0
 62
     7
  6
CONTINUOUS
  0
LAYER
  2
DIM
 70
     0
 62
     7
  6
CONTINUOUS
  0
LAYER
  2
TEXT
 70
     0
 62
   100
  6
CONTINUOUS
  0
LAYER
  2
OUTLINE
 70
     0
 62
     7
  6
CONTINUOUS
  0
LAYER
  2
OVERLAY-A3
 70
     0
 62
     7
  6
CONTINUOUS
  0
LAYER
  2
CLEAR
 70
     0
 62
     1
  6
PHANTOM2
  0
ENDTAB
  0
TABLE
  2
STYLE
 70
     4
  0
STYLE
  2
STANDARD
 70
     0
 40
0.0
 41
1.0
 50
0.0
 71
     0
 42
0.2
  3
txt
  4

  0
STYLE
  2
TITLE3
 70
     0
 40
60.0
 41
1.0
 50
0.0
 71
     0
 42
60.0
  3
SIMPLEX
  4

  0
STYLE
  2
TITLE5
 70
     0
 40
100.0
 41
1.0
 50
0.0
 71
     0
 42
100.0
  3
SIMPLEX
  4

  0
STYLE
  2
SIMPLEX
 70
     0
 40
60.0
 41
1.0
 50
0.0
 71
     0
 42
60.0
  3
simplex
  4

  0
ENDTAB
  0
TABLE
  2
VIEW
 70
     0
  0
ENDTAB
  0
TABLE
  2
UCS
 70
     0
  0
ENDTAB
  0
TABLE
  2
APPID
 70
     1
  0
APPID
  2
ACAD
 70
     0
  0
ENDTAB
  0
TABLE
  2
DIMSTYLE
 70
     1
  0
DIMSTYLE
  2
STANDARD
 70
     0
  3

  4

  5

  6

  7

 40
1.0
 41
0.18
 42
0.0625
 43
0.38
 44
0.18
 45
0.0
 46
0.0
 47
0.0
 48
0.0
140
0.18
141
0.09
142
0.0
143
25.399999999999999
144
1.0
145
0.0
146
1.0
147
0.09
 71
     0
 72
     0
 73
     1
 74
     1
 75
     0
 76
     0
 77
     0
 78
     0
170
     0
171
     2
172
     0
173
     0
174
     0
175
     0
176
     0
177
     0
178
     0
  0
ENDTAB
  0
ENDSEC
  0
SECTION
  2
BLOCKS
  0
BLOCK
  8
0
  2
$MODEL_SPACE
 70
     0
 10
0.0
 20
0.0
 30
0.0
  3
$MODEL_SPACE
  1

  0
ENDBLK
  5
311E
  8
0
  0
BLOCK
 67
     1
  8
0
  2
$PAPER_SPACE
 70
     0
 10
0.0
 20
0.0
 30
0.0
  3
$PAPER_SPACE
  1

  0
ENDBLK
  5
311A
 67
     1
  8
0
  0
BLOCK
  8
0
  2
NEW_BLOCK
 70
     0
 10
0.0
 20
0.0
 30
0.0
  3
NEW_BLOCK
  1

  0
TEXT
  5
3136
  8
TEXT
 10
27.285946821803002
 20
25.27142175952417
 30
0.0
 40
40.0
  1
available on request
  7
TITLE3
  0
TEXT
  5
3137
  8
TEXT
 10
27.285946821803002
 20
93.842850330952714
 30
0.0
 40
40.0
  1
Certified dimensions
  7
TITLE3
  0
TEXT
  5
3138
  8
TEXT
 10
27.285946821803002
 20
162.4142789023812
 30
0.0
 40
40.0
  1
without notice or obligation.
  7
TITLE3
  0
TEXT
  5
3139
  8
TEXT
 10
27.285946821803002
 20
230.9857074738097
 30
0.0
 40
40.0
  1
specifications at any time
  7
TITLE3
  0
TEXT
  5
313A
  8
TEXT
 10
27.285946821803002
 20
299.55713604523839
 30
0.0
 40
40.0
  1
the right to change 
  7
TITLE3
  0
TEXT
  5
313B
  8
TEXT
 10
27.285946821803002
 20
436.69999318809511
 30
0.0
 40
40.0
  1
NOTE
  7
TITLE3
  0
TEXT
  5
313C
  8
TEXT
 10
27.285946821803002
 20
368.12856461666672
 30
0.0
 40
40.0
  1
The manufacturer reserves
  7
TITLE3
  0
ENDBLK
  5
313D
  8
0
  0
ENDSEC
  0
SECTION
  2
ENTITIES
  0
LINE
  5
313E
  8
OUTLINE
 10
5317.852185758994
 20
2606.070845121485
 30
0.0
 11
5317.852185758994
 21
1878.270845121486
 31
0.0
  0
LINE
  5
313F
  8
OUTLINE
  6
CONTINUOUS
 10
5317.852185758994
 20
1878.270845121486
 30
0.0
 11
6587.852185758994
 21
1878.270845121486
 31
0.0
  0
LINE
  5
3140
  8
OUTLINE
 10
6587.8521857589931
 20
2606.070845121485
 30
0.0
 11
5317.852185758994
 21
2606.070845121485
 31
0.0
  0
LINE
  5
3141
  8
OUTLINE
 10
6587.852185758994
 20
1878.270845121486
 30
0.0
 11
6587.8521857589931
 21
2606.070845121485
 31
0.0
  0
LINE
  5
3142
  8
OUTLINE
 10
3264.2347519862669
 20
2606.070845121485
 30
0.0
 11
4251.6347519862684
 21
2606.070845121485
 31
0.0
  0
LINE
  5
3143
  8
OUTLINE
 10
3264.234751986266
 20
1878.270845121486
 30
0.0
 11
3264.2347519862669
 21
2606.070845121485
 31
0.0
  0
LINE
  5
3144
  8
OUTLINE
 10
4251.6347519862647
 20
1878.270845121486
 30
0.0
 11
4251.6347519862684
 21
2606.070845121485
 31
0.0
  0
LINE
  5
3145
  8
OUTLINE
  6
BYBLOCK
 10
6587.852185758994
 20
4488.885857070195
 30
0.0
 11
6587.8521857589931
 21
3496.4858570701949
 31
0.0
  0
LINE
  5
3146
  8
OUTLINE
  6
BYBLOCK
 10
5317.852185758994
 20
4488.885857070195
 30
0.0
 11
6587.852185758994
 21
4488.885857070195
 31
0.0
  0
LINE
  5
3147
  8
OUTLINE
  6
BYBLOCK
 10
6587.8521857589931
 20
3496.4858570701949
 30
0.0
 11
5317.852185758994
 21
3496.4858570701949
 31
0.0
  0
LINE
  5
3148
  8
OUTLINE
  6
BYBLOCK
 10
5317.852185758994
 20
3496.4858570701949
 30
0.0
 11
5317.852185758994
 21
4488.885857070195
 31
0.0
  0
LINE
  5
3149
  8
OUTLINE
 10
4251.6347519862647
 20
1878.270845121486
 30
0.0
 11
3264.234751986266
 21
1878.270845121486
 31
0.0
  0
CIRCLE
  5
314A
  8
OUTLINE
 10
3954.2339164227078
 20
1918.1028220632149
 30
0.0
 40
17.0
  0
LINE
  5
314B
  8
OUTLINE
  6
CONTINUOUS
 10
3204.438260900939
 20
2547.3708451214839
 30
0.0
 11
3204.438260900939
 21
2140.3708451214861
 31
0.0
  0
LINE
  5
314C
  8
OUTLINE
  6
CONTINUOUS
 10
6170.3496192694593
 20
4549.1798271572243
 30
0.0
 11
5835.3496192694593
 21
4549.1798271572243
 31
0.0
  0
LINE
  5
314D
  8
OUTLINE
  6
CONTINUOUS
 10
5835.3496192694593
 20
4488.885857070195
 30
0.0
 11
5835.3496192694593
 21
4549.1798271572243
 31
0.0
  0
LINE
  5
314E
  8
OUTLINE
  6
CONTINUOUS
 10
6170.3496192694593
 20
4488.885857070195
 30
0.0
 11
6170.3496192694593
 21
4549.1798271572243
 31
0.0
  0
LINE
  5
314F
  8
OUTLINE
  6
CONTINUOUS
 10
5317.852185758994
 20
1907.972067567699
 30
0.0
 11
5249.75218575899
 21
1907.972067567699
 31
0.0
  0
LINE
  5
3150
  8
OUTLINE
  6
CONTINUOUS
 10
5249.75218575899
 20
1907.972067567699
 30
0.0
 11
5249.75218575899
 21
1935.9720675676999
 31
0.0
  0
LINE
  5
3151
  8
OUTLINE
  6
CONTINUOUS
 10
5249.75218575899
 20
1935.9720675676999
 30
0.0
 11
5317.852185758994
 21
1935.9720675676999
 31
0.0
  0
LINE
  5
3152
  8
OUTLINE
  6
CONTINUOUS
 10
5352.8521857589931
 20
3346.481338211936
 30
0.0
 11
6552.8521857589931
 21
3346.4813382119328
 31
0.0
  0
LINE
  5
3153
  8
OUTLINE
  6
CONTINUOUS
 10
5352.8521857589913
 20
3496.4858570701949
 30
0.0
 11
5352.8521857589931
 21
3346.4813382119341
 31
0.0
  0
LINE
  5
3154
  8
OUTLINE
  6
CONTINUOUS
 10
5249.75218575899
 20
3807.9858570701958
 30
0.0
 11
5317.852185758994
 21
3807.9858570701958
 31
0.0
  0
LINE
  5
3155
  8
OUTLINE
  6
CONTINUOUS
 10
5317.852185758994
 20
3779.9858570701958
 30
0.0
 11
5249.75218575899
 21
3779.9858570701958
 31
0.0
  0
LINE
  5
3156
  8
OUTLINE
  6
CONTINUOUS
 10
5249.75218575899
 20
3779.9858570701958
 30
0.0
 11
5249.75218575899
 21
3807.9858570701958
 31
0.0
  0
LINE
  5
3157
  8
OUTLINE
  6
CONTINUOUS
 10
6552.8521857589931
 20
3496.4858570701949
 30
0.0
 11
6552.8521857589931
 21
3346.4813382119341
 31
0.0
  0
LINE
  5
3158
  8
OUTLINE
 10
4399.9347519862667
 20
1945.707115012264
 30
0.0
 11
4399.9347519862649
 21
2576.61895234639
 31
0.0
  0
LINE
  5
3159
  8
OUTLINE
 10
4399.9347519862667
 20
1945.707115012264
 30
0.0
 11
4251.6347519862647
 21
1945.707115012264
 31
0.0
  0
LINE
  5
315A
  8
OUTLINE
 10
6394.8521857589931
 20
1828.2708451214839
 30
0.0
 11
6290.8521857589931
 21
1828.2708451214839
 31
0.0
  0
LINE
  5
315B
  8
OUTLINE
 10
6422.8521857589913
 20
1878.270845121486
 30
0.0
 11
6392.8521857589931
 21
1878.270845121486
 31
0.0
  0
LINE
  5
315C
  8
OUTLINE
 10
6394.8521857589931
 20
1878.270845121486
 30
0.0
 11
6394.8521857589931
 21
1828.2708451214839
 31
0.0
  0
LINE
  5
315D
  8
OUTLINE
 10
6290.8521857589931
 20
1828.2708451214839
 30
0.0
 11
6290.8521857589931
 21
1878.270845121486
 31
0.0
  0
LINE
  5
315E
  8
OUTLINE
 10
3248.4347519862649
 20
1828.2708451214839
 30
0.0
 11
4267.4347519862667
 21
1828.2708451214839
 31
0.0
  0
LINE
  5
315F
  8
OUTLINE
 10
3269.2347519862669
 20
1878.2708451214789
 30
0.0
 11
4221.6347519862657
 21
1878.270845121493
 31
0.0
  0
LINE
  5
3160
  8
OUTLINE
  6
CONTINUOUS
 10
4399.934751986264
 20
2576.61895234639
 30
0.0
 11
4251.6347519862684
 21
2576.61895234639
 31
0.0
  0
LINE
  5
3161
  8
OUTLINE
 10
6262.852185758994
 20
1878.270845121486
 30
0.0
 11
6292.852185758994
 21
1878.270845121486
 31
0.0
  0
TEXT
  5
3162
  8
TEXT
  6
CONTINUOUS
 10
5849.743130013705
 20
481.88064644440237
 30
0.0
 40
100.0
  1
IJD 450 (HORIZ.DISCH.)
  7
TITLE5
 72
     1
 11
6728.3145585851344
 21
481.88064644440237
 31
0.0
  0
TEXT
  5
3163
  8
TEXT
  6
CONTINUOUS
 10
5940.0
 20
80.611361330295765
 30
0.0
 40
60.0
  1
1:20
  7
TITLE3
  0
ARC
  5
3164
  8
OUTLINE
  6
HIDDEN
 10
3538.3616011740492
 20
2204.4298865300261
 30
0.0
 40
343.69999999999982
 50
42.391993739892321
 51
86.421078175257051
  0
ARC
  5
3165
  8
OUTLINE
  6
HIDDEN
 10
3580.9616011740491
 20
2222.989886530027
 30
0.0
 40
291.69999999999982
 50
265.81101456591512
 51
309.35093597239961
  0
CIRCLE
  5
3166
  8
OUTLINE
  6
HIDDEN
 10
3559.7416011740488
 20
2202.9698865300279
 30
0.0
 40
162.5
  0
LINE
  5
3167
  8
OUTLINE
  6
HIDDEN
 10
3299.5416011740472
 20
2144.7698865300258
 30
0.0
 11
3299.5416011740472
 21
2546.2698865300249
 31
0.0
  0
ARC
  5
3168
  8
OUTLINE
  6
HIDDEN
 10
3585.4716011740488
 20
2202.5398865300258
 30
0.0
 40
271.69999999999999
 50
220.9587062676998
 51
264.54176490587002
  0
ARC
  5
3169
  8
OUTLINE
  6
HIDDEN
 10
3585.4416011740491
 20
2173.679886530027
 30
0.0
 40
253.6999999999999
 50
186.54326755184911
 51
216.01153635827569
  0
LINE
  5
316A
  8
OUTLINE
  6
HIDDEN
 10
3333.3941812308981
 20
2144.7698865300258
 30
0.0
 11
3299.5416011740472
 21
2144.7698865300258
 31
0.0
  0
LINE
  5
316B
  8
OUTLINE
  6
HIDDEN
 10
3559.7416011740511
 20
2547.4698865300279
 30
0.0
 11
3299.5416011740472
 21
2547.4698865300279
 31
0.0
  0
LINE
  5
316C
  8
OUTLINE
  6
HIDDEN
 10
3325.7416011740488
 20
2547.4698865300279
 30
0.0
 11
3299.5416011740472
 21
2547.4698865300279
 31
0.0
  0
LINE
  5
316D
  8
OUTLINE
  6
HIDDEN
 10
3299.5416011740472
 20
2536.2698865300272
 30
0.0
 11
3299.5416011740472
 21
2547.4698865300279
 31
0.0
  0
ARC
  5
316E
  8
OUTLINE
  6
HIDDEN
 10
3543.2216011740488
 20
2221.5498865300278
 30
0.0
 40
328.69999999999987
 50
356.88787769324472
 51
40.752941617474242
  0
ARC
  5
316F
  8
OUTLINE
  6
HIDDEN
 10
3561.061601174049
 20
2232.3498865300262
 30
0.0
 40
311.69999999999982
 50
311.09560821251881
 51
354.71872950388871
  0
LINE
  5
3170
  8
DIM
  6
CONTINUOUS
 10
6342.8521857589931
 20
1789.070845121485
 30
0.0
 11
6342.8521857589931
 21
1639.613481881069
 31
0.0
  0
LINE
  5
3171
  8
DIM
  6
CONTINUOUS
 10
5562.8521857589931
 20
1789.070845121485
 30
0.0
 11
5562.8521857589931
 21
1639.613481881069
 31
0.0
  0
LINE
  5
3172
  8
DIM
  6
CONTINUOUS
 10
6282.852185758994
 20
1679.613481881069
 30
0.0
 11
6185.7093286161371
 21
1679.613481881069
 31
0.0
  0
LINE
  5
3173
  8
DIM
  6
CONTINUOUS
 10
5622.8521857589931
 20
1679.613481881069
 30
0.0
 11
5719.99504290185
 21
1679.613481881069
 31
0.0
  0
SOLID
  5
3174
  8
DIM
  6
CONTINUOUS
 10
6282.852185758994
 20
1689.613481881069
 30
0.0
 11
6282.852185758994
 21
1669.613481881069
 31
0.0
 12
6342.8521857589931
 22
1679.613481881069
 32
0.0
 13
6342.8521857589931
 23
1679.613481881069
 33
0.0
  0
SOLID
  5
3175
  8
DIM
  6
CONTINUOUS
 10
5622.8521857589931
 20
1689.613481881069
 30
0.0
 11
5622.8521857589931
 21
1669.613481881069
 31
0.0
 12
5562.8521857589931
 22
1679.613481881069
 32
0.0
 13
5562.8521857589931
 23
1679.613481881069
 33
0.0
  0
TEXT
  5
3176
  8
DIM
  6
CONTINUOUS
 10
5755.3728843055333
 20
1644.054891773698
 30
0.0
 40
60.0
  1
780 CTRS
 41
0.8957079095741694
  7
TITLE3
 72
     5
 11
6146.9251990622406
 21
1644.054891773698
 31
0.0
  0
LINE
  5
3177
  8
DIM
  6
CONTINUOUS
 10
6342.8521857589931
 20
1789.070845121485
 30
0.0
 11
6342.8521857589931
 21
1639.613481881069
 31
0.0
  0
LINE
  5
3178
  8
DIM
  6
CONTINUOUS
 10
6586.1558588924854
 20
1839.8708451214859
 30
0.0
 11
6586.1558588924854
 21
1639.613481881069
 31
0.0
  0
LINE
  5
3179
  8
DIM
  6
CONTINUOUS
 10
6282.852185758994
 20
1679.613481881069
 30
0.0
 11
6222.8521857589931
 21
1679.613481881069
 31
0.0
  0
LINE
  5
317A
  8
DIM
  6
CONTINUOUS
 10
6646.1558588924836
 20
1679.613481881069
 30
0.0
 11
6706.1558588924836
 21
1679.613481881069
 31
0.0
  0
SOLID
  5
317B
  8
DIM
  6
CONTINUOUS
 10
6282.852185758994
 20
1689.613481881069
 30
0.0
 11
6282.852185758994
 21
1669.613481881069
 31
0.0
 12
6342.8521857589931
 22
1679.613481881069
 32
0.0
 13
6342.8521857589931
 23
1679.613481881069
 33
0.0
  0
SOLID
  5
317C
  8
DIM
  6
CONTINUOUS
 10
6646.1558588924836
 20
1689.613481881069
 30
0.0
 11
6646.1558588924836
 21
1669.613481881069
 31
0.0
 12
6586.1558588924854
 22
1679.613481881069
 32
0.0
 13
6586.1558588924854
 23
1679.613481881069
 33
0.0
  0
TEXT
  5
317D
  8
DIM
  6
CONTINUOUS
 10
6386.032446919894
 20
1649.613481881069
 30
0.0
 40
60.0
  1
245
  7
TITLE3
 72
     4
 11
6463.17530406275
 21
1679.613481881069
 31
0.0
  0
LINE
  5
317E
  8
DIM
  6
CONTINUOUS
 10
5562.8521857589931
 20
1789.070845121485
 30
0.0
 11
5562.8521857589931
 21
1639.613481881069
 31
0.0
  0
LINE
  5
317F
  8
DIM
  6
CONTINUOUS
 10
5319.5521857589929
 20
1839.8708451214859
 30
0.0
 11
5319.5521857589929
 21
1639.613481881069
 31
0.0
  0
LINE
  5
3180
  8
DIM
  6
CONTINUOUS
 10
5622.8521857589931
 20
1679.613481881069
 30
0.0
 11
5682.8521857589931
 21
1679.613481881069
 31
0.0
  0
LINE
  5
3181
  8
DIM
  6
CONTINUOUS
 10
5259.5521857589938
 20
1679.613481881069
 30
0.0
 11
5199.5521857589938
 21
1679.613481881069
 31
0.0
  0
SOLID
  5
3182
  8
DIM
  6
CONTINUOUS
 10
5622.8521857589931
 20
1689.613481881069
 30
0.0
 11
5622.8521857589931
 21
1669.613481881069
 31
0.0
 12
5562.8521857589931
 22
1679.613481881069
 32
0.0
 13
5562.8521857589931
 23
1679.613481881069
 33
0.0
  0
SOLID
  5
3183
  8
DIM
  6
CONTINUOUS
 10
5259.5521857589938
 20
1689.613481881069
 30
0.0
 11
5259.5521857589938
 21
1669.613481881069
 31
0.0
 12
5319.5521857589929
 22
1679.613481881069
 32
0.0
 13
5319.5521857589929
 23
1679.613481881069
 33
0.0
  0
TEXT
  5
3184
  8
DIM
  6
CONTINUOUS
 10
5367.729919886805
 20
1649.613481881069
 30
0.0
 40
60.0
  1
245
  7
TITLE3
 72
     4
 11
5444.8727770296618
 21
1679.613481881069
 31
0.0
  0
LINE
  5
3185
  8
DIM
  6
CONTINUOUS
 10
5319.0521857589929
 20
2644.8708451214829
 30
0.0
 11
5319.0521857589929
 21
2792.4916123274861
 31
0.0
  0
LINE
  5
3186
  8
DIM
  6
CONTINUOUS
 10
6586.6521857589942
 20
2644.8708451214829
 30
0.0
 11
6586.6521857589942
 21
2792.4916123274861
 31
0.0
  0
LINE
  5
3187
  8
DIM
  6
CONTINUOUS
 10
5379.0521857589929
 20
2752.4916123274852
 30
0.0
 11
5812.8521857589931
 21
2752.4916123274852
 31
0.0
  0
LINE
  5
3188
  8
DIM
  6
CONTINUOUS
 10
6526.6521857589942
 20
2752.4916123274852
 30
0.0
 11
6092.8521857589931
 21
2752.4916123274852
 31
0.0
  0
SOLID
  5
3189
  8
DIM
  6
CONTINUOUS
 10
5379.0521857589929
 20
2762.4916123274838
 30
0.0
 11
5379.0521857589929
 21
2742.4916123274852
 31
0.0
 12
5319.0521857589929
 22
2752.4916123274852
 32
0.0
 13
5319.0521857589929
 23
2752.4916123274852
 33
0.0
  0
SOLID
  5
318A
  8
DIM
  6
CONTINUOUS
 10
6526.6521857589942
 20
2762.4916123274838
 30
0.0
 11
6526.6521857589942
 21
2742.4916123274852
 31
0.0
 12
6586.6521857589942
 22
2752.4916123274852
 32
0.0
 13
6586.6521857589942
 23
2752.4916123274852
 33
0.0
  0
TEXT
  5
318B
  8
DIM
  6
CONTINUOUS
 10
5852.8521857589931
 20
2722.4916123274838
 30
0.0
 40
60.0
  1
1270
  7
TITLE3
 72
     1
 11
5952.8521857589931
 21
2752.4916123274852
 31
0.0
 73
     2
  0
LINE
  5
318C
  8
OUTLINE
  6
CONTINUOUS
 10
3264.4382609009399
 20
2140.3708451214861
 30
0.0
 11
3204.438260900939
 21
2140.3708451214861
 31
0.0
  0
LINE
  5
318D
  8
OUTLINE
  6
CONTINUOUS
 10
3264.4382609009399
 20
2547.3708451214861
 30
0.0
 11
3204.438260900939
 21
2547.3708451214839
 31
0.0
  0
ARC
  5
318E
  8
OUTLINE
  6
CONTINUOUS
 10
5317.852185758994
 20
3790.6858570701961
 30
0.0
 40
671.99999999999966
 50
90.0
 51
105.03106127349569
  0
LINE
  5
318F
  8
OUTLINE
  6
CONTINUOUS
 10
5317.852185758994
 20
3825.6858570701961
 30
0.0
 11
5143.5739207963361
 21
4439.6936277182867
 31
0.0
  0
LINE
  5
3190
  8
OUTLINE
  6
CONTINUOUS
 10
3248.4347519862649
 20
1828.2708451214839
 30
0.0
 11
3248.4347519862649
 21
1856.2708451214839
 31
0.0
  0
LINE
  5
3191
  8
OUTLINE
  6
CONTINUOUS
 10
4267.4347519862667
 20
1828.2708451214839
 30
0.0
 11
4267.4347519862667
 21
1856.2708451214839
 31
0.0
  0
LINE
  5
3192
  8
OUTLINE
 10
5614.8521857589931
 20
1828.2708451214839
 30
0.0
 11
5510.8521857589931
 21
1828.2708451214839
 31
0.0
  0
LINE
  5
3193
  8
OUTLINE
 10
5510.8521857589931
 20
1828.2708451214839
 30
0.0
 11
5510.8521857589931
 21
1878.270845121486
 31
0.0
  0
LINE
  5
3194
  8
OUTLINE
 10
5614.852185758994
 20
1878.270845121486
 30
0.0
 11
5614.8521857589931
 21
1828.2708451214839
 31
0.0
  0
LINE
  5
3195
  8
OUTLINE
  6
CONTINUOUS
 10
3270.4347519862672
 20
1878.270845121486
 30
0.0
 11
3248.4347519862649
 21
1856.2708451214839
 31
0.0
  0
LINE
  5
3196
  8
OUTLINE
  6
CONTINUOUS
 10
4245.4347519862649
 20
1878.270845121486
 30
0.0
 11
4267.4347519862667
 21
1856.2708451214839
 31
0.0
  0
LINE
  5
3197
  8
DIM
  6
CONTINUOUS
 10
3284.4347519862649
 20
1788.2708451214851
 30
0.0
 11
3284.4347519862649
 21
1663.798325218982
 31
0.0
  0
LINE
  5
3198
  8
DIM
  6
CONTINUOUS
 10
4231.4347519862667
 20
1788.2708451214851
 30
0.0
 11
4231.4347519862667
 21
1663.798325218982
 31
0.0
  0
LINE
  5
3199
  8
DIM
  6
CONTINUOUS
 10
3344.4347519862649
 20
1703.798325218982
 30
0.0
 11
3508.8633234148379
 21
1703.798325218982
 31
0.0
  0
LINE
  5
319A
  8
DIM
  6
CONTINUOUS
 10
4171.4347519862667
 20
1703.798325218982
 30
0.0
 11
4042.0061805576929
 21
1703.798325218982
 31
0.0
  0
SOLID
  5
319B
  8
DIM
  6
CONTINUOUS
 10
4171.4347519862667
 20
1713.798325218982
 30
0.0
 11
4171.4347519862667
 21
1693.798325218982
 31
0.0
 12
4231.4347519862667
 22
1703.798325218982
 32
0.0
 13
4231.4347519862667
 23
1703.798325218982
 33
0.0
  0
TEXT
  5
319C
  8
DIM
 10
3556.8633234148369
 20
1673.798325218982
 30
0.0
 40
60.0
  1
947 CTRS
  7
TITLE3
  0
LINE
  5
319D
  8
DIM
  6
CONTINUOUS
 10
4231.4347519862667
 20
1788.2708451214851
 30
0.0
 11
4231.4347519862667
 21
1663.798325218982
 31
0.0
  0
LINE
  5
319E
  8
DIM
  6
CONTINUOUS
 10
4267.4347519862667
 20
1790.2708451214851
 30
0.0
 11
4267.4347519862667
 21
1663.798325218982
 31
0.0
  0
LINE
  5
319F
  8
DIM
  6
CONTINUOUS
 10
4171.4347519862667
 20
1703.798325218982
 30
0.0
 11
4111.4347519862667
 21
1703.798325218982
 31
0.0
  0
LINE
  5
31A0
  8
DIM
  6
CONTINUOUS
 10
4327.4347519862649
 20
1703.798325218982
 30
0.0
 11
4387.4347519862649
 21
1703.798325218982
 31
0.0
  0
TEXT
  5
31A1
  8
DIM
 10
4361.1635771941856
 20
1723.1824219033099
 30
0.0
 40
60.0
  1
36
  7
TITLE3
  0
SOLID
  5
31A2
  8
DIM
  6
CONTINUOUS
 10
4171.4347519862667
 20
1713.798325218982
 30
0.0
 11
4171.4347519862667
 21
1693.798325218982
 31
0.0
 12
4231.4347519862667
 22
1703.798325218982
 32
0.0
 13
4231.4347519862667
 23
1703.798325218982
 33
0.0
  0
SOLID
  5
31A3
  8
DIM
  6
CONTINUOUS
 10
4327.4347519862649
 20
1713.798325218982
 30
0.0
 11
4327.4347519862649
 21
1693.798325218982
 31
0.0
 12
4267.4347519862667
 22
1703.798325218982
 32
0.0
 13
4267.4347519862667
 23
1703.798325218982
 33
0.0
  0
LINE
  5
31A4
  8
DIM
  6
CONTINUOUS
 10
3248.4347519862649
 20
1788.2708451214851
 30
0.0
 11
3248.4347519862649
 21
1663.798325218982
 31
0.0
  0
LINE
  5
31A5
  8
DIM
  6
CONTINUOUS
 10
3344.4347519862649
 20
1703.798325218982
 30
0.0
 11
3404.4347519862672
 21
1703.798325218982
 31
0.0
  0
LINE
  5
31A6
  8
DIM
  6
CONTINUOUS
 10
3188.4347519862672
 20
1703.798325218982
 30
0.0
 11
3128.4347519862649
 21
1703.798325218982
 31
0.0
  0
TEXT
  5
31A7
  8
DIM
 10
3058.0170170438869
 20
1723.1824093268419
 30
0.0
 40
60.0
  1
36
  7
TITLE3
  0
SOLID
  5
31A8
  8
DIM
  6
CONTINUOUS
 10
3344.4347519862649
 20
1713.798325218982
 30
0.0
 11
3344.4347519862649
 21
1693.798325218982
 31
0.0
 12
3284.4347519862649
 22
1703.798325218982
 32
0.0
 13
3284.4347519862649
 23
1703.798325218982
 33
0.0
  0
SOLID
  5
31A9
  8
DIM
  6
CONTINUOUS
 10
3188.4347519862672
 20
1713.798325218982
 30
0.0
 11
3188.4347519862672
 21
1693.798325218982
 31
0.0
 12
3248.4347519862649
 22
1703.798325218982
 32
0.0
 13
3248.4347519862649
 23
1703.798325218982
 33
0.0
  0
LINE
  5
31AA
  8
DIM
  6
CONTINUOUS
 10
5493.3521857589931
 20
1828.2708451214839
 30
0.0
 11
5029.0318415934271
 21
1828.2708451214839
 31
0.0
  0
LINE
  5
31AB
  8
DIM
  6
CONTINUOUS
 10
5283.4121313616433
 20
2606.070845121485
 30
0.0
 11
5029.0318415934271
 21
2606.070845121485
 31
0.0
  0
LINE
  5
31AC
  8
DIM
  6
CONTINUOUS
 10
5069.0318415934271
 20
1888.2708451214839
 30
0.0
 11
5069.0318415934271
 21
2100.0279879786281
 31
0.0
  0
LINE
  5
31AD
  8
DIM
  6
CONTINUOUS
 10
5069.0318415934271
 20
2546.070845121485
 30
0.0
 11
5069.0318415934271
 21
2334.3137022643409
 31
0.0
  0
SOLID
  5
31AE
  8
DIM
  6
CONTINUOUS
 10
5059.0318415934271
 20
1888.2708451214839
 30
0.0
 11
5079.0318415934271
 21
1888.2708451214839
 31
0.0
 12
5069.0318415934271
 22
1828.2708451214839
 32
0.0
 13
5069.0318415934271
 23
1828.2708451214839
 33
0.0
  0
SOLID
  5
31AF
  8
DIM
  6
CONTINUOUS
 10
5059.0318415934271
 20
2546.070845121485
 30
0.0
 11
5079.0318415934271
 21
2546.070845121485
 31
0.0
 12
5069.0318415934271
 22
2606.070845121485
 32
0.0
 13
5069.0318415934271
 23
2606.070845121485
 33
0.0
  0
TEXT
  5
31B0
  8
DIM
 10
5099.0318415934271
 20
2140.0279879786281
 30
0.0
 40
60.0
  1
775
 50
90.0
  7
TITLE3
  0
LINE
  5
31B1
  8
DIM
  6
CONTINUOUS
 10
3259.4347519862672
 20
1788.2708451214851
 30
0.0
 11
3259.4347519862672
 21
1551.830550929508
 31
0.0
  0
LINE
  5
31B2
  8
DIM
  6
CONTINUOUS
 10
4256.4347519862667
 20
1788.2708451214851
 30
0.0
 11
4256.4347519862667
 21
1551.830550929508
 31
0.0
  0
LINE
  5
31B3
  8
DIM
  6
CONTINUOUS
 10
3319.4347519862672
 20
1591.830550929508
 30
0.0
 11
3491.720466271981
 21
1591.830550929508
 31
0.0
  0
LINE
  5
31B4
  8
DIM
  6
CONTINUOUS
 10
4196.4347519862667
 20
1591.830550929508
 30
0.0
 11
4024.1490377005521
 21
1591.830550929508
 31
0.0
  0
SOLID
  5
31B5
  8
DIM
  6
CONTINUOUS
 10
3327.4347519862672
 20
1601.830550929508
 30
0.0
 11
3327.4347519862672
 21
1581.8305509295089
 31
0.0
 12
3267.4347519862672
 22
1591.830550929508
 32
0.0
 13
3267.4347519862672
 23
1591.830550929508
 33
0.0
  0
SOLID
  5
31B6
  8
DIM
  6
CONTINUOUS
 10
4196.4347519862667
 20
1601.830550929508
 30
0.0
 11
4196.4347519862667
 21
1581.8305509295089
 31
0.0
 12
4256.4347519862667
 22
1591.830550929508
 32
0.0
 13
4256.4347519862667
 23
1591.830550929508
 33
0.0
  0
TEXT
  5
31B7
  8
DIM
 10
3556.8633234148369
 20
1561.830550929508
 30
0.0
 40
60.0
  1
997 CTRS
  7
TITLE3
  0
LINE
  5
31B8
  8
DIM
  6
CONTINUOUS
 10
4256.4347519862667
 20
1748.2708451214851
 30
0.0
 11
4256.4347519862667
 21
1551.830550929508
 31
0.0
  0
LINE
  5
31B9
  8
DIM
  6
CONTINUOUS
 10
4267.4347519862667
 20
1750.2708451214851
 30
0.0
 11
4267.4347519862667
 21
1551.830550929508
 31
0.0
  0
LINE
  5
31BA
  8
DIM
  6
CONTINUOUS
 10
4196.4347519862667
 20
1591.830550929508
 30
0.0
 11
4136.4347519862667
 21
1591.830550929508
 31
0.0
  0
LINE
  5
31BB
  8
DIM
  6
CONTINUOUS
 10
4327.4347519862649
 20
1591.830550929508
 30
0.0
 11
4387.4347519862649
 21
1591.830550929508
 31
0.0
  0
TEXT
  5
31BC
  8
DIM
 10
4374.5238968209369
 20
1608.65424261772
 30
0.0
 40
60.0
  1
11
  7
TITLE3
  0
SOLID
  5
31BD
  8
DIM
  6
CONTINUOUS
 10
4196.4347519862667
 20
1601.830550929508
 30
0.0
 11
4196.4347519862667
 21
1581.8305509295089
 31
0.0
 12
4256.4347519862667
 22
1591.830550929508
 32
0.0
 13
4256.4347519862667
 23
1591.830550929508
 33
0.0
  0
SOLID
  5
31BE
  8
DIM
  6
CONTINUOUS
 10
4327.4347519862649
 20
1601.830550929508
 30
0.0
 11
4327.4347519862649
 21
1581.8305509295089
 31
0.0
 12
4267.4347519862667
 22
1591.830550929508
 32
0.0
 13
4267.4347519862667
 23
1591.830550929508
 33
0.0
  0
LINE
  5
31BF
  8
DIM
  6
CONTINUOUS
 10
3259.4347519862672
 20
1748.2708451214851
 30
0.0
 11
3259.4347519862672
 21
1551.830550929508
 31
0.0
  0
LINE
  5
31C0
  8
DIM
  6
CONTINUOUS
 10
3248.4347519862649
 20
1748.2708451214851
 30
0.0
 11
3248.4347519862649
 21
1551.830550929508
 31
0.0
  0
LINE
  5
31C1
  8
DIM
  6
CONTINUOUS
 10
3327.4347519862672
 20
1591.830550929508
 30
0.0
 11
3387.4347519862672
 21
1591.830550929508
 31
0.0
  0
LINE
  5
31C2
  8
DIM
  6
CONTINUOUS
 10
3188.4347519862672
 20
1591.830550929508
 30
0.0
 11
3128.4347519862649
 21
1591.830550929508
 31
0.0
  0
TEXT
  5
31C3
  8
DIM
 10
3073.888346844712
 20
1606.8706230479031
 30
0.0
 40
60.0
  1
11
  7
TITLE3
  0
SOLID
  5
31C4
  8
DIM
  6
CONTINUOUS
 10
3319.4347519862672
 20
1601.830550929508
 30
0.0
 11
3319.4347519862672
 21
1581.8305509295089
 31
0.0
 12
3259.4347519862672
 22
1591.830550929508
 32
0.0
 13
3259.4347519862672
 23
1591.830550929508
 33
0.0
  0
SOLID
  5
31C5
  8
DIM
  6
CONTINUOUS
 10
3188.4347519862672
 20
1601.830550929508
 30
0.0
 11
3188.4347519862672
 21
1581.8305509295089
 31
0.0
 12
3248.4347519862649
 22
1591.830550929508
 32
0.0
 13
3248.4347519862649
 23
1591.830550929508
 33
0.0
  0
LINE
  5
31C6
  8
DIM
  6
CONTINUOUS
 10
5493.3521857589931
 20
1828.2708451214839
 30
0.0
 11
5132.2839907520183
 21
1828.2708451214839
 31
0.0
  0
LINE
  5
31C7
  8
DIM
  6
CONTINUOUS
 10
5453.3521857589931
 20
1828.2708451214839
 30
0.0
 11
5141.3371746238736
 21
1828.2708451214839
 31
0.0
  0
LINE
  5
31C8
  8
OUTLINE
  6
CONTINUOUS
 10
5613.9521857589962
 20
4504.6858570701943
 30
0.0
 11
5510.7521857589936
 21
4504.6858570701943
 31
0.0
  0
ARC
  5
31C9
  8
OUTLINE
  6
CONTINUOUS
 10
5562.352185758994
 20
4493.6858570701916
 30
0.0
 40
6.5800000000000001
 50
313.1569067053706
 51
226.843093294629
  0
LINE
  5
31CA
  8
OUTLINE
  6
CONTINUOUS
 10
5510.7521857589936
 20
4488.8858570701959
 30
0.0
 11
5510.7521857589936
 21
4504.6858570701943
 31
0.0
  0
LINE
  5
31CB
  8
OUTLINE
  6
CONTINUOUS
 10
5512.352185758994
 20
4488.8858570701959
 30
0.0
 11
5512.352185758994
 21
4504.6858570701943
 31
0.0
  0
LINE
  5
31CC
  8
OUTLINE
  6
CONTINUOUS
 10
5613.9521857589962
 20
4488.8858570701959
 30
0.0
 11
5613.9521857589962
 21
4504.6858570701943
 31
0.0
  0
LINE
  5
31CD
  8
OUTLINE
  6
CONTINUOUS
 10
5612.352185758994
 20
4488.8858570701959
 30
0.0
 11
5612.352185758994
 21
4504.6858570701943
 31
0.0
  0
LINE
  5
31CE
  8
OUTLINE
  6
CONTINUOUS
 10
6291.7521857589936
 20
4504.6858570701943
 30
0.0
 11
6394.9521857589953
 21
4504.6858570701943
 31
0.0
  0
LINE
  5
31CF
  8
OUTLINE
  6
CONTINUOUS
 10
6293.352185758994
 20
4488.8858570701959
 30
0.0
 11
6293.352185758994
 21
4504.6858570701943
 31
0.0
  0
LINE
  5
31D0
  8
OUTLINE
  6
CONTINUOUS
 10
6291.7521857589936
 20
4488.885857070195
 30
0.0
 11
6291.7521857589936
 21
4504.6858570701943
 31
0.0
  0
ARC
  5
31D1
  8
OUTLINE
  6
CONTINUOUS
 10
6343.3521857589958
 20
4493.6858570701916
 30
0.0
 40
6.5800000000000001
 50
313.1569067053706
 51
226.843093294629
  0
LINE
  5
31D2
  8
OUTLINE
  6
CONTINUOUS
 10
6393.352185758994
 20
4488.8858570701959
 30
0.0
 11
6393.352185758994
 21
4504.6858570701943
 31
0.0
  0
LINE
  5
31D3
  8
OUTLINE
  6
CONTINUOUS
 10
6394.9521857589953
 20
4488.885857070195
 30
0.0
 11
6394.9521857589953
 21
4504.6858570701943
 31
0.0
  0
LINE
  5
31D4
  8
OUTLINE
  6
HIDDEN
 10
5613.9521857589962
 20
3480.6858570701952
 30
0.0
 11
5510.7521857589936
 21
3480.6858570701961
 31
0.0
  0
ARC
  5
31D5
  8
OUTLINE
  6
CONTINUOUS
 10
5562.352185758994
 20
3491.6858570701929
 30
0.0
 40
6.5800000000000001
 50
133.1569067053708
 51
46.84309329462922
  0
LINE
  5
31D6
  8
OUTLINE
  6
HIDDEN
 10
5510.7521857589936
 20
3480.6858570701961
 30
0.0
 11
5510.7521857589936
 21
3496.4858570701949
 31
0.0
  0
LINE
  5
31D7
  8
OUTLINE
  6
HIDDEN
 10
5613.9521857589962
 20
3480.6858570701961
 30
0.0
 11
5613.9521857589962
 21
3496.4858570701949
 31
0.0
  0
LINE
  5
31D8
  8
OUTLINE
  6
HIDDEN
 10
6291.7521857589936
 20
3480.6858570701952
 30
0.0
 11
6394.9521857589953
 21
3480.6858570701952
 31
0.0
  0
LINE
  5
31D9
  8
OUTLINE
  6
HIDDEN
 10
6291.7521857589936
 20
3480.6858570701952
 30
0.0
 11
6291.7521857589936
 21
3496.4858570701949
 31
0.0
  0
LINE
  5
31DA
  8
OUTLINE
  6
HIDDEN
 10
6293.352185758994
 20
3480.6858570701952
 30
0.0
 11
6293.352185758994
 21
3496.4858570701949
 31
0.0
  0
LINE
  5
31DB
  8
OUTLINE
  6
HIDDEN
 10
6394.9521857589953
 20
3480.6858570701952
 30
0.0
 11
6394.9521857589953
 21
3496.4858570701949
 31
0.0
  0
LINE
  5
31DC
  8
OUTLINE
  6
HIDDEN
 10
6393.352185758994
 20
3480.6858570701952
 30
0.0
 11
6393.352185758994
 21
3496.4858570701949
 31
0.0
  0
ARC
  5
31DD
  8
OUTLINE
  6
CONTINUOUS
 10
6343.3521857589958
 20
3491.6858570701929
 30
0.0
 40
6.5800000000000001
 50
133.1569067053708
 51
46.84309329462922
  0
CIRCLE
  5
31DE
  8
OUTLINE
 10
4121.8817043762383
 20
1981.9339523463891
 30
0.0
 40
22.25000000000022
  0
CIRCLE
  5
31DF
  8
OUTLINE
 10
4204.3817043762374
 20
2496.303952346389
 30
0.0
 40
22.25000000000022
  0
LINE
  5
31E0
  8
OUTLINE
 10
5280.3521857589913
 20
2518.8039523463908
 30
0.0
 11
5303.3521857589913
 21
2518.8039523463908
 31
0.0
  0
LINE
  5
31E1
  8
OUTLINE
 10
5280.3521857589913
 20
2473.803952346389
 30
0.0
 11
5303.3521857589913
 21
2473.803952346389
 31
0.0
  0
LINE
  5
31E2
  8
OUTLINE
 10
5303.3521857589913
 20
2518.8039523463908
 30
0.0
 11
5303.3521857589913
 21
2473.803952346389
 31
0.0
  0
LINE
  5
31E3
  8
OUTLINE
 10
5303.3521857589913
 20
2478.8039523463908
 30
0.0
 11
5317.852185758994
 21
2478.8039523463908
 31
0.0
  0
LINE
  5
31E4
  8
OUTLINE
 10
5303.3521857589913
 20
2513.8039523463908
 30
0.0
 11
5317.852185758994
 21
2513.8039523463908
 31
0.0
  0
LINE
  5
31E5
  8
OUTLINE
 10
5253.3521857589913
 20
2514.8039523463881
 30
0.0
 11
5253.3521857589913
 21
2477.8039523463908
 31
0.0
  0
LINE
  5
31E6
  8
OUTLINE
 10
5280.3521857589913
 20
2518.8039523463908
 30
0.0
 11
5280.3521857589913
 21
2473.803952346389
 31
0.0
  0
LINE
  5
31E7
  8
OUTLINE
 10
5254.8521857589913
 20
2476.3039523463908
 30
0.0
 11
5280.3521857589913
 21
2476.3039523463908
 31
0.0
  0
LINE
  5
31E8
  8
OUTLINE
 10
5253.3521857589913
 20
2477.8039523463908
 30
0.0
 11
5254.8521857589913
 21
2476.3039523463908
 31
0.0
  0
LINE
  5
31E9
  8
OUTLINE
 10
5254.8521857589913
 20
2516.303952346389
 30
0.0
 11
5280.3521857589913
 21
2516.303952346389
 31
0.0
  0
LINE
  5
31EA
  8
OUTLINE
 10
5253.3521857589913
 20
2514.8039523463881
 30
0.0
 11
5254.8521857589913
 21
2516.303952346389
 31
0.0
  0
LINE
  5
31EB
  8
OUTLINE
 10
5280.3521857589913
 20
2004.433952346388
 30
0.0
 11
5303.3521857589913
 21
2004.433952346388
 31
0.0
  0
LINE
  5
31EC
  8
OUTLINE
 10
5280.3521857589913
 20
1959.4339523463891
 30
0.0
 11
5303.3521857589913
 21
1959.4339523463891
 31
0.0
  0
LINE
  5
31ED
  8
OUTLINE
 10
5303.3521857589913
 20
2004.433952346388
 30
0.0
 11
5303.3521857589913
 21
1959.4339523463891
 31
0.0
  0
LINE
  5
31EE
  8
OUTLINE
 10
5303.3521857589913
 20
1964.433952346388
 30
0.0
 11
5317.852185758994
 21
1964.433952346388
 31
0.0
  0
LINE
  5
31EF
  8
OUTLINE
 10
5303.3521857589913
 20
1999.4339523463891
 30
0.0
 11
5317.852185758994
 21
1999.4339523463891
 31
0.0
  0
LINE
  5
31F0
  8
OUTLINE
 10
5253.3521857589913
 20
2000.433952346388
 30
0.0
 11
5253.3521857589913
 21
1963.433952346388
 31
0.0
  0
LINE
  5
31F1
  8
OUTLINE
 10
5280.3521857589913
 20
2004.433952346388
 30
0.0
 11
5280.3521857589913
 21
1959.4339523463891
 31
0.0
  0
LINE
  5
31F2
  8
OUTLINE
 10
5254.8521857589913
 20
1961.93395234639
 30
0.0
 11
5280.3521857589913
 21
1961.93395234639
 31
0.0
  0
LINE
  5
31F3
  8
OUTLINE
 10
5253.3521857589913
 20
1963.433952346388
 30
0.0
 11
5254.8521857589913
 21
1961.93395234639
 31
0.0
  0
LINE
  5
31F4
  8
OUTLINE
 10
5254.8521857589913
 20
2001.9339523463891
 30
0.0
 11
5280.3521857589913
 21
2001.9339523463891
 31
0.0
  0
LINE
  5
31F5
  8
OUTLINE
 10
5253.3521857589913
 20
2000.433952346388
 30
0.0
 11
5254.8521857589913
 21
2001.9339523463891
 31
0.0
  0
LINE
  5
31F6
  8
OUTLINE
 10
5280.3521857589913
 20
3521.2358570701949
 30
0.0
 11
5303.3521857589913
 21
3521.2358570701949
 31
0.0
  0
LINE
  5
31F7
  8
OUTLINE
 10
5280.3521857589913
 20
3566.2358570701949
 30
0.0
 11
5303.3521857589913
 21
3566.2358570701949
 31
0.0
  0
LINE
  5
31F8
  8
OUTLINE
 10
5303.3521857589913
 20
3521.2358570701949
 30
0.0
 11
5303.3521857589913
 21
3566.2358570701949
 31
0.0
  0
LINE
  5
31F9
  8
OUTLINE
 10
5253.3521857589913
 20
3562.2358570701949
 30
0.0
 11
5254.8521857589913
 21
3563.7358570701949
 31
0.0
  0
LINE
  5
31FA
  8
OUTLINE
 10
5280.3521857589913
 20
3521.2358570701949
 30
0.0
 11
5280.3521857589913
 21
3566.2358570701949
 31
0.0
  0
LINE
  5
31FB
  8
OUTLINE
 10
5253.3521857589913
 20
3525.2358570701958
 30
0.0
 11
5254.8521857589913
 21
3523.7358570701949
 31
0.0
  0
LINE
  5
31FC
  8
OUTLINE
 10
5254.8521857589913
 20
3523.7358570701949
 30
0.0
 11
5280.3521857589913
 21
3523.7358570701949
 31
0.0
  0
LINE
  5
31FD
  8
OUTLINE
 10
5253.3521857589913
 20
3525.2358570701958
 30
0.0
 11
5253.3521857589913
 21
3562.2358570701949
 31
0.0
  0
LINE
  5
31FE
  8
OUTLINE
 10
5254.8521857589913
 20
3563.7358570701949
 30
0.0
 11
5280.3521857589913
 21
3563.7358570701949
 31
0.0
  0
LINE
  5
31FF
  8
OUTLINE
 10
5303.3521857589913
 20
3561.2358570701949
 30
0.0
 11
5317.852185758994
 21
3561.235857070194
 31
0.0
  0
LINE
  5
3200
  8
OUTLINE
 10
5303.3521857589913
 20
3526.2358570701949
 30
0.0
 11
5317.852185758994
 21
3526.2358570701949
 31
0.0
  0
LINE
  5
3201
  8
OUTLINE
 10
5254.8521857589913
 20
3646.2358570701949
 30
0.0
 11
5280.3521857589913
 21
3646.2358570701949
 31
0.0
  0
LINE
  5
3202
  8
OUTLINE
 10
5254.8521857589913
 20
3606.2358570701949
 30
0.0
 11
5280.3521857589913
 21
3606.2358570701949
 31
0.0
  0
LINE
  5
3203
  8
OUTLINE
 10
5253.3521857589913
 20
3607.7358570701949
 30
0.0
 11
5253.3521857589913
 21
3644.7358570701949
 31
0.0
  0
LINE
  5
3204
  8
OUTLINE
 10
5253.3521857589913
 20
3607.7358570701949
 30
0.0
 11
5254.8521857589913
 21
3606.2358570701949
 31
0.0
  0
LINE
  5
3205
  8
OUTLINE
 10
5253.3521857589913
 20
3644.7358570701949
 30
0.0
 11
5254.8521857589913
 21
3646.2358570701949
 31
0.0
  0
LINE
  5
3206
  8
OUTLINE
 10
5303.3521857589913
 20
3603.735857070194
 30
0.0
 11
5303.3521857589913
 21
3648.7358570701949
 31
0.0
  0
LINE
  5
3207
  8
OUTLINE
 10
5280.3521857589913
 20
3603.735857070194
 30
0.0
 11
5280.3521857589913
 21
3648.7358570701949
 31
0.0
  0
LINE
  5
3208
  8
OUTLINE
 10
5303.3521857589913
 20
3608.7358570701949
 30
0.0
 11
5317.852185758994
 21
3608.7358570701949
 31
0.0
  0
LINE
  5
3209
  8
OUTLINE
 10
5280.3521857589913
 20
3603.735857070194
 30
0.0
 11
5303.3521857589913
 21
3603.735857070194
 31
0.0
  0
LINE
  5
320A
  8
OUTLINE
 10
5303.3521857589913
 20
3643.7358570701949
 30
0.0
 11
5317.852185758994
 21
3643.7358570701922
 31
0.0
  0
LINE
  5
320B
  8
OUTLINE
 10
5280.3521857589913
 20
3648.7358570701949
 30
0.0
 11
5303.3521857589913
 21
3648.7358570701949
 31
0.0
  0
TEXT
  5
320C
  8
TEXT
  6
CONTINUOUS
 10
5901.5110048743891
 20
220.0
 30
0.0
 40
60.0
  1
14.10.03
 41
0.8888888888888894
  7
TITLE3
 72
     5
 11
6221.5110048743882
 21
220.0
 31
0.0
  0
TEXT
  5
320D
  8
OVERLAY-A3
 10
5694.681091838801
 20
221.6624277202018
 30
0.0
 40
48.0
  1
Date
  7
SIMPLEX
  0
TEXT
  5
320E
  8
OVERLAY-A3
 10
7492.2223847472042
 20
259.00660404682242
 30
0.0
 40
48.0
  1
Revision
 41
0.7812095035934741
  7
SIMPLEX
 72
     5
 11
7702.9257480021297
 21
259.00660404682242
 31
0.0
  0
LINE
  5
320F
  8
OVERLAY-A3
 10
7468.9826999803199
 20
41.684985696634271
 30
0.0
 11
7468.982699980319
 21
336.53731141709312
 31
0.0
  0
LINE
  5
3210
  8
OVERLAY-A3
 10
5638.7030589142951
 20
689.91812655943204
 30
0.0
 11
5638.7030589142951
 21
41.684985696634271
 31
0.0
  0
LINE
  5
3211
  8
OVERLAY-A3
 10
6833.8273560261878
 20
41.684985696634271
 30
0.0
 11
6833.8273560261878
 21
336.53731141709312
 31
0.0
  0
LINE
  5
3212
  8
OVERLAY-A3
 10
6833.8273560261869
 20
186.62519853892741
 30
0.0
 11
5638.7030589142951
 21
186.62519853892741
 31
0.0
  0
LINE
  5
3213
  8
OVERLAY-A3
 10
7723.1509304756837
 20
336.53731141709312
 30
0.0
 11
5638.7030589142951
 21
336.53731141709312
 31
0.0
  0
LINE
  5
3214
  8
OVERLAY-A3
 10
5638.7030589142951
 20
41.684985696634271
 30
0.0
 11
7722.5559161189822
 21
41.684985696634271
 31
0.0
  0
LINE
  5
3215
  8
OVERLAY-A3
 10
7722.5559161189822
 20
41.684985696634271
 30
0.0
 11
7722.5559161189822
 21
689.91812655943204
 31
0.0
  0
LINE
  5
3216
  8
OVERLAY-A3
 10
7722.5559161189822
 20
689.91812655943204
 30
0.0
 11
5638.7030589142951
 21
689.91812655943204
 31
0.0
  0
TEXT
  5
3217
  8
OVERLAY-A3
 10
5688.9664382062192
 20
95.844976130715395
 30
0.0
 40
40.0
  1
Scale
 41
1.3701747965659721
  7
SIMPLEX
 72
     5
 11
5889.9254083692276
 21
95.844976130715395
 31
0.0
  0
TEXT
  5
3218
  8
OVERLAY-A3
 10
6949.7182472015938
 20
257.78686301341941
 30
0.0
 40
40.0
  1
Drawing No.
  7
SIMPLEX
 72
     2
 11
7298.2896757730232
 21
257.78686301341941
 31
0.0
  0
LINE
  5
3219
  8
OVERLAY-A3
 10
2862.556972289738
 20
0.0
 30
0.0
 11
7780.000000000312
 21
0.0
 31
0.0
  0
LINE
  5
321A
  8
OVERLAY-A3
 10
7780.000000000312
 20
0.0
 30
0.0
 11
7780.000000000312
 21
5320.0000000002146
 31
0.0
  0
LINE
  5
321B
  8
OVERLAY-A3
 10
7780.000000000312
 20
5320.0000000002146
 30
0.0
 11
2862.556972289738
 21
5320.0000000002146
 31
0.0
  0
LINE
  5
321C
  8
OVERLAY-A3
 10
2862.556972289738
 20
5320.0000000002146
 30
0.0
 11
2862.556972289738
 21
0.0
 31
0.0
  0
TEXT
  5
321D
  8
TEXT
  6
CONTINUOUS
 10
7019.5911114674218
 20
110.8265206585165
 30
0.0
 40
60.0
  1
IJD450
  7
TITLE3
  0
LINE
  5
321E
  8
CLEAR
 10
6587.852185758994
 20
4488.885857070195
 30
0.0
 11
7587.852185758994
 21
4488.8858570701959
 31
0.0
  0
LINE
  5
321F
  8
CLEAR
 10
6587.8521857589931
 20
3496.4858570701949
 30
0.0
 11
7587.852185758994
 21
3496.4858570701949
 31
0.0
  0
LINE
  5
3220
  8
CLEAR
 10
5317.852185758994
 20
4488.885857070195
 30
0.0
 11
4317.8521857589949
 21
4488.885857070195
 31
0.0
  0
LINE
  5
3221
  8
CLEAR
 10
5317.852185758994
 20
3496.4858570701949
 30
0.0
 11
4317.8521857589949
 21
3496.4858570701949
 31
0.0
  0
LINE
  5
3222
  8
CLEAR
 10
4317.8521857589949
 20
4488.885857070195
 30
0.0
 11
4317.8521857589949
 21
3496.4858570701949
 31
0.0
  0
LINE
  5
3223
  8
CLEAR
 10
7587.852185758994
 20
4488.8858570701959
 30
0.0
 11
7587.852185758994
 21
3496.4858570701949
 31
0.0
  0
LINE
  5
3224
  8
DIM
 10
5998.8413874349044
 20
3470.1237104935449
 30
0.0
 11
5970.2653910832387
 21
3423.1196290012272
 31
0.0
  0
LINE
  5
3225
  8
DIM
 10
5998.8413874349044
 20
3470.1237104935449
 30
0.0
 11
6027.4173837865683
 21
3423.1196290012272
 31
0.0
  0
LINE
  5
3226
  8
DIM
 10
5970.2653910832387
 20
3423.1196290012272
 30
0.0
 11
5988.0143736368709
 21
3423.1196290012272
 31
0.0
  0
LINE
  5
3227
  8
DIM
 10
5988.0143736368709
 20
3423.1196290012272
 30
0.0
 11
5988.0143736368709
 21
3368.1337262936818
 31
0.0
  0
LINE
  5
3228
  8
DIM
 10
6009.668401232937
 20
3423.1196290012272
 30
0.0
 11
6009.668401232937
 21
3368.1337262936818
 31
0.0
  0
LINE
  5
3229
  8
DIM
 10
5988.0143736368709
 20
3368.1337262936818
 30
0.0
 11
6009.668401232937
 21
3368.1337262936818
 31
0.0
  0
LINE
  5
322A
  8
DIM
 10
6027.4173837865683
 20
3423.1196290012272
 30
0.0
 11
6009.668401232937
 21
3423.1196290012272
 31
0.0
  0
LINE
  5
322B
  8
DIM
 10
5988.0143736368709
 20
4536.3766352085677
 30
0.0
 11
5988.0143736368709
 21
4481.3907325010241
 31
0.0
  0
LINE
  5
322C
  8
DIM
 10
6009.668401232937
 20
4536.3766352085677
 30
0.0
 11
6009.668401232937
 21
4481.3907325010241
 31
0.0
  0
LINE
  5
322D
  8
DIM
 10
5988.0143736368709
 20
4481.3907325010241
 30
0.0
 11
6009.668401232937
 21
4481.3907325010241
 31
0.0
  0
LINE
  5
322E
  8
DIM
 10
5998.8413874349044
 20
4583.380716700889
 30
0.0
 11
5970.2653910832387
 21
4536.3766352085677
 31
0.0
  0
LINE
  5
322F
  8
DIM
 10
5970.2653910832387
 20
4536.3766352085677
 30
0.0
 11
5988.0143736368709
 21
4536.3766352085677
 31
0.0
  0
LINE
  5
3230
  8
DIM
 10
6027.4173837865683
 20
4536.3766352085677
 30
0.0
 11
6009.668401232937
 21
4536.3766352085677
 31
0.0
  0
LINE
  5
3231
  8
DIM
 10
5998.8413874349044
 20
4583.380716700889
 30
0.0
 11
6027.4173837865683
 21
4536.3766352085677
 31
0.0
  0
TEXT
  5
3232
  8
TEXT
  6
PHANTOM2
 10
4435.2609740617927
 20
3794.7114775964169
 30
0.0
 40
60.0
  1
1000 min 
 50
90.0
  7
TITLE3
  0
TEXT
  5
3233
  8
TEXT
  6
PHANTOM2
 10
4538.1181169189358
 20
3751.7284132727209
 30
0.0
 40
60.0
  1
CLEARANCE
 50
90.0
  7
TITLE3
  0
INSERT
  5
3234
  8
DIM
  2
NEW_BLOCK
 10
2914.5509858582482
 20
48.208761397095721
 30
0.0
 41
1.050000000000181
 42
1.049999999999996
 43
1.049999999999996
  0
TEXT
  5
3235
  8
TEXT
  6
PHANTOM2
 10
7538.030077390923
 20
3751.7284132727209
 30
0.0
 40
60.0
  1
CLEARANCE
 50
90.0
  7
TITLE3
  0
TEXT
  5
3236
  8
TEXT
  6
PHANTOM2
 10
7435.1729345337781
 20
3794.7114775964169
 30
0.0
 40
60.0
  1
1000 min 
 50
90.0
  7
TITLE3
  0
TEXT
  5
3237
  8
TEXT
  6
CONTINUOUS
 10
5702.2860002758371
 20
3999.0032343428702
 30
0.0
 40
100.0
  1
IJD 450
  7
TITLE5
 72
     1
 11
5983.2383812282169
 21
3999.0032343428702
 31
0.0
  0
TEXT
  5
3238
  8
TEXT
  6
CONTINUOUS
 10
5702.2860002758371
 20
2235.5434323165318
 30
0.0
 40
100.0
  1
IJD 450
  7
TITLE5
 72
     1
 11
5983.2383812282169
 21
2235.5434323165318
 31
0.0
  0
LINE
  5
3239
  8
DIM
 10
3204.438260900939
 20
2587.3708451214852
 30
0.0
 11
3204.438260900939
 21
2787.9952979094892
 31
0.0
  0
LINE
  5
323A
  8
DIM
 10
4399.9347519862649
 20
2616.61895234639
 30
0.0
 11
4399.9347519862649
 21
2787.9952979094892
 31
0.0
  0
LINE
  5
323B
  8
DIM
 10
3264.4382609009399
 20
2747.9952979094892
 30
0.0
 11
3667.9007921578882
 21
2747.9952979094892
 31
0.0
  0
LINE
  5
323C
  8
DIM
 10
4339.9347519862649
 20
2747.9952979094892
 30
0.0
 11
3936.4722207293171
 21
2747.9952979094892
 31
0.0
  0
SOLID
  5
323D
  8
DIM
 10
3264.4382609009399
 20
2757.9952979094901
 30
0.0
 11
3264.4382609009399
 21
2737.9952979094892
 31
0.0
 12
3204.438260900939
 22
2747.9952979094892
 32
0.0
 13
3204.438260900939
 23
2747.9952979094892
 33
0.0
  0
SOLID
  5
323E
  8
DIM
 10
4339.9347519862649
 20
2757.9952979094901
 30
0.0
 11
4339.9347519862649
 21
2737.9952979094892
 31
0.0
 12
4399.9347519862649
 22
2747.9952979094892
 32
0.0
 13
4399.9347519862649
 23
2747.9952979094892
 33
0.0
  0
TEXT
  5
323F
  8
DIM
 10
3707.9007921578882
 20
2717.995297909491
 30
0.0
 40
60.0
  1
1195
  7
TITLE3
  0
TEXT
  5
3240
  8
TEXT
  6
CONTINUOUS
 10
3496.4683846261141
 20
2235.5434323165318
 30
0.0
 40
100.0
  1
IJD 450
  7
TITLE5
 72
     1
 11
3777.4207655784949
 21
2235.5434323165318
 31
0.0
  0
LINE
  5
3241
  8
OUTLINE
 10
5352.8521857589931
 20
2576.61895234639
 30
0.0
 11
5352.8521857589931
 21
1945.707115012264
 31
0.0
  0
LINE
  5
3242
  8
OUTLINE
 10
6552.8521857589931
 20
2576.61895234639
 30
0.0
 11
6552.8521857589931
 21
1945.7071150122631
 31
0.0
  0
LINE
  5
3243
  8
OUTLINE
 10
5352.8521857589931
 20
1945.707115012264
 30
0.0
 11
6552.8521857589931
 21
1945.7071150122631
 31
0.0
  0
LINE
  5
3244
  8
OUTLINE
 10
5352.8521857589931
 20
2576.61895234639
 30
0.0
 11
6552.8521857589931
 21
2576.61895234639
 31
0.0
  0
ENDSEC
  0
EOF
