  0
SECTION
  2
HEADER
  9
$ACADVER
  1
AC1009
  9
$INSBASE
 10
0.0
 20
0.0
 30
0.0
  9
$EXTMIN
 10
2519.572367563937
 20
0.0
 30
0.0
  9
$EXTMAX
 10
7780.000000000312
 20
4418.6623601792389
 30
0.0
  9
$LIMMIN
 10
0.0
 20
0.0
  9
$LIMMAX
 10
7780.0
 20
5320.0
  9
$ORTHOMODE
 70
     1
  9
$REGENMODE
 70
     1
  9
$FILLMODE
 70
     1
  9
$QTEXTMODE
 70
     0
  9
$MIRRTEXT
 70
     0
  9
$DRAGMODE
 70
     2
  9
$LTSCALE
 40
250.0
  9
$OSMODE
 70
     0
  9
$ATTMODE
 70
     1
  9
$TEXTSIZE
 40
60.0
  9
$TRACEWID
 40
0.05
  9
$TEXTSTYLE
  7
TITLE3
  9
$CLAYER
  8
DIM
  9
$CELTYPE
  6
BYLAYER
  9
$CECOLOR
 62
   256
  9
$DIMSCALE
 40
1.0
  9
$DIMASZ
 40
0.12
  9
$DIMEXO
 40
0.05
  9
$DIMDLI
 40
0.5
  9
$DIMRND
 40
0.0
  9
$DIMDLE
 40
0.0
  9
$DIMEXE
 40
0.1
  9
$DIMTP
 40
0.1
  9
$DIMTM
 40
0.1
  9
$DIMTXT
 40
0.12
  9
$DIMCEN
 40
0.0
  9
$DIMTSZ
 40
0.0
  9
$DIMTOL
 70
     0
  9
$DIMLIM
 70
     0
  9
$DIMTIH
 70
     1
  9
$DIMTOH
 70
     1
  9
$DIMSE1
 70
     0
  9
$DIMSE2
 70
     0
  9
$DIMTAD
 70
     0
  9
$DIMZIN
 70
     7
  9
$DIMBLK
  1

  9
$DIMASO
 70
     0
  9
$DIMSHO
 70
     0
  9
$DIMPOST
  1

  9
$DIMAPOST
  1
mm
  9
$DIMALT
 70
     0
  9
$DIMALTD
 70
     2
  9
$DIMALTF
 40
25.399999999999999
  9
$DIMLFAC
 40
1.0
  9
$DIMTOFL
 70
     0
  9
$DIMTVP
 40
0.0
  9
$DIMTIX
 70
     0
  9
$DIMSOXD
 70
     0
  9
$DIMSAH
 70
     0
  9
$DIMBLK1
  1

  9
$DIMBLK2
  1

  9
$DIMSTYLE
  2
AM_ANSI
  9
$DIMCLRD
 70
   256
  9
$DIMCLRE
 70
   256
  9
$DIMCLRT
 70
     2
  9
$DIMTFAC
 40
0.71
  9
$DIMGAP
 40
0.06
  9
$LUNITS
 70
     2
  9
$LUPREC
 70
     2
  9
$SKETCHINC
 40
0.1
  9
$FILLETRAD
 40
0.0
  9
$AUNITS
 70
     0
  9
$AUPREC
 70
     2
  9
$MENU
  1
\acad12\support\cnc
  9
$ELEVATION
 40
0.0
  9
$PELEVATION
 40
0.0
  9
$THICKNESS
 40
0.0
  9
$LIMCHECK
 70
     0
  9
$BLIPMODE
 70
     0
  9
$CHAMFERA
 40
0.0
  9
$CHAMFERB
 40
0.0
  9
$SKPOLY
 70
     0
  9
$TDCREATE
 40
2451256.4746530098
  9
$TDUPDATE
 40
2454699.4858704172
  9
$TDINDWG
 40
2.0030849306
  9
$TDUSRTIMER
 40
2.0030567129999999
  9
$USRTIMER
 70
     1
  9
$ANGBASE
 50
0.0
  9
$ANGDIR
 70
     0
  9
$PDMODE
 70
     2
  9
$PDSIZE
 40
20.0
  9
$PLINEWID
 40
0.0
  9
$COORDS
 70
     1
  9
$SPLFRAME
 70
     0
  9
$SPLINETYPE
 70
     6
  9
$SPLINESEGS
 70
     8
  9
$ATTDIA
 70
     1
  9
$ATTREQ
 70
     1
  9
$HANDLING
 70
     1
  9
$HANDSEED
  5
2EAB
  9
$SURFTAB1
 70
     6
  9
$SURFTAB2
 70
     6
  9
$SURFTYPE
 70
     6
  9
$SURFU
 70
     6
  9
$SURFV
 70
     6
  9
$UCSNAME
  2

  9
$UCSORG
 10
0.0
 20
0.0
 30
0.0
  9
$UCSXDIR
 10
1.0
 20
0.0
 30
0.0
  9
$UCSYDIR
 10
0.0
 20
1.0
 30
0.0
  9
$PUCSNAME
  2

  9
$PUCSORG
 10
0.0
 20
0.0
 30
0.0
  9
$PUCSXDIR
 10
1.0
 20
0.0
 30
0.0
  9
$PUCSYDIR
 10
0.0
 20
1.0
 30
0.0
  9
$USERI1
 70
     0
  9
$USERI2
 70
     0
  9
$USERI3
 70
     0
  9
$USERI4
 70
     0
  9
$USERI5
 70
     0
  9
$USERR1
 40
0.0
  9
$USERR2
 40
0.0
  9
$USERR3
 40
0.0
  9
$USERR4
 40
0.0
  9
$USERR5
 40
0.0
  9
$WORLDVIEW
 70
     0
  9
$SHADEDGE
 70
     3
  9
$SHADEDIF
 70
    70
  9
$TILEMODE
 70
     1
  9
$MAXACTVP
 70
    16
  9
$PLIMCHECK
 70
     0
  9
$PEXTMIN
 10
1.0000000000000000E+020
 20
1.0000000000000000E+020
 30
1.0000000000000000E+020
  9
$PEXTMAX
 10
-1.0000000000000000E+020
 20
-1.0000000000000000E+020
 30
-1.0000000000000000E+020
  9
$PLIMMIN
 10
0.0
 20
0.0
  9
$PLIMMAX
 10
12.0
 20
9.0
  9
$UNITMODE
 70
     0
  9
$VISRETAIN
 70
     0
  9
$PLINEGEN
 70
     0
  9
$PSLTSCALE
 70
     0
  0
ENDSEC
  0
SECTION
  2
TABLES
  0
TABLE
  2
VPORT
 70
     1
  0
VPORT
  2
*ACTIVE
 70
     0
 10
0.0
 20
0.0
 11
1.0
 21
1.0
 12
5535.1259950157137
 22
2350.195535884493
 13
0.0
 23
0.0
 14
50.0
 24
50.0
 15
100.0
 25
100.0
 16
0.0
 26
0.0
 36
1.0
 17
0.0
 27
0.0
 37
0.0
 40
4737.539560781388
 41
1.5308953341740219
 42
50.0
 43
0.0
 44
0.0
 50
0.0
 51
0.0
 71
     0
 72
   100
 73
     1
 74
     0
 75
     0
 76
     0
 77
     0
 78
     1
  0
ENDTAB
  0
TABLE
  2
LTYPE
 70
    16
  0
LTYPE
  2
CONTINUOUS
 70
     0
  3
Solid line
 72
    65
 73
     0
 40
0.0
  0
LTYPE
  2
HIDDEN
 70
     0
  3
_ _ _ _ _ _ _ _ _ _ _ _ _ _ _ _ _ _ _ _ _ _ _
 72
    65
 73
     2
 40
0.375
 49
0.25
 49
-0.125
  0
LTYPE
  2
PHANTOM2
 70
     0
  3
Phantom (.5x) ___ _ _ ___ _ _ ___ _ _ ___ _ _
 72
    65
 73
     6
 40
1.25
 49
0.625
 49
-0.125
 49
0.125
 49
-0.125
 49
0.125
 49
-0.125
  0
LTYPE
  2
CENTER
 70
     0
  3
Center ____ _ ____ _ ____ _ ____ _ ____ _ ____
 72
    65
 73
     4
 40
2.0
 49
1.25
 49
-0.25
 49
0.25
 49
-0.25
  0
LTYPE
  2
AM_ISO02W050
 70
     0
  3
__ __ __ __ __ __ __ __ __ __ __ __ __ __ __
 72
    65
 73
     2
 40
7.5
 49
6.0
 49
-1.5
  0
LTYPE
  2
AM_ISO08W050
 70
     0
  3
____ . ____ . ____ . ____ . ____ . ____ . ____
 72
    65
 73
     4
 40
18.0
 49
12.0
 49
-1.5
 49
3.0
 49
-1.5
  0
LTYPE
  2
AM_ISO09W050
 70
     0
  3
_____ . . _____ . . _____ . . ____ .. ____
 72
    65
 73
     6
 40
22.5
 49
12.0
 49
-1.5
 49
3.0
 49
-1.5
 49
3.0
 49
-1.5
  0
LTYPE
  2
AMCONSTR
 70
     0
  3
_______________________
 72
    65
 73
     2
 40
9999.0
 49
9999.0
 49
0.0
  0
LTYPE
  2
AM_ISO08W050X2
 70
     0
  3
__ . __ . __ . __ . __ . __
 72
    65
 73
     4
 40
9.0
 49
6.0
 49
-0.75
 49
1.5
 49
-0.75
  0
LTYPE
  2
AM_ISO02W050X2
 70
     0
  3
 _ _ _ _ _ _ _ _ _ _ _ _
 72
    65
 73
     2
 40
3.75
 49
3.0
 49
-0.75
  0
LTYPE
  2
AMZIGZAG
 70
     0
  3
/\/-/\/-/\/-/\/-/\/-/\/
 72
    65
 73
     2
 40
11.0001
 49
0.0001
 49
-11.0
  0
LTYPE
  2
CENTER2
 70
     0
  3
Center (.5x) ___ _ ___ _ ___ _ ___ _ ___ _ ___
 72
    65
 73
     4
 40
1.125
 49
0.75
 49
-0.125
 49
0.125
 49
-0.125
  0
LTYPE
  2
HIDDEN2
 70
     0
  3
Hidden (.5x) _ _ _ _ _ _ _ _ _ _ _ _ _ _ _ _ _
 72
    65
 73
     2
 40
0.1875
 49
0.125
 49
-0.0625
  0
LTYPE
  2
AMZIGZAG2
 70
     0
  3
/\/-/\/-/\/-/\/-/\/-/\/
 72
    65
 73
     2
 40
0.4401
 49
0.0001
 49
-0.4400000000000001
  0
LTYPE
  2
ACANSTGB
 70
     0
  3
__ . . __ . .
 72
    65
 73
     6
 40
0.35433070866
 49
0.15748031496
 49
-0.03937007874
 49
0.03937007874
 49
-0.03937007874
 49
0.03937007874
 49
-0.03937007874
  0
LTYPE
  2
ACANSTGL
 70
     0
  3
_ _ _ _ _
 72
    65
 73
     2
 40
0.11811023622
 49
0.07874015748
 49
-0.03937007874
  0
ENDTAB
  0
TABLE
  2
LAYER
 70
     6
  0
LAYER
  2
0
 70
     0
 62
     7
  6
CONTINUOUS
  0
LAYER
  2
DIM
 70
     0
 62
     7
  6
CONTINUOUS
  0
LAYER
  2
CLEAR
 70
     0
 62
     1
  6
PHANTOM2
  0
LAYER
  2
TEXT
 70
     0
 62
   100
  6
CONTINUOUS
  0
LAYER
  2
OUTLINE
 70
     0
 62
     7
  6
CONTINUOUS
  0
LAYER
  2
OVERLAY-A3
 70
     0
 62
     7
  6
CONTINUOUS
  0
ENDTAB
  0
TABLE
  2
STYLE
 70
     8
  0
STYLE
  2
STANDARD
 70
     0
 40
0.0
 41
1.0
 50
0.0
 71
     0
 42
0.2
  3
txt
  4

  0
STYLE
  2
ANNOTATIVE
 70
     0
 40
0.0
 41
1.0
 50
0.0
 71
     0
 42
0.2
  3
txt
  4

  0
STYLE
  2
TITLE3
 70
     0
 40
60.0
 41
1.0
 50
0.0
 71
     0
 42
60.0
  3
SIMPLEX
  4

  0
STYLE
  2
TITLE5
 70
     0
 40
100.0
 41
1.0
 50
0.0
 71
     0
 42
100.0
  3
SIMPLEX
  4

  0
STYLE
  2
SIMPLEX
 70
     0
 40
60.0
 41
1.0
 50
0.0
 71
     0
 42
60.0
  3
simplex
  4

  0
STYLE
  2

 70
     1
 40
0.0
 41
1.0
 50
0.0
 71
     0
 42
60.0
  3
genltshp.shx
  4

  0
STYLE
  2
ACANSTS
 70
     0
 40
1.0
 41
1.0
 50
0.0
 71
     0
 42
60.0
  3
romans.shx
  4

  0
STYLE
  2
ACANSGDT
 70
     0
 40
0.0
 41
1.0
 50
0.0
 71
     0
 42
60.0
  3
amgdt.shx
  4

  0
ENDTAB
  0
TABLE
  2
VIEW
 70
     0
  0
ENDTAB
  0
TABLE
  2
UCS
 70
     0
  0
ENDTAB
  0
TABLE
  2
APPID
 70
    10
  0
APPID
  2
ACAD
 70
     0
  0
APPID
  2
ACADANNOTATIVE
 70
     0
  0
APPID
  2
ACAD_MLEADERVER
 70
     0
  0
APPID
  2
MCAD_NO_VIS
 70
     0
  0
APPID
  2
ACAD_TEMP_GRAPHIC
 70
     0
  0
APPID
  2
AD_DRAW
 70
     0
  0
APPID
  2
ACATTRIBSERVICES
 70
     0
  0
APPID
  2
DESIGNERASSEMBLIES
 70
     0
  0
APPID
  2
ACADM_DIM_EDIT
 70
     0
  0
APPID
  2
AMDT_DM_ADJ
 70
     0
  0
ENDTAB
  0
TABLE
  2
DIMSTYLE
 70
     8
  0
DIMSTYLE
  2
STANDARD
 70
     0
  3

  4

  5

  6

  7

 40
1.0
 41
0.18
 42
0.0625
 43
0.38
 44
0.18
 45
0.0
 46
0.0
 47
0.0
 48
0.0
140
0.18
141
0.09
142
0.0
143
25.399999999999999
144
1.0
145
0.0
146
1.0
147
0.09
 71
     0
 72
     0
 73
     1
 74
     1
 75
     0
 76
     0
 77
     0
 78
     0
170
     0
171
     2
172
     0
173
     0
174
     0
175
     0
176
     0
177
     0
178
     0
  0
DIMSTYLE
  2
ANNOTATIVE
 70
     0
  3

  4

  5

  6

  7

 40
1.0
 41
0.18
 42
0.0625
 43
0.38
 44
0.18
 45
0.0
 46
0.0
 47
0.0
 48
0.0
140
0.18
141
0.09
142
0.0
143
25.399999999999999
144
1.0
145
0.0
146
1.0
147
0.09
 71
     0
 72
     0
 73
     1
 74
     1
 75
     0
 76
     0
 77
     0
 78
     0
170
     0
171
     2
172
     0
173
     0
174
     0
175
     0
176
     0
177
     0
178
     0
  0
DIMSTYLE
  2
AM_ANSI
 70
     0
  3

  4
mm
  5

  6

  7

 40
1.0
 41
0.12
 42
0.05
 43
0.5
 44
0.1
 45
0.0
 46
0.0
 47
0.1
 48
0.1
140
0.12
141
0.0
142
0.0
143
25.399999999999999
144
1.0
145
0.0
146
0.71
147
0.06
 71
     0
 72
     0
 73
     1
 74
     1
 75
     0
 76
     0
 77
     0
 78
     7
170
     0
171
     2
172
     0
173
     0
174
     0
175
     0
176
   256
177
   256
178
     2
  0
DIMSTYLE
  2
AM_ANSI$3
 70
     0
  3

  4
mm
  5

  6

  7

 40
1.0
 41
0.12
 42
0.05
 43
0.5
 44
0.1
 45
0.0
 46
0.0
 47
0.1
 48
0.1
140
0.12
141
0.0
142
0.0
143
25.399999999999999
144
1.0
145
0.0
146
0.71
147
0.06
 71
     0
 72
     0
 73
     1
 74
     1
 75
     0
 76
     0
 77
     0
 78
     7
170
     0
171
     2
172
     0
173
     0
174
     0
175
     0
176
   256
177
   256
178
     2
  0
DIMSTYLE
  2
AM_ANSI$4
 70
     0
  3

  4
mm
  5

  6

  7

 40
1.0
 41
0.12
 42
0.05
 43
0.5
 44
0.1
 45
0.0
 46
0.0
 47
0.1
 48
0.1
140
0.12
141
0.0
142
0.0
143
25.399999999999999
144
1.0
145
0.0
146
0.71
147
0.06
 71
     0
 72
     0
 73
     1
 74
     1
 75
     0
 76
     0
 77
     0
 78
     7
170
     0
171
     2
172
     0
173
     0
174
     0
175
     0
176
   256
177
   256
178
     2
  0
DIMSTYLE
  2
AM_ANSI$7
 70
     0
  3

  4
mm
  5

  6

  7

 40
1.0
 41
0.12
 42
0.05
 43
0.5
 44
0.1
 45
0.0
 46
0.0
 47
0.1
 48
0.1
140
0.12
141
0.0
142
0.0
143
25.399999999999999
144
1.0
145
0.0
146
0.71
147
0.06
 71
     0
 72
     0
 73
     1
 74
     1
 75
     0
 76
     0
 77
     0
 78
     7
170
     0
171
     2
172
     0
173
     0
174
     0
175
     0
176
   256
177
   256
178
     2
  0
DIMSTYLE
  2
AM_ANSI$SF
 70
     0
  3

  4
mm
  5

  6

  7

 40
1.0
 41
0.12
 42
0.05
 43
0.5
 44
0.1
 45
0.0
 46
0.0
 47
0.1
 48
0.1
140
0.12
141
0.0
142
0.0
143
25.399999999999999
144
1.0
145
0.0
146
0.71
147
0.06
 71
     0
 72
     0
 73
     1
 74
     1
 75
     1
 76
     1
 77
     0
 78
     7
170
     0
171
     2
172
     0
173
     0
174
     0
175
     0
176
   256
177
   256
178
     2
  0
DIMSTYLE
  2
AM_ANSI$SH
 70
     0
  3

  4
mm
  5

  6
GENAXEH
  7

 40
1.0
 41
0.12
 42
0.05
 43
0.5
 44
0.1
 45
0.0
 46
0.0
 47
0.1
 48
0.1
140
0.12
141
0.0
142
0.0
143
25.399999999999999
144
1.0
145
0.0
146
0.71
147
0.06
 71
     0
 72
     0
 73
     1
 74
     1
 75
     1
 76
     1
 77
     0
 78
     7
170
     0
171
     2
172
     0
173
     1
174
     0
175
     0
176
   256
177
   256
178
     2
  0
ENDTAB
  0
ENDSEC
  0
SECTION
  2
BLOCKS
  0
BLOCK
  8
0
  2
$MODEL_SPACE
 70
     0
 10
0.0
 20
0.0
 30
0.0
  3
$MODEL_SPACE
  1

  0
ENDBLK
  5
2DD0
  8
0
  0
BLOCK
 67
     1
  8
0
  2
$PAPER_SPACE
 70
     0
 10
0.0
 20
0.0
 30
0.0
  3
$PAPER_SPACE
  1

  0
ENDBLK
  5
2DCC
 67
     1
  8
0
  0
BLOCK
  8
0
  2
NEW_BLOCK
 70
     0
 10
0.0
 20
0.0
 30
0.0
  3
NEW_BLOCK
  1

  0
TEXT
  5
2B89
  8
TEXT
 10
27.285946821803002
 20
25.27142175952417
 30
0.0
 40
40.0
  1
available on request
  7
TITLE3
  0
TEXT
  5
2B8A
  8
TEXT
 10
27.285946821803002
 20
93.842850330952714
 30
0.0
 40
40.0
  1
Certified dimensions
  7
TITLE3
  0
TEXT
  5
2B8B
  8
TEXT
 10
27.285946821803002
 20
162.4142789023812
 30
0.0
 40
40.0
  1
without notice or obligation.
  7
TITLE3
  0
TEXT
  5
2B8C
  8
TEXT
 10
27.285946821803002
 20
230.9857074738097
 30
0.0
 40
40.0
  1
specifications at any time
  7
TITLE3
  0
TEXT
  5
2B8D
  8
TEXT
 10
27.285946821803002
 20
299.55713604523839
 30
0.0
 40
40.0
  1
the right to change 
  7
TITLE3
  0
TEXT
  5
2B8E
  8
TEXT
 10
27.285946821803002
 20
436.69999318809499
 30
0.0
 40
40.0
  1
NOTE
  7
TITLE3
  0
TEXT
  5
2B8F
  8
TEXT
 10
27.285946821803002
 20
368.12856461666672
 30
0.0
 40
40.0
  1
The manufacturer reserves
  7
TITLE3
  0
ENDBLK
  5
2B90
  8
0
  0
BLOCK
  8
0
  2
NEW_BLOCK0
 70
     0
 10
0.0
 20
0.0
 30
0.0
  3
NEW_BLOCK0
  1

  0
INSERT
  5
2B93
  8
DIM
  2
NEW_BLOCK
 10
13.048098169647799
 20
6.0725618626865971
 30
0.0
 41
0.7000000000000455
 42
0.6999999999999993
 43
0.7
  0
ENDBLK
  5
2B94
  8
0
  0
BLOCK
  8
0
  2
GENAXEH
 70
     0
 10
0.0
 20
0.0
 30
0.0
  3
GENAXEH
  1

  0
LINE
  5
2E71
  8
0
 10
-1.0
 20
0.0
 30
0.0
 11
1.0
 21
0.0
 31
0.0
  0
ENDBLK
  5
2E73
  8
0
  0
ENDSEC
  0
SECTION
  2
ENTITIES
  0
LINE
  5
2B95
  8
OUTLINE
 10
5033.6222067928702
 20
2077.009294740255
 30
0.0
 11
5033.6222067928711
 21
1349.2092947402559
 31
0.0
  0
LINE
  5
2B96
  8
OUTLINE
  6
CONTINUOUS
 10
5033.6222067928711
 20
1349.2092947402559
 30
0.0
 11
6553.622206792872
 21
1349.2092947402559
 31
0.0
  0
LINE
  5
2B97
  8
OUTLINE
 10
6553.6222067928702
 20
2077.009294740255
 30
0.0
 11
5033.6222067928702
 21
2077.009294740255
 31
0.0
  0
LINE
  5
2B98
  8
OUTLINE
 10
6553.622206792872
 20
1349.2092947402559
 30
0.0
 11
6553.6222067928702
 21
2077.009294740255
 31
0.0
  0
LINE
  5
2B99
  8
OUTLINE
 10
2980.0047730201441
 20
2077.0092947402559
 30
0.0
 11
3967.4047730201441
 21
2077.0092947402559
 31
0.0
  0
LINE
  5
2B9A
  8
OUTLINE
 10
2980.0047730201431
 20
1349.2092947402559
 30
0.0
 11
2980.0047730201441
 21
2077.0092947402559
 31
0.0
  0
LINE
  5
2B9B
  8
OUTLINE
 10
3967.4047730201401
 20
1349.2092947402559
 30
0.0
 11
3967.4047730201441
 21
2077.0092947402559
 31
0.0
  0
LINE
  5
2B9C
  8
OUTLINE
  6
BYBLOCK
 10
6553.6222067928702
 20
3959.8243066889659
 30
0.0
 11
6553.6222067928702
 21
2967.4243066889671
 31
0.0
  0
LINE
  5
2B9D
  8
OUTLINE
  6
BYBLOCK
 10
5033.6222067928711
 20
3959.8243066889659
 30
0.0
 11
6553.6222067928702
 21
3959.8243066889659
 31
0.0
  0
LINE
  5
2B9E
  8
OUTLINE
  6
BYBLOCK
 10
6553.6222067928702
 20
2967.4243066889671
 30
0.0
 11
5033.622206792872
 21
2967.4243066889671
 31
0.0
  0
LINE
  5
2B9F
  8
OUTLINE
  6
BYBLOCK
 10
5033.622206792872
 20
2967.4243066889671
 30
0.0
 11
5033.6222067928711
 21
3959.8243066889659
 31
0.0
  0
LINE
  5
2BA0
  8
OUTLINE
 10
3967.4047730201401
 20
1349.2092947402559
 30
0.0
 11
2980.0047730201431
 21
1349.2092947402559
 31
0.0
  0
CIRCLE
  5
2BA1
  8
OUTLINE
 10
3670.003937456584
 20
1389.0412716819851
 30
0.0
 40
17.0
  0
LINE
  5
2C51
  8
OUTLINE
  6
CONTINUOUS
 10
2920.208281934817
 20
2018.3092947402549
 30
0.0
 11
2920.208281934817
 21
1611.3092947402561
 31
0.0
  0
LINE
  5
2C52
  8
OUTLINE
  6
CONTINUOUS
 10
2980.2082819348161
 20
1610.7092947402559
 30
0.0
 11
2980.2082819348161
 21
1588.564294740255
 31
0.0
  0
LINE
  5
2C53
  8
OUTLINE
  6
CONTINUOUS
 10
5961.1196403033373
 20
4020.1182767759951
 30
0.0
 11
5626.1196403033364
 21
4020.1182767759951
 31
0.0
  0
LINE
  5
2C54
  8
OUTLINE
  6
CONTINUOUS
 10
5626.1196403033364
 20
3960.1182767759929
 30
0.0
 11
5626.1196403033364
 21
4020.1182767759951
 31
0.0
  0
LINE
  5
2C55
  8
OUTLINE
  6
CONTINUOUS
 10
5961.1196403033373
 20
3960.1182767759929
 30
0.0
 11
5961.1196403033373
 21
4020.1182767759951
 31
0.0
  0
LINE
  5
2C56
  8
OUTLINE
  6
CONTINUOUS
 10
5033.6222067928702
 20
1378.9105171864701
 30
0.0
 11
4965.5222067928671
 21
1378.9105171864701
 31
0.0
  0
LINE
  5
2C57
  8
OUTLINE
  6
CONTINUOUS
 10
4965.5222067928671
 20
1378.9105171864701
 30
0.0
 11
4965.5222067928671
 21
1406.9105171864701
 31
0.0
  0
LINE
  5
2C58
  8
OUTLINE
  6
CONTINUOUS
 10
4965.5222067928671
 20
1406.9105171864701
 30
0.0
 11
5033.6222067928702
 21
1406.9105171864701
 31
0.0
  0
LINE
  5
2C59
  8
OUTLINE
  6
CONTINUOUS
 10
5043.6222067928702
 20
2817.419787830705
 30
0.0
 11
6543.622206792872
 21
2817.419787830705
 31
0.0
  0
LINE
  5
2C5A
  8
OUTLINE
  6
CONTINUOUS
 10
5043.6222067928693
 20
2967.4243066889671
 30
0.0
 11
5043.6222067928702
 21
2817.419787830705
 31
0.0
  0
LINE
  5
2C5B
  8
OUTLINE
  6
CONTINUOUS
 10
4965.5222067928671
 20
3278.9243066889671
 30
0.0
 11
5033.622206792872
 21
3278.9243066889671
 31
0.0
  0
LINE
  5
2C5C
  8
OUTLINE
  6
CONTINUOUS
 10
5033.622206792872
 20
3250.9243066889671
 30
0.0
 11
4965.5222067928671
 21
3250.9243066889671
 31
0.0
  0
LINE
  5
2C5D
  8
OUTLINE
  6
CONTINUOUS
 10
4965.5222067928671
 20
3250.9243066889671
 30
0.0
 11
4965.5222067928671
 21
3278.9243066889671
 31
0.0
  0
LINE
  5
2C5E
  8
OUTLINE
  6
CONTINUOUS
 10
6543.6222067928684
 20
2967.4243066889671
 30
0.0
 11
6543.622206792872
 21
2817.419787830705
 31
0.0
  0
LINE
  5
2C5F
  8
OUTLINE
 10
4115.704773020143
 20
1416.6455646310351
 30
0.0
 11
4115.7047730201421
 21
2047.557401965161
 31
0.0
  0
LINE
  5
2C60
  8
OUTLINE
 10
4115.704773020143
 20
1416.6455646310351
 30
0.0
 11
3967.4047730201401
 21
1416.6455646310351
 31
0.0
  0
LINE
  5
2C61
  8
OUTLINE
 10
6298.1222067928711
 20
1299.209294740255
 30
0.0
 11
6194.1222067928702
 21
1299.209294740255
 31
0.0
  0
LINE
  5
2C62
  8
OUTLINE
 10
6298.1222067928711
 20
1349.2092947402559
 30
0.0
 11
6298.1222067928711
 21
1299.209294740255
 31
0.0
  0
LINE
  5
2C63
  8
OUTLINE
 10
6194.1222067928702
 20
1299.209294740255
 30
0.0
 11
6194.1222067928693
 21
1349.2092947402559
 31
0.0
  0
LINE
  5
2C64
  8
OUTLINE
 10
2964.2047730201439
 20
1299.209294740255
 30
0.0
 11
3983.2047730201439
 21
1299.209294740255
 31
0.0
  0
LINE
  5
2C65
  8
OUTLINE
  6
CONTINUOUS
 10
4115.7047730201411
 20
2047.557401965161
 30
0.0
 11
3967.4047730201441
 21
2047.557401965161
 31
0.0
  0
TEXT
  5
2C66
  8
TEXT
  6
CONTINUOUS
 10
5849.743130013705
 20
463.60048355040448
 30
0.0
 40
100.0
  1
IJD 620 (HORIZ.DISCH.)
  7
TITLE5
 72
     1
 11
6728.3145585851344
 21
463.60048355040448
 31
0.0
  0
TEXT
  5
2C67
  8
TEXT
  6
CONTINUOUS
 10
5899.2876043925653
 20
220.0
 30
0.0
 40
60.0
  1
14.10.03
 41
0.8888888888888894
  7
TITLE3
 72
     5
 11
6219.2876043925644
 21
220.0
 31
0.0
  0
TEXT
  5
2C68
  8
TEXT
  6
CONTINUOUS
 10
5940.0
 20
80.611361330295765
 30
0.0
 40
60.0
  1
1=20
  7
TITLE3
  0
ARC
  5
2C69
  8
OUTLINE
  6
HIDDEN
 10
3254.1316222079249
 20
1675.3683361487981
 30
0.0
 40
343.69999999999987
 50
42.391993739892321
 51
86.448683708667488
  0
ARC
  5
2C6A
  8
OUTLINE
  6
HIDDEN
 10
3296.7316222079271
 20
1693.928336148796
 30
0.0
 40
291.69999999999982
 50
265.81101456591512
 51
309.35093597239961
  0
LINE
  5
2C6B
  8
OUTLINE
  6
HIDDEN
 10
3232.8419909288391
 20
2018.4083361487981
 30
0.0
 11
3275.4212534870148
 21
2018.4083361487981
 31
0.0
  0
CIRCLE
  5
2C6C
  8
OUTLINE
  6
HIDDEN
 10
3275.511622207925
 20
1673.908336148796
 30
0.0
 40
162.5
  0
LINE
  5
2C6D
  8
OUTLINE
  6
HIDDEN
 10
3015.311622207927
 20
1615.708336148798
 30
0.0
 11
3015.311622207927
 21
2017.208336148796
 31
0.0
  0
ARC
  5
2C6E
  8
OUTLINE
  6
HIDDEN
 10
3301.2416222079269
 20
1673.478336148798
 30
0.0
 40
271.69999999999999
 50
220.9587062676998
 51
264.54176490587002
  0
ARC
  5
2C6F
  8
OUTLINE
  6
HIDDEN
 10
3301.2116222079262
 20
1644.6183361487981
 30
0.0
 40
253.6999999999999
 50
186.54326755184911
 51
216.01153635827569
  0
LINE
  5
2C70
  8
OUTLINE
  6
HIDDEN
 10
3048.016104343802
 20
1615.708336148798
 30
0.0
 11
3015.311622207927
 21
1615.708336148798
 31
0.0
  0
LINE
  5
2C71
  8
OUTLINE
  6
HIDDEN
 10
3049.1642022647729
 20
1615.708336148798
 30
0.0
 11
3015.311622207927
 21
1615.708336148798
 31
0.0
  0
LINE
  5
2C72
  8
OUTLINE
  6
HIDDEN
 10
3015.311622207927
 20
1615.708336148798
 30
0.0
 11
3015.311622207927
 21
1616.908336148796
 31
0.0
  0
LINE
  5
2C73
  8
OUTLINE
  6
HIDDEN
 10
3275.5116222079291
 20
2018.4083361487981
 30
0.0
 11
3015.311622207927
 21
2018.4083361487981
 31
0.0
  0
LINE
  5
2C74
  8
OUTLINE
  6
HIDDEN
 10
3041.5116222079282
 20
2018.4083361487981
 30
0.0
 11
3015.311622207927
 21
2018.4083361487981
 31
0.0
  0
LINE
  5
2C75
  8
OUTLINE
  6
HIDDEN
 10
3015.311622207927
 20
2007.208336148798
 30
0.0
 11
3015.311622207927
 21
2018.4083361487981
 31
0.0
  0
ARC
  5
2C76
  8
OUTLINE
  6
HIDDEN
 10
3258.991622207926
 20
1692.4883361487971
 30
0.0
 40
328.69999999999987
 50
356.88787769324477
 51
40.752941617474242
  0
ARC
  5
2C77
  8
OUTLINE
  6
HIDDEN
 10
3276.831622207927
 20
1703.288336148798
 30
0.0
 40
311.69999999999982
 50
311.09560821251881
 51
354.71872950388882
  0
LINE
  5
2C78
  8
DIM
  6
CONTINUOUS
 10
6246.1222067928702
 20
1260.009294740255
 30
0.0
 11
6246.1222067928702
 21
1110.5519314998371
 31
0.0
  0
LINE
  5
2C79
  8
DIM
  6
CONTINUOUS
 10
5341.1222067928711
 20
1260.009294740255
 30
0.0
 11
5341.1222067928711
 21
1110.5519314998371
 31
0.0
  0
LINE
  5
2C7A
  8
DIM
  6
CONTINUOUS
 10
6186.1222067928702
 20
1150.551931499838
 30
0.0
 11
6026.4793496500133
 21
1150.551931499838
 31
0.0
  0
LINE
  5
2C7B
  8
DIM
  6
CONTINUOUS
 10
5401.1222067928702
 20
1150.551931499838
 30
0.0
 11
5560.7650639357271
 21
1150.551931499838
 31
0.0
  0
SOLID
  5
2C7C
  8
DIM
  6
CONTINUOUS
 10
6186.1222067928702
 20
1160.551931499838
 30
0.0
 11
6186.1222067928702
 21
1140.551931499838
 31
0.0
 12
6246.1222067928702
 22
1150.551931499838
 32
0.0
 13
6246.1222067928702
 23
1150.551931499838
 33
0.0
  0
SOLID
  5
2C7D
  8
DIM
  6
CONTINUOUS
 10
5401.1222067928702
 20
1160.551931499838
 30
0.0
 11
5401.1222067928702
 21
1140.551931499838
 31
0.0
 12
5341.1222067928711
 22
1150.551931499838
 32
0.0
 13
5341.1222067928711
 23
1150.551931499838
 33
0.0
  0
TEXT
  5
2C7E
  8
DIM
  6
CONTINUOUS
 10
5575.0507782214418
 20
1120.551931499838
 30
0.0
 40
60.0
  1
904 CTRS
  7
TITLE3
 72
     4
 11
5793.6222067928702
 21
1150.551931499838
 31
0.0
  0
LINE
  5
2C7F
  8
DIM
  6
CONTINUOUS
 10
6246.1222067928702
 20
1260.009294740255
 30
0.0
 11
6246.1222067928702
 21
1110.5519314998371
 31
0.0
  0
LINE
  5
2C80
  8
DIM
  6
CONTINUOUS
 10
6551.9258799263607
 20
1310.8092947402561
 30
0.0
 11
6551.9258799263607
 21
1110.5519314998371
 31
0.0
  0
LINE
  5
2C81
  8
DIM
  6
CONTINUOUS
 10
6186.1222067928702
 20
1150.551931499838
 30
0.0
 11
6126.1222067928711
 21
1150.551931499838
 31
0.0
  0
LINE
  5
2C82
  8
DIM
  6
CONTINUOUS
 10
6611.9258799263644
 20
1150.551931499838
 30
0.0
 11
6671.9258799263607
 21
1150.551931499838
 31
0.0
  0
SOLID
  5
2C83
  8
DIM
  6
CONTINUOUS
 10
6186.1222067928702
 20
1160.551931499838
 30
0.0
 11
6186.1222067928702
 21
1140.551931499838
 31
0.0
 12
6246.1222067928702
 22
1150.551931499838
 32
0.0
 13
6246.1222067928702
 23
1150.551931499838
 33
0.0
  0
SOLID
  5
2C84
  8
DIM
  6
CONTINUOUS
 10
6611.9258799263644
 20
1160.551931499838
 30
0.0
 11
6611.9258799263644
 21
1140.551931499838
 31
0.0
 12
6551.9258799263607
 22
1150.551931499838
 32
0.0
 13
6551.9258799263607
 23
1150.551931499838
 33
0.0
  0
TEXT
  5
2C85
  8
DIM
  6
CONTINUOUS
 10
6325.6989839200687
 20
1120.551931499838
 30
0.0
 40
60.0
  1
308
  7
TITLE3
 72
     4
 11
6402.8418410629256
 21
1150.551931499838
 31
0.0
  0
LINE
  5
2C86
  8
DIM
  6
CONTINUOUS
 10
5341.1222067928711
 20
1260.009294740255
 30
0.0
 11
5341.1222067928711
 21
1110.5519314998371
 31
0.0
  0
LINE
  5
2C87
  8
DIM
  6
CONTINUOUS
 10
5035.3222067928709
 20
1310.8092947402561
 30
0.0
 11
5035.3222067928709
 21
1110.5519314998371
 31
0.0
  0
LINE
  5
2C88
  8
DIM
  6
CONTINUOUS
 10
5401.1222067928702
 20
1150.551931499838
 30
0.0
 11
5461.1222067928702
 21
1150.551931499838
 31
0.0
  0
LINE
  5
2C89
  8
DIM
  6
CONTINUOUS
 10
4975.3222067928709
 20
1150.551931499838
 30
0.0
 11
4915.3222067928709
 21
1150.551931499838
 31
0.0
  0
SOLID
  5
2C8A
  8
DIM
  6
CONTINUOUS
 10
5401.1222067928702
 20
1160.551931499838
 30
0.0
 11
5401.1222067928702
 21
1140.551931499838
 31
0.0
 12
5341.1222067928711
 22
1150.551931499838
 32
0.0
 13
5341.1222067928711
 23
1150.551931499838
 33
0.0
  0
SOLID
  5
2C8B
  8
DIM
  6
CONTINUOUS
 10
4975.3222067928709
 20
1160.551931499838
 30
0.0
 11
4975.3222067928709
 21
1140.551931499838
 31
0.0
 12
5035.3222067928709
 22
1150.551931499838
 32
0.0
 13
5035.3222067928709
 23
1150.551931499838
 33
0.0
  0
TEXT
  5
2C8C
  8
DIM
  6
CONTINUOUS
 10
5118.3045923268573
 20
1120.551931499838
 30
0.0
 40
60.0
  1
308
  7
TITLE3
 72
     4
 11
5195.4474494697142
 21
1150.551931499838
 31
0.0
  0
LINE
  5
2C8D
  8
DIM
  6
CONTINUOUS
 10
5034.82220679287
 20
2115.8092947402552
 30
0.0
 11
5034.82220679287
 21
2333.759578249907
 31
0.0
  0
LINE
  5
2C8E
  8
DIM
  6
CONTINUOUS
 10
6552.4222067928722
 20
2115.8092947402552
 30
0.0
 11
6552.4222067928722
 21
2333.759578249907
 31
0.0
  0
LINE
  5
2C8F
  8
DIM
  6
CONTINUOUS
 10
5094.8222067928709
 20
2293.759578249907
 30
0.0
 11
5653.6222067928711
 21
2293.759578249907
 31
0.0
  0
LINE
  5
2C90
  8
DIM
  6
CONTINUOUS
 10
6492.4222067928713
 20
2293.759578249907
 30
0.0
 11
5933.6222067928702
 21
2293.759578249907
 31
0.0
  0
SOLID
  5
2C91
  8
DIM
  6
CONTINUOUS
 10
5094.8222067928709
 20
2303.759578249907
 30
0.0
 11
5094.8222067928709
 21
2283.759578249907
 31
0.0
 12
5034.82220679287
 22
2293.759578249907
 32
0.0
 13
5034.82220679287
 23
2293.759578249907
 33
0.0
  0
SOLID
  5
2C92
  8
DIM
  6
CONTINUOUS
 10
6492.4222067928713
 20
2303.759578249907
 30
0.0
 11
6492.4222067928713
 21
2283.759578249907
 31
0.0
 12
6552.4222067928722
 22
2293.759578249907
 32
0.0
 13
6552.4222067928722
 23
2293.759578249907
 33
0.0
  0
TEXT
  5
2C93
  8
DIM
  6
CONTINUOUS
 10
5693.6222067928702
 20
2263.759578249907
 30
0.0
 40
60.0
  1
1520
  7
TITLE3
 72
     1
 11
5793.6222067928702
 21
2293.759578249907
 31
0.0
 73
     2
  0
LINE
  5
2C94
  8
OUTLINE
  6
CONTINUOUS
 10
2980.2082819348161
 20
1611.3092947402561
 30
0.0
 11
2920.208281934817
 21
1611.3092947402561
 31
0.0
  0
LINE
  5
2C95
  8
OUTLINE
  6
CONTINUOUS
 10
2980.2082819348161
 20
2018.3092947402561
 30
0.0
 11
2920.208281934817
 21
2018.3092947402549
 31
0.0
  0
ARC
  5
2C96
  8
OUTLINE
  6
CONTINUOUS
 10
5033.6222067928711
 20
3261.624306688966
 30
0.0
 40
671.99999999999966
 50
90.0
 51
105.03106127349569
  0
LINE
  5
2C97
  8
OUTLINE
  6
CONTINUOUS
 10
5033.6222067928711
 20
3296.624306688966
 30
0.0
 11
4859.3439418302132
 21
3910.6320773370571
 31
0.0
  0
LINE
  5
2C98
  8
OUTLINE
  6
CONTINUOUS
 10
2964.2047730201439
 20
1299.209294740255
 30
0.0
 11
2964.2047730201439
 21
1327.2092947402559
 31
0.0
  0
LINE
  5
2C99
  8
OUTLINE
  6
CONTINUOUS
 10
3983.2047730201439
 20
1299.209294740255
 30
0.0
 11
3983.2047730201439
 21
1327.2092947402571
 31
0.0
  0
LINE
  5
2C9A
  8
OUTLINE
 10
5393.1222067928702
 20
1299.209294740255
 30
0.0
 11
5289.1222067928702
 21
1299.209294740255
 31
0.0
  0
LINE
  5
2C9B
  8
OUTLINE
 10
5289.1222067928702
 20
1299.209294740255
 30
0.0
 11
5289.1222067928693
 21
1349.2092947402559
 31
0.0
  0
LINE
  5
2C9C
  8
OUTLINE
 10
5393.1222067928702
 20
1349.2092947402559
 30
0.0
 11
5393.1222067928702
 21
1299.209294740255
 31
0.0
  0
LINE
  5
2C9D
  8
OUTLINE
  6
CONTINUOUS
 10
2986.2047730201439
 20
1349.2092947402559
 30
0.0
 11
2964.2047730201439
 21
1327.2092947402559
 31
0.0
  0
LINE
  5
2C9E
  8
OUTLINE
  6
CONTINUOUS
 10
3961.204773020143
 20
1349.2092947402559
 30
0.0
 11
3983.2047730201439
 21
1327.2092947402571
 31
0.0
  0
LINE
  5
2C9F
  8
DIM
  6
CONTINUOUS
 10
3000.204773020143
 20
1259.2092947402559
 30
0.0
 11
3000.204773020143
 21
1134.736774837753
 31
0.0
  0
LINE
  5
2CA0
  8
DIM
  6
CONTINUOUS
 10
3947.2047730201439
 20
1259.2092947402559
 30
0.0
 11
3947.2047730201439
 21
1134.736774837753
 31
0.0
  0
LINE
  5
2CA1
  8
DIM
  6
CONTINUOUS
 10
3060.2047730201439
 20
1174.7367748377519
 30
0.0
 11
3224.6333444487159
 21
1174.7367748377519
 31
0.0
  0
LINE
  5
2CA2
  8
DIM
  6
CONTINUOUS
 10
3887.2047730201439
 20
1174.7367748377519
 30
0.0
 11
3757.7762015915719
 21
1174.7367748377519
 31
0.0
  0
SOLID
  5
2CA3
  8
DIM
  6
CONTINUOUS
 10
3887.2047730201439
 20
1184.7367748377519
 30
0.0
 11
3887.2047730201439
 21
1164.7367748377519
 31
0.0
 12
3947.2047730201439
 22
1174.7367748377519
 32
0.0
 13
3947.2047730201439
 23
1174.7367748377519
 33
0.0
  0
TEXT
  5
2CA4
  8
DIM
 10
3272.6333444487159
 20
1144.7367748377519
 30
0.0
 40
60.0
  1
947 CTRS
  7
TITLE3
  0
LINE
  5
2CA5
  8
DIM
  6
CONTINUOUS
 10
3947.2047730201439
 20
1259.2092947402559
 30
0.0
 11
3947.2047730201439
 21
1134.736774837753
 31
0.0
  0
LINE
  5
2CA6
  8
DIM
  6
CONTINUOUS
 10
3983.2047730201439
 20
1261.209294740255
 30
0.0
 11
3983.2047730201439
 21
1134.736774837753
 31
0.0
  0
LINE
  5
2CA7
  8
DIM
  6
CONTINUOUS
 10
3887.2047730201439
 20
1174.7367748377519
 30
0.0
 11
3827.2047730201439
 21
1174.7367748377519
 31
0.0
  0
LINE
  5
2CA8
  8
DIM
  6
CONTINUOUS
 10
4043.2047730201439
 20
1174.7367748377519
 30
0.0
 11
4103.2047730201439
 21
1174.7367748377519
 31
0.0
  0
TEXT
  5
2CA9
  8
DIM
 10
4076.9335982280618
 20
1194.120871522081
 30
0.0
 40
60.0
  1
36
  7
TITLE3
  0
SOLID
  5
2CAA
  8
DIM
  6
CONTINUOUS
 10
3887.2047730201439
 20
1184.7367748377519
 30
0.0
 11
3887.2047730201439
 21
1164.7367748377519
 31
0.0
 12
3947.2047730201439
 22
1174.7367748377519
 32
0.0
 13
3947.2047730201439
 23
1174.7367748377519
 33
0.0
  0
SOLID
  5
2CAB
  8
DIM
  6
CONTINUOUS
 10
4043.2047730201439
 20
1184.7367748377519
 30
0.0
 11
4043.2047730201439
 21
1164.7367748377519
 31
0.0
 12
3983.2047730201439
 22
1174.7367748377519
 32
0.0
 13
3983.2047730201439
 23
1174.7367748377519
 33
0.0
  0
LINE
  5
2CAC
  8
DIM
  6
CONTINUOUS
 10
2964.2047730201439
 20
1259.209294740255
 30
0.0
 11
2964.2047730201439
 21
1134.736774837753
 31
0.0
  0
LINE
  5
2CAD
  8
DIM
  6
CONTINUOUS
 10
3060.2047730201439
 20
1174.7367748377519
 30
0.0
 11
3120.2047730201439
 21
1174.7367748377519
 31
0.0
  0
LINE
  5
2CAE
  8
DIM
  6
CONTINUOUS
 10
2904.204773020143
 20
1174.7367748377519
 30
0.0
 11
2844.204773020143
 21
1174.7367748377519
 31
0.0
  0
TEXT
  5
2CAF
  8
DIM
 10
2773.7870380777649
 20
1194.1208589456121
 30
0.0
 40
60.0
  1
36
  7
TITLE3
  0
SOLID
  5
2CB0
  8
DIM
  6
CONTINUOUS
 10
3060.2047730201439
 20
1184.7367748377519
 30
0.0
 11
3060.2047730201439
 21
1164.7367748377519
 31
0.0
 12
3000.204773020143
 22
1174.7367748377519
 32
0.0
 13
3000.204773020143
 23
1174.7367748377519
 33
0.0
  0
SOLID
  5
2CB1
  8
DIM
  6
CONTINUOUS
 10
2904.204773020143
 20
1184.7367748377519
 30
0.0
 11
2904.204773020143
 21
1164.7367748377519
 31
0.0
 12
2964.2047730201439
 22
1174.7367748377519
 32
0.0
 13
2964.2047730201439
 23
1174.7367748377519
 33
0.0
  0
LINE
  5
2CB2
  8
DIM
  6
CONTINUOUS
 10
5209.1222067928702
 20
1299.209294740255
 30
0.0
 11
4718.619911663136
 21
1299.209294740255
 31
0.0
  0
LINE
  5
2CB3
  8
DIM
  6
CONTINUOUS
 10
4953.6222067928711
 20
2077.009294740255
 30
0.0
 11
4718.619911663136
 21
2077.009294740255
 31
0.0
  0
LINE
  5
2CB4
  8
DIM
  6
CONTINUOUS
 10
4758.619911663136
 20
1359.209294740255
 30
0.0
 11
4758.619911663136
 21
1570.966437597398
 31
0.0
  0
LINE
  5
2CB5
  8
DIM
  6
CONTINUOUS
 10
4758.619911663136
 20
2017.009294740255
 30
0.0
 11
4758.619911663136
 21
1805.2521518831111
 31
0.0
  0
SOLID
  5
2CB6
  8
DIM
  6
CONTINUOUS
 10
4748.619911663136
 20
1359.209294740255
 30
0.0
 11
4768.619911663136
 21
1359.209294740255
 31
0.0
 12
4758.619911663136
 22
1299.209294740255
 32
0.0
 13
4758.619911663136
 23
1299.209294740255
 33
0.0
  0
SOLID
  5
2CB7
  8
DIM
  6
CONTINUOUS
 10
4748.619911663136
 20
2017.009294740255
 30
0.0
 11
4768.619911663136
 21
2017.009294740255
 31
0.0
 12
4758.619911663136
 22
2077.009294740255
 32
0.0
 13
4758.619911663136
 23
2077.009294740255
 33
0.0
  0
TEXT
  5
2CB8
  8
DIM
 10
4788.6199116631351
 20
1610.966437597398
 30
0.0
 40
60.0
  1
775
 50
90.0
  7
TITLE3
  0
LINE
  5
2CB9
  8
DIM
  6
CONTINUOUS
 10
2975.2047730201448
 20
1259.2092947402559
 30
0.0
 11
2975.2047730201448
 21
1022.76900054828
 31
0.0
  0
LINE
  5
2CBA
  8
DIM
  6
CONTINUOUS
 10
3972.204773020143
 20
1259.2092947402559
 30
0.0
 11
3972.204773020143
 21
1022.76900054828
 31
0.0
  0
LINE
  5
2CBB
  8
DIM
  6
CONTINUOUS
 10
3035.2047730201448
 20
1062.76900054828
 30
0.0
 11
3207.4904873058572
 21
1062.76900054828
 31
0.0
  0
LINE
  5
2CBC
  8
DIM
  6
CONTINUOUS
 10
3912.204773020143
 20
1062.76900054828
 30
0.0
 11
3739.919058734431
 21
1062.76900054828
 31
0.0
  0
SOLID
  5
2CBD
  8
DIM
  6
CONTINUOUS
 10
3043.2047730201448
 20
1072.76900054828
 30
0.0
 11
3043.2047730201448
 21
1052.7690005482791
 31
0.0
 12
2983.2047730201439
 22
1062.76900054828
 32
0.0
 13
2983.2047730201439
 23
1062.76900054828
 33
0.0
  0
SOLID
  5
2CBE
  8
DIM
  6
CONTINUOUS
 10
3912.204773020143
 20
1072.76900054828
 30
0.0
 11
3912.204773020143
 21
1052.7690005482791
 31
0.0
 12
3972.204773020143
 22
1062.76900054828
 32
0.0
 13
3972.204773020143
 23
1062.76900054828
 33
0.0
  0
TEXT
  5
2CBF
  8
DIM
 10
3272.6333444487159
 20
1032.76900054828
 30
0.0
 40
60.0
  1
997 CTRS
  7
TITLE3
  0
LINE
  5
2CC0
  8
DIM
  6
CONTINUOUS
 10
3972.204773020143
 20
1219.2092947402559
 30
0.0
 11
3972.204773020143
 21
1022.76900054828
 31
0.0
  0
LINE
  5
2CC1
  8
DIM
  6
CONTINUOUS
 10
3983.2047730201439
 20
1221.209294740255
 30
0.0
 11
3983.2047730201439
 21
1022.76900054828
 31
0.0
  0
LINE
  5
2CC2
  8
DIM
  6
CONTINUOUS
 10
3912.204773020143
 20
1062.76900054828
 30
0.0
 11
3852.2047730201439
 21
1062.76900054828
 31
0.0
  0
LINE
  5
2CC3
  8
DIM
  6
CONTINUOUS
 10
4043.2047730201439
 20
1062.76900054828
 30
0.0
 11
4103.2047730201439
 21
1062.76900054828
 31
0.0
  0
TEXT
  5
2CC4
  8
DIM
 10
4090.293917854814
 20
1079.5926922364899
 30
0.0
 40
60.0
  1
11
  7
TITLE3
  0
SOLID
  5
2CC5
  8
DIM
  6
CONTINUOUS
 10
3912.204773020143
 20
1072.76900054828
 30
0.0
 11
3912.204773020143
 21
1052.7690005482791
 31
0.0
 12
3972.204773020143
 22
1062.76900054828
 32
0.0
 13
3972.204773020143
 23
1062.76900054828
 33
0.0
  0
SOLID
  5
2CC6
  8
DIM
  6
CONTINUOUS
 10
4043.2047730201439
 20
1072.76900054828
 30
0.0
 11
4043.2047730201439
 21
1052.7690005482791
 31
0.0
 12
3983.2047730201439
 22
1062.76900054828
 32
0.0
 13
3983.2047730201439
 23
1062.76900054828
 33
0.0
  0
LINE
  5
2CC7
  8
DIM
  6
CONTINUOUS
 10
2975.2047730201448
 20
1219.2092947402559
 30
0.0
 11
2975.2047730201448
 21
1022.76900054828
 31
0.0
  0
LINE
  5
2CC8
  8
DIM
  6
CONTINUOUS
 10
2964.2047730201439
 20
1219.209294740255
 30
0.0
 11
2964.2047730201439
 21
1022.76900054828
 31
0.0
  0
LINE
  5
2CC9
  8
DIM
  6
CONTINUOUS
 10
3043.2047730201448
 20
1062.76900054828
 30
0.0
 11
3103.2047730201448
 21
1062.76900054828
 31
0.0
  0
LINE
  5
2CCA
  8
DIM
  6
CONTINUOUS
 10
2904.204773020143
 20
1062.76900054828
 30
0.0
 11
2844.204773020143
 21
1062.76900054828
 31
0.0
  0
TEXT
  5
2CCB
  8
DIM
 10
2789.6583678785901
 20
1077.809072666674
 30
0.0
 40
60.0
  1
11
  7
TITLE3
  0
SOLID
  5
2CCC
  8
DIM
  6
CONTINUOUS
 10
3035.2047730201448
 20
1072.76900054828
 30
0.0
 11
3035.2047730201448
 21
1052.7690005482791
 31
0.0
 12
2975.2047730201448
 22
1062.76900054828
 32
0.0
 13
2975.2047730201448
 23
1062.76900054828
 33
0.0
  0
SOLID
  5
2CCD
  8
DIM
  6
CONTINUOUS
 10
2904.204773020143
 20
1072.76900054828
 30
0.0
 11
2904.204773020143
 21
1052.7690005482791
 31
0.0
 12
2964.2047730201439
 22
1062.76900054828
 32
0.0
 13
2964.2047730201439
 23
1062.76900054828
 33
0.0
  0
LINE
  5
2CCE
  8
DIM
  6
CONTINUOUS
 10
5209.1222067928702
 20
1299.209294740255
 30
0.0
 11
4787.1458763460141
 21
1299.209294740255
 31
0.0
  0
LINE
  5
2CCF
  8
DIM
  6
CONTINUOUS
 10
5169.1222067928702
 20
1299.209294740255
 30
0.0
 11
4796.1990602178703
 21
1299.209294740255
 31
0.0
  0
LINE
  5
2CD0
  8
OUTLINE
  6
CONTINUOUS
 10
5392.2222067928724
 20
3975.6243066889651
 30
0.0
 11
5289.0222067928707
 21
3975.6243066889651
 31
0.0
  0
ARC
  5
2CD1
  8
OUTLINE
  6
CONTINUOUS
 10
5340.6222067928711
 20
3964.624306688966
 30
0.0
 40
6.5800000000000001
 50
313.15690670537072
 51
226.843093294629
  0
LINE
  5
2CD2
  8
OUTLINE
  6
CONTINUOUS
 10
5289.0222067928707
 20
3959.8243066889659
 30
0.0
 11
5289.0222067928707
 21
3975.6243066889651
 31
0.0
  0
LINE
  5
2CD3
  8
OUTLINE
  6
CONTINUOUS
 10
5392.2222067928724
 20
3959.8243066889659
 30
0.0
 11
5392.2222067928724
 21
3975.6243066889651
 31
0.0
  0
LINE
  5
2CD4
  8
OUTLINE
  6
CONTINUOUS
 10
6195.0222067928744
 20
3975.6243066889651
 30
0.0
 11
6298.2222067928724
 21
3975.6243066889651
 31
0.0
  0
LINE
  5
2CD5
  8
OUTLINE
  6
CONTINUOUS
 10
6195.0222067928744
 20
3959.8243066889659
 30
0.0
 11
6195.0222067928744
 21
3975.6243066889651
 31
0.0
  0
ARC
  5
2CD6
  8
OUTLINE
  6
CONTINUOUS
 10
6246.622206792872
 20
3964.624306688966
 30
0.0
 40
6.5800000000000001
 50
313.15690670537072
 51
226.843093294629
  0
LINE
  5
2CD7
  8
OUTLINE
  6
CONTINUOUS
 10
6298.2222067928724
 20
3959.8243066889659
 30
0.0
 11
6298.2222067928724
 21
3975.6243066889651
 31
0.0
  0
LINE
  5
2CD8
  8
OUTLINE
  6
HIDDEN
 10
5392.2222067928724
 20
2951.624306688966
 30
0.0
 11
5289.0222067928707
 21
2951.624306688966
 31
0.0
  0
ARC
  5
2CD9
  8
OUTLINE
  6
CONTINUOUS
 10
5340.6222067928711
 20
2962.624306688966
 30
0.0
 40
6.5800000000000001
 50
133.1569067053708
 51
46.84309329462922
  0
LINE
  5
2CDA
  8
OUTLINE
  6
HIDDEN
 10
5289.0222067928707
 20
2951.624306688966
 30
0.0
 11
5289.0222067928707
 21
2967.4243066889671
 31
0.0
  0
LINE
  5
2CDB
  8
OUTLINE
  6
HIDDEN
 10
5392.2222067928724
 20
2951.624306688966
 30
0.0
 11
5392.2222067928724
 21
2967.4243066889671
 31
0.0
  0
LINE
  5
2CDC
  8
OUTLINE
  6
HIDDEN
 10
6195.0222067928744
 20
2951.6243066889651
 30
0.0
 11
6298.2222067928724
 21
2951.624306688966
 31
0.0
  0
LINE
  5
2CDD
  8
OUTLINE
  6
HIDDEN
 10
6195.0222067928744
 20
2951.624306688966
 30
0.0
 11
6195.0222067928744
 21
2967.4243066889671
 31
0.0
  0
LINE
  5
2CDE
  8
OUTLINE
  6
HIDDEN
 10
6298.2222067928724
 20
2951.624306688966
 30
0.0
 11
6298.2222067928724
 21
2967.4243066889671
 31
0.0
  0
ARC
  5
2CDF
  8
OUTLINE
  6
CONTINUOUS
 10
6246.622206792872
 20
2962.6243066889642
 30
0.0
 40
6.5800000000000001
 50
133.1569067053708
 51
46.84309329462922
  0
CIRCLE
  5
2CE0
  8
OUTLINE
 10
3837.6517254101132
 20
1452.872401965159
 30
0.0
 40
22.25000000000022
  0
CIRCLE
  5
2CE1
  8
OUTLINE
 10
3920.1517254101132
 20
1967.2424019651569
 30
0.0
 40
22.25000000000022
  0
LINE
  5
2CE2
  8
OUTLINE
 10
4996.1222067928693
 20
1989.742401965161
 30
0.0
 11
5019.1222067928693
 21
1989.742401965161
 31
0.0
  0
LINE
  5
2CE3
  8
OUTLINE
 10
4996.1222067928693
 20
1944.742401965161
 30
0.0
 11
5019.1222067928693
 21
1944.742401965161
 31
0.0
  0
LINE
  5
2CE4
  8
OUTLINE
 10
5019.1222067928693
 20
1989.742401965161
 30
0.0
 11
5019.1222067928693
 21
1944.742401965161
 31
0.0
  0
LINE
  5
2CE5
  8
OUTLINE
 10
4969.1222067928693
 20
1985.742401965161
 30
0.0
 11
4969.1222067928693
 21
1948.742401965161
 31
0.0
  0
LINE
  5
2CE6
  8
OUTLINE
 10
4996.1222067928693
 20
1989.742401965161
 30
0.0
 11
4996.1222067928693
 21
1944.742401965161
 31
0.0
  0
LINE
  5
2CE7
  8
OUTLINE
  6
HIDDEN
 10
5019.1222067928693
 20
1951.242401965161
 30
0.0
 11
5033.6222067928702
 21
1951.242401965161
 31
0.0
  0
LINE
  5
2CE8
  8
OUTLINE
 10
4970.6222067928693
 20
1947.242401965161
 30
0.0
 11
4996.1222067928693
 21
1947.242401965161
 31
0.0
  0
LINE
  5
2CE9
  8
OUTLINE
 10
4969.1222067928693
 20
1948.742401965161
 30
0.0
 11
4970.6222067928693
 21
1947.242401965161
 31
0.0
  0
LINE
  5
2CEA
  8
OUTLINE
  6
HIDDEN
 10
5019.1222067928693
 20
1983.242401965161
 30
0.0
 11
5033.6222067928702
 21
1983.242401965161
 31
0.0
  0
LINE
  5
2CEB
  8
OUTLINE
 10
4970.6222067928693
 20
1987.242401965161
 30
0.0
 11
4996.1222067928693
 21
1987.242401965161
 31
0.0
  0
LINE
  5
2CEC
  8
OUTLINE
 10
4969.1222067928693
 20
1985.742401965161
 30
0.0
 11
4970.6222067928693
 21
1987.242401965161
 31
0.0
  0
LINE
  5
2CED
  8
OUTLINE
 10
4996.1222067928693
 20
1475.3724019651611
 30
0.0
 11
5019.1222067928693
 21
1475.3724019651611
 31
0.0
  0
LINE
  5
2CEE
  8
OUTLINE
 10
4996.1222067928693
 20
1430.3724019651611
 30
0.0
 11
5019.1222067928693
 21
1430.3724019651611
 31
0.0
  0
LINE
  5
2CEF
  8
OUTLINE
 10
5019.1222067928693
 20
1475.3724019651611
 30
0.0
 11
5019.1222067928693
 21
1430.3724019651611
 31
0.0
  0
LINE
  5
2CF0
  8
OUTLINE
 10
4969.1222067928693
 20
1471.3724019651611
 30
0.0
 11
4969.1222067928693
 21
1434.3724019651611
 31
0.0
  0
LINE
  5
2CF1
  8
OUTLINE
 10
4996.1222067928693
 20
1475.3724019651611
 30
0.0
 11
4996.1222067928693
 21
1430.3724019651611
 31
0.0
  0
LINE
  5
2CF2
  8
OUTLINE
 10
4970.6222067928693
 20
1432.872401965162
 30
0.0
 11
4996.1222067928693
 21
1432.872401965162
 31
0.0
  0
LINE
  5
2CF3
  8
OUTLINE
  6
HIDDEN
 10
5019.1222067928693
 20
1436.8724019651611
 30
0.0
 11
5033.6222067928702
 21
1436.8724019651611
 31
0.0
  0
LINE
  5
2CF4
  8
OUTLINE
 10
4969.1222067928693
 20
1434.3724019651611
 30
0.0
 11
4970.6222067928693
 21
1432.872401965162
 31
0.0
  0
LINE
  5
2CF5
  8
OUTLINE
 10
4970.6222067928693
 20
1472.872401965162
 30
0.0
 11
4996.1222067928693
 21
1472.872401965162
 31
0.0
  0
LINE
  5
2CF6
  8
OUTLINE
  6
HIDDEN
 10
5019.1222067928693
 20
1468.8724019651611
 30
0.0
 11
5033.6222067928702
 21
1468.8724019651611
 31
0.0
  0
LINE
  5
2CF7
  8
OUTLINE
 10
4969.1222067928693
 20
1471.3724019651611
 30
0.0
 11
4970.6222067928693
 21
1472.872401965162
 31
0.0
  0
LINE
  5
2CF8
  8
OUTLINE
 10
4996.1222067928693
 20
2992.1743066889671
 30
0.0
 11
5019.1222067928693
 21
2992.1743066889671
 31
0.0
  0
LINE
  5
2CF9
  8
OUTLINE
 10
4996.1222067928693
 20
3037.1743066889671
 30
0.0
 11
5019.1222067928693
 21
3037.1743066889671
 31
0.0
  0
LINE
  5
2CFA
  8
OUTLINE
 10
5019.1222067928693
 20
2992.1743066889671
 30
0.0
 11
5019.1222067928693
 21
3037.1743066889671
 31
0.0
  0
LINE
  5
2CFB
  8
OUTLINE
 10
4969.1222067928693
 20
3033.1743066889671
 30
0.0
 11
4970.6222067928693
 21
3034.6743066889671
 31
0.0
  0
LINE
  5
2CFC
  8
OUTLINE
 10
4996.1222067928693
 20
2992.1743066889671
 30
0.0
 11
4996.1222067928693
 21
3037.1743066889671
 31
0.0
  0
LINE
  5
2CFD
  8
OUTLINE
 10
4969.1222067928693
 20
2996.1743066889649
 30
0.0
 11
4970.6222067928693
 21
2994.6743066889649
 31
0.0
  0
LINE
  5
2CFE
  8
OUTLINE
 10
4970.6222067928693
 20
2994.6743066889649
 30
0.0
 11
4996.1222067928693
 21
2994.6743066889649
 31
0.0
  0
LINE
  5
2CFF
  8
OUTLINE
 10
4969.1222067928693
 20
2996.1743066889649
 30
0.0
 11
4969.1222067928693
 21
3033.1743066889671
 31
0.0
  0
LINE
  5
2D00
  8
OUTLINE
  6
HIDDEN
 10
5019.1222067928693
 20
2998.6743066889671
 30
0.0
 11
5033.622206792872
 21
2998.6743066889671
 31
0.0
  0
LINE
  5
2D01
  8
OUTLINE
  6
HIDDEN
 10
5019.1222067928693
 20
3030.6743066889671
 30
0.0
 11
5033.622206792872
 21
3030.6743066889671
 31
0.0
  0
LINE
  5
2D02
  8
OUTLINE
 10
4970.6222067928693
 20
3034.6743066889671
 30
0.0
 11
4996.1222067928693
 21
3034.6743066889671
 31
0.0
  0
LINE
  5
2D03
  8
OUTLINE
  6
HIDDEN
 10
5019.1222067928693
 20
3113.1743066889671
 30
0.0
 11
5033.622206792872
 21
3113.1743066889671
 31
0.0
  0
LINE
  5
2D04
  8
OUTLINE
 10
4970.6222067928693
 20
3117.1743066889671
 30
0.0
 11
4996.1222067928693
 21
3117.1743066889671
 31
0.0
  0
LINE
  5
2D05
  8
OUTLINE
  6
HIDDEN
 10
5019.1222067928693
 20
3081.1743066889649
 30
0.0
 11
5033.622206792872
 21
3081.1743066889671
 31
0.0
  0
LINE
  5
2D06
  8
OUTLINE
 10
4970.6222067928693
 20
3077.1743066889671
 30
0.0
 11
4996.1222067928693
 21
3077.1743066889671
 31
0.0
  0
LINE
  5
2D07
  8
OUTLINE
 10
4969.1222067928693
 20
3078.6743066889671
 30
0.0
 11
4969.1222067928693
 21
3115.6743066889671
 31
0.0
  0
LINE
  5
2D08
  8
OUTLINE
 10
4969.1222067928693
 20
3078.6743066889671
 30
0.0
 11
4970.6222067928693
 21
3077.1743066889671
 31
0.0
  0
LINE
  5
2D09
  8
OUTLINE
 10
4969.1222067928693
 20
3115.6743066889671
 30
0.0
 11
4970.6222067928693
 21
3117.1743066889671
 31
0.0
  0
LINE
  5
2D0A
  8
OUTLINE
 10
5019.1222067928693
 20
3074.6743066889649
 30
0.0
 11
5019.1222067928693
 21
3119.6743066889671
 31
0.0
  0
LINE
  5
2D0B
  8
OUTLINE
 10
4996.1222067928693
 20
3074.6743066889649
 30
0.0
 11
4996.1222067928693
 21
3119.6743066889671
 31
0.0
  0
LINE
  5
2D0C
  8
OUTLINE
 10
4996.1222067928693
 20
3074.6743066889649
 30
0.0
 11
5019.1222067928693
 21
3074.6743066889649
 31
0.0
  0
LINE
  5
2D0D
  8
OUTLINE
 10
4996.1222067928693
 20
3119.6743066889671
 30
0.0
 11
5019.1222067928693
 21
3119.6743066889671
 31
0.0
  0
TEXT
  5
2D0E
  8
OVERLAY-A3
 10
5692.4576913569772
 20
221.6624277202018
 30
0.0
 40
48.0
  1
Date
  7
SIMPLEX
  0
TEXT
  5
2D0F
  8
OVERLAY-A3
 10
7492.2223847472042
 20
259.00660404682242
 30
0.0
 40
48.0
  1
Revision
 41
0.7812095035934773
  7
SIMPLEX
 72
     5
 11
7702.9257480021297
 21
259.00660404682242
 31
0.0
  0
LINE
  5
2D10
  8
OVERLAY-A3
 10
7468.9826999803199
 20
41.684985696634271
 30
0.0
 11
7468.982699980319
 21
336.53731141709312
 31
0.0
  0
LINE
  5
2D11
  8
OVERLAY-A3
 10
5638.7030589142951
 20
650.42893966234385
 30
0.0
 11
5638.7030589142951
 21
41.684985696634271
 31
0.0
  0
LINE
  5
2D12
  8
OVERLAY-A3
 10
6833.8273560261878
 20
41.684985696634271
 30
0.0
 11
6833.8273560261878
 21
336.53731141709312
 31
0.0
  0
LINE
  5
2D13
  8
OVERLAY-A3
 10
6833.8273560261869
 20
186.62519853892741
 30
0.0
 11
5638.7030589142951
 21
186.62519853892741
 31
0.0
  0
LINE
  5
2D14
  8
OVERLAY-A3
 10
7723.1509304756837
 20
336.53731141709312
 30
0.0
 11
5638.7030589142951
 21
336.53731141709312
 31
0.0
  0
LINE
  5
2D15
  8
OVERLAY-A3
 10
5638.7030589142951
 20
41.684985696634271
 30
0.0
 11
7722.5559161189822
 21
41.684985696634271
 31
0.0
  0
LINE
  5
2D16
  8
OVERLAY-A3
 10
7722.5559161189822
 20
41.684985696634271
 30
0.0
 11
7722.5559161189822
 21
650.42893966234385
 31
0.0
  0
LINE
  5
2D17
  8
OVERLAY-A3
 10
7722.5559161189822
 20
650.42893966234385
 30
0.0
 11
5638.7030589142951
 21
650.42893966234385
 31
0.0
  0
TEXT
  5
2D18
  8
OVERLAY-A3
 10
5688.9664382062192
 20
95.844976130715395
 30
0.0
 40
40.0
  1
Scale
 41
1.3701747965659721
  7
SIMPLEX
 72
     5
 11
5889.9254083692276
 21
95.844976130715395
 31
0.0
  0
TEXT
  5
2D19
  8
OVERLAY-A3
 10
6949.7182472015938
 20
257.78686301341941
 30
0.0
 40
40.0
  1
Drawing No.
  7
SIMPLEX
 72
     2
 11
7298.2896757730232
 21
257.78686301341941
 31
0.0
  0
LINE
  5
2D1A
  8
OVERLAY-A3
 10
2519.572367563937
 20
0.0
 30
0.0
 11
7780.000000000312
 21
0.0
 31
0.0
  0
LINE
  5
2D1B
  8
OVERLAY-A3
 10
7780.000000000312
 20
0.0
 30
0.0
 11
7780.000000000312
 21
4418.6623601792389
 31
0.0
  0
LINE
  5
2D1C
  8
OVERLAY-A3
 10
7780.000000000312
 20
4418.6623601792389
 30
0.0
 11
2519.572367563937
 21
4418.6623601792389
 31
0.0
  0
LINE
  5
2D1D
  8
OVERLAY-A3
 10
2519.572367563937
 20
4418.6623601792389
 30
0.0
 11
2519.572367563937
 21
0.0
 31
0.0
  0
TEXT
  5
2D1E
  8
TEXT
  6
CONTINUOUS
 10
6975.5778386632519
 20
107.8471538600423
 30
0.0
 40
60.0
  1
IJD620
  7
TITLE3
  0
LINE
  5
2D1F
  8
DIM
  6
CONTINUOUS
 10
2920.208281934817
 20
2058.3092947402552
 30
0.0
 11
2920.208281934817
 21
2328.8521031346681
 31
0.0
  0
LINE
  5
2D20
  8
DIM
  6
CONTINUOUS
 10
4115.7047730201411
 20
2087.5574019651608
 30
0.0
 11
4115.7047730201411
 21
2328.8521031346681
 31
0.0
  0
LINE
  5
2D21
  8
DIM
  6
CONTINUOUS
 10
2980.2082819348161
 20
2288.8521031346681
 30
0.0
 11
3383.670813191764
 21
2288.8521031346681
 31
0.0
  0
LINE
  5
2D22
  8
DIM
  6
CONTINUOUS
 10
4055.7047730201411
 20
2288.8521031346681
 30
0.0
 11
3652.2422417631929
 21
2288.8521031346681
 31
0.0
  0
SOLID
  5
2D23
  8
DIM
  6
CONTINUOUS
 10
2980.2082819348161
 20
2298.8521031346681
 30
0.0
 11
2980.2082819348161
 21
2278.8521031346681
 31
0.0
 12
2920.208281934817
 22
2288.8521031346681
 32
0.0
 13
2920.208281934817
 23
2288.8521031346681
 33
0.0
  0
SOLID
  5
2D24
  8
DIM
  6
CONTINUOUS
 10
4055.7047730201411
 20
2298.8521031346681
 30
0.0
 11
4055.7047730201411
 21
2278.8521031346681
 31
0.0
 12
4115.7047730201411
 22
2288.8521031346681
 32
0.0
 13
4115.7047730201411
 23
2288.8521031346681
 33
0.0
  0
TEXT
  5
2D25
  8
DIM
 10
3423.670813191764
 20
2258.8521031346681
 30
0.0
 40
60.0
  1
1195
  7
TITLE3
  0
LINE
  5
2D26
  8
CLEAR
 10
5033.6222067928711
 20
3959.8243066889659
 30
0.0
 11
4033.6222067928711
 21
3959.8243066889659
 31
0.0
  0
LINE
  5
2D27
  8
CLEAR
 10
5043.6222067928693
 20
2967.4243066889671
 30
0.0
 11
4033.6222067928711
 21
2967.4243066889671
 31
0.0
  0
LINE
  5
2D28
  8
CLEAR
 10
6553.6222067928702
 20
2967.4243066889671
 30
0.0
 11
7553.6222067928702
 21
2967.4243066889671
 31
0.0
  0
LINE
  5
2D29
  8
CLEAR
 10
6553.6222067928702
 20
3959.8243066889659
 30
0.0
 11
7553.6222067928702
 21
3959.824306688965
 31
0.0
  0
LINE
  5
2D2A
  8
CLEAR
 10
4033.6222067928711
 20
2967.4243066889671
 30
0.0
 11
4033.6222067928711
 21
3959.8243066889659
 31
0.0
  0
LINE
  5
2D2B
  8
CLEAR
 10
7553.6222067928702
 20
2967.4243066889671
 30
0.0
 11
7553.6222067928702
 21
3959.824306688965
 31
0.0
  0
INSERT
  5
2D2C
  8
CLEAR
  2
NEW_BLOCK0
 10
2572.737093874382
 20
44.774680967014312
 30
0.0
 41
1.5
 42
1.5
 43
1.5
  0
LINE
  5
2D2D
  8
DIM
 10
5782.9219471354063
 20
2936.5833820920188
 30
0.0
 11
5754.3459507837433
 21
2889.5793005997011
 31
0.0
  0
LINE
  5
2D2E
  8
DIM
 10
5782.9219471354063
 20
2936.5833820920188
 30
0.0
 11
5811.4979434870711
 21
2889.5793005997011
 31
0.0
  0
LINE
  5
2D2F
  8
DIM
 10
5754.3459507837433
 20
2889.5793005997011
 30
0.0
 11
5772.0949333373737
 21
2889.5793005997011
 31
0.0
  0
LINE
  5
2D30
  8
DIM
 10
5772.0949333373737
 20
2889.5793005997011
 30
0.0
 11
5772.0949333373737
 21
2834.5933978921562
 31
0.0
  0
LINE
  5
2D31
  8
DIM
 10
5793.7489609334416
 20
2889.5793005997011
 30
0.0
 11
5793.7489609334416
 21
2834.5933978921562
 31
0.0
  0
LINE
  5
2D32
  8
DIM
 10
5772.0949333373737
 20
2834.5933978921562
 30
0.0
 11
5793.7489609334416
 21
2834.5933978921562
 31
0.0
  0
LINE
  5
2D33
  8
DIM
 10
5811.4979434870711
 20
2889.5793005997011
 30
0.0
 11
5793.7489609334416
 21
2889.5793005997011
 31
0.0
  0
LINE
  5
2D34
  8
DIM
 10
5772.0949333373737
 20
3946.9380986193842
 30
0.0
 11
5772.0949333373737
 21
3891.9521959118392
 31
0.0
  0
LINE
  5
2D35
  8
DIM
 10
5793.7489609334416
 20
3946.9380986193842
 30
0.0
 11
5793.7489609334416
 21
3891.9521959118392
 31
0.0
  0
LINE
  5
2D36
  8
DIM
 10
5772.0949333373737
 20
3891.9521959118392
 30
0.0
 11
5793.7489609334416
 21
3891.9521959118392
 31
0.0
  0
LINE
  5
2D37
  8
DIM
 10
5782.9219471354063
 20
3993.9421801117019
 30
0.0
 11
5754.3459507837433
 21
3946.9380986193842
 31
0.0
  0
LINE
  5
2D38
  8
DIM
 10
5754.3459507837433
 20
3946.9380986193842
 30
0.0
 11
5772.0949333373737
 21
3946.9380986193842
 31
0.0
  0
LINE
  5
2D39
  8
DIM
 10
5811.4979434870711
 20
3946.9380986193842
 30
0.0
 11
5793.7489609334416
 21
3946.9380986193842
 31
0.0
  0
LINE
  5
2D3A
  8
DIM
 10
5782.9219471354063
 20
3993.9421801117019
 30
0.0
 11
5811.4979434870711
 21
3946.9380986193842
 31
0.0
  0
TEXT
  5
2D3B
  8
TEXT
  6
PHANTOM2
 10
7373.369878464011
 20
3318.533744651374
 30
0.0
 40
60.0
  1
1000 min 
 50
90.0
  7
TITLE3
  0
TEXT
  5
2D3C
  8
TEXT
  6
PHANTOM2
 10
7476.2270213211541
 20
3275.5506803276799
 30
0.0
 40
60.0
  1
CLEARANCE
 50
90.0
  7
TITLE3
  0
TEXT
  5
2D3D
  8
TEXT
  6
PHANTOM2
 10
4132.5971816125048
 20
3318.533744651374
 30
0.0
 40
60.0
  1
1000 min 
 50
90.0
  7
TITLE3
  0
TEXT
  5
2D3E
  8
TEXT
  6
PHANTOM2
 10
4235.4543244696488
 20
3275.5506803276799
 30
0.0
 40
60.0
  1
CLEARANCE
 50
90.0
  7
TITLE3
  0
TEXT
  5
2D3F
  8
TEXT
  6
CONTINUOUS
 10
5535.3859369410238
 20
3425.5173027306491
 30
0.0
 40
100.0
  1
IJD 620
  7
TITLE5
 72
     1
 11
5816.3383178934037
 21
3425.5173027306491
 31
0.0
  0
TEXT
  5
2D40
  8
TEXT
  6
CONTINUOUS
 10
5535.3859369410238
 20
1692.3077365604629
 30
0.0
 40
100.0
  1
IJD 620
  7
TITLE5
 72
     1
 11
5816.3383178934037
 21
1692.3077365604629
 31
0.0
  0
TEXT
  5
2D41
  8
TEXT
  6
CONTINUOUS
 10
3182.1615337030721
 20
1692.3077365604629
 30
0.0
 40
100.0
  1
IJD 620
  7
TITLE5
 72
     1
 11
3463.1139146554528
 21
1692.3077365604629
 31
0.0
  0
LINE
  5
2D42
  8
OUTLINE
 10
5043.6222067928702
 20
2047.557401965161
 30
0.0
 11
5043.6222067928702
 21
1416.6455646310351
 31
0.0
  0
LINE
  5
2D43
  8
OUTLINE
 10
6543.622206792872
 20
2047.557401965161
 30
0.0
 11
6543.622206792872
 21
1416.6455646310351
 31
0.0
  0
LINE
  5
2D44
  8
OUTLINE
 10
5043.6222067928702
 20
2047.557401965161
 30
0.0
 11
6543.622206792872
 21
2047.557401965161
 31
0.0
  0
LINE
  5
2D45
  8
OUTLINE
 10
5043.6222067928702
 20
1416.6455646310351
 30
0.0
 11
6543.622206792872
 21
1416.6455646310351
 31
0.0
  0
ENDSEC
  0
EOF
