  0
SECTION
  2
HEADER
  9
$ACADVER
  1
AC1009
  9
$INSBASE
 10
0.0
 20
0.0
 30
0.0
  9
$EXTMIN
 10
1404.906730739787
 20
0.0
 30
0.0
  9
$EXTMAX
 10
4862.5
 20
2908.638814366057
 30
0.0
  9
$LIMMIN
 10
0.0
 20
0.0
  9
$LIMMAX
 10
3890.0
 20
2660.0
  9
$ORTHOMODE
 70
     1
  9
$REGENMODE
 70
     1
  9
$FILLMODE
 70
     1
  9
$QTEXTMODE
 70
     0
  9
$MIRRTEXT
 70
     0
  9
$DRAGMODE
 70
     2
  9
$LTSCALE
 40
100.0
  9
$OSMODE
 70
     0
  9
$ATTMODE
 70
     1
  9
$TEXTSIZE
 40
30.0
  9
$TRACEWID
 40
0.05
  9
$TEXTSTYLE
  7
TITLE3
  9
$CLAYER
  8
OUTLINE
  9
$CELTYPE
  6
BYLAYER
  9
$CECOLOR
 62
   256
  9
$DIMSCALE
 40
1.0
  9
$DIMASZ
 40
0.12
  9
$DIMEXO
 40
0.05
  9
$DIMDLI
 40
0.5
  9
$DIMRND
 40
0.0
  9
$DIMDLE
 40
0.0
  9
$DIMEXE
 40
0.1
  9
$DIMTP
 40
0.1
  9
$DIMTM
 40
0.1
  9
$DIMTXT
 40
0.12
  9
$DIMCEN
 40
0.0
  9
$DIMTSZ
 40
0.0
  9
$DIMTOL
 70
     0
  9
$DIMLIM
 70
     0
  9
$DIMTIH
 70
     1
  9
$DIMTOH
 70
     1
  9
$DIMSE1
 70
     0
  9
$DIMSE2
 70
     0
  9
$DIMTAD
 70
     0
  9
$DIMZIN
 70
     7
  9
$DIMBLK
  1

  9
$DIMASO
 70
     0
  9
$DIMSHO
 70
     0
  9
$DIMPOST
  1

  9
$DIMAPOST
  1
mm
  9
$DIMALT
 70
     0
  9
$DIMALTD
 70
     2
  9
$DIMALTF
 40
25.399999999999999
  9
$DIMLFAC
 40
1.0
  9
$DIMTOFL
 70
     0
  9
$DIMTVP
 40
0.0
  9
$DIMTIX
 70
     0
  9
$DIMSOXD
 70
     0
  9
$DIMSAH
 70
     0
  9
$DIMBLK1
  1

  9
$DIMBLK2
  1

  9
$DIMSTYLE
  2
AM_ANSI
  9
$DIMCLRD
 70
   256
  9
$DIMCLRE
 70
   256
  9
$DIMCLRT
 70
     2
  9
$DIMTFAC
 40
0.71
  9
$DIMGAP
 40
0.06
  9
$LUNITS
 70
     2
  9
$LUPREC
 70
     2
  9
$SKETCHINC
 40
0.1
  9
$FILLETRAD
 40
0.0
  9
$AUNITS
 70
     0
  9
$AUPREC
 70
     2
  9
$MENU
  1
\acad12\support\cnc
  9
$ELEVATION
 40
0.0
  9
$PELEVATION
 40
0.0
  9
$THICKNESS
 40
0.0
  9
$LIMCHECK
 70
     0
  9
$BLIPMODE
 70
     0
  9
$CHAMFERA
 40
40.0
  9
$CHAMFERB
 40
40.0
  9
$SKPOLY
 70
     0
  9
$TDCREATE
 40
2451227.5696063661
  9
$TDUPDATE
 40
2454699.4963133801
  9
$TDINDWG
 40
0.6553818171
  9
$TDUSRTIMER
 40
0.655380544
  9
$USRTIMER
 70
     1
  9
$ANGBASE
 50
0.0
  9
$ANGDIR
 70
     0
  9
$PDMODE
 70
     2
  9
$PDSIZE
 40
10.0
  9
$PLINEWID
 40
0.0
  9
$COORDS
 70
     1
  9
$SPLFRAME
 70
     0
  9
$SPLINETYPE
 70
     6
  9
$SPLINESEGS
 70
     8
  9
$ATTDIA
 70
     1
  9
$ATTREQ
 70
     1
  9
$HANDLING
 70
     1
  9
$HANDSEED
  5
1A39
  9
$SURFTAB1
 70
     6
  9
$SURFTAB2
 70
     6
  9
$SURFTYPE
 70
     6
  9
$SURFU
 70
     6
  9
$SURFV
 70
     6
  9
$UCSNAME
  2

  9
$UCSORG
 10
0.0
 20
0.0
 30
0.0
  9
$UCSXDIR
 10
1.0
 20
0.0
 30
0.0
  9
$UCSYDIR
 10
0.0
 20
1.0
 30
0.0
  9
$PUCSNAME
  2

  9
$PUCSORG
 10
0.0
 20
0.0
 30
0.0
  9
$PUCSXDIR
 10
1.0
 20
0.0
 30
0.0
  9
$PUCSYDIR
 10
0.0
 20
1.0
 30
0.0
  9
$USERI1
 70
     0
  9
$USERI2
 70
     0
  9
$USERI3
 70
     0
  9
$USERI4
 70
     0
  9
$USERI5
 70
     0
  9
$USERR1
 40
0.0
  9
$USERR2
 40
0.0
  9
$USERR3
 40
0.0
  9
$USERR4
 40
0.0
  9
$USERR5
 40
0.0
  9
$WORLDVIEW
 70
     1
  9
$SHADEDGE
 70
     3
  9
$SHADEDIF
 70
    70
  9
$TILEMODE
 70
     1
  9
$MAXACTVP
 70
    16
  9
$PLIMCHECK
 70
     0
  9
$PEXTMIN
 10
1.0499999523162831
 20
0.7999999523162842
 30
0.0
  9
$PEXTMAX
 10
9.4499995708465594
 20
7.1999995708465532
 30
0.0
  9
$PLIMMIN
 10
-0.2500002402958907
 20
-0.2499999962453767
  9
$PLIMMAX
 10
10.74999951940822
 20
8.2499997634587334
  9
$UNITMODE
 70
     0
  9
$VISRETAIN
 70
     0
  9
$PLINEGEN
 70
     0
  9
$PSLTSCALE
 70
     0
  0
ENDSEC
  0
SECTION
  2
TABLES
  0
TABLE
  2
VPORT
 70
     1
  0
VPORT
  2
*ACTIVE
 70
     0
 10
0.0
 20
0.0
 11
1.0
 21
1.0
 12
3133.705116248851
 22
1797.497002344596
 13
0.0
 23
0.0
 14
25.0
 24
25.0
 15
100.0
 25
100.0
 16
0.0
 26
0.0
 36
1.0
 17
0.0
 27
0.0
 37
0.0
 40
3613.0193620234531
 41
1.5308953341740219
 42
50.0
 43
0.0
 44
0.0
 50
0.0
 51
0.0
 71
     0
 72
   100
 73
     1
 74
     0
 75
     0
 76
     0
 77
     0
 78
     2
  0
ENDTAB
  0
TABLE
  2
LTYPE
 70
    17
  0
LTYPE
  2
CONTINUOUS
 70
     0
  3
Solid line
 72
    65
 73
     0
 40
0.0
  0
LTYPE
  2
HIDDEN
 70
     0
  3
__ __ __ __ __ __ __ __ __ __ __ __ __ __ __ __
 72
    65
 73
     2
 40
0.375
 49
0.25
 49
-0.125
  0
LTYPE
  2
PHANTOM
 70
     0
  3
Phantom ______  __  __  ______  __  __  ______
 72
    65
 73
     6
 40
2.5
 49
1.25
 49
-0.25
 49
0.25
 49
-0.25
 49
0.25
 49
-0.25
  0
LTYPE
  2
PHANTOM2
 70
     0
  3
Phantom (.5x) ___ _ _ ___ _ _ ___ _ _ ___ _ _
 72
    65
 73
     6
 40
1.25
 49
0.625
 49
-0.125
 49
0.125
 49
-0.125
 49
0.125
 49
-0.125
  0
LTYPE
  2
CENTER
 70
     0
  3
Center ____ _ ____ _ ____ _ ____ _ ____ _ ____
 72
    65
 73
     4
 40
2.0
 49
1.25
 49
-0.25
 49
0.25
 49
-0.25
  0
LTYPE
  2
AM_ISO02W050
 70
     0
  3
__ __ __ __ __ __ __ __ __ __ __ __ __ __ __
 72
    65
 73
     2
 40
7.5
 49
6.0
 49
-1.5
  0
LTYPE
  2
AM_ISO08W050
 70
     0
  3
____ . ____ . ____ . ____ . ____ . ____ . ____
 72
    65
 73
     4
 40
18.0
 49
12.0
 49
-1.5
 49
3.0
 49
-1.5
  0
LTYPE
  2
AM_ISO09W050
 70
     0
  3
_____ . . _____ . . _____ . . ____ .. ____
 72
    65
 73
     6
 40
22.5
 49
12.0
 49
-1.5
 49
3.0
 49
-1.5
 49
3.0
 49
-1.5
  0
LTYPE
  2
AMCONSTR
 70
     0
  3
_______________________
 72
    65
 73
     2
 40
9999.0
 49
9999.0
 49
0.0
  0
LTYPE
  2
AM_ISO08W050X2
 70
     0
  3
__ . __ . __ . __ . __ . __
 72
    65
 73
     4
 40
9.0
 49
6.0
 49
-0.75
 49
1.5
 49
-0.75
  0
LTYPE
  2
AM_ISO02W050X2
 70
     0
  3
 _ _ _ _ _ _ _ _ _ _ _ _
 72
    65
 73
     2
 40
3.75
 49
3.0
 49
-0.75
  0
LTYPE
  2
AMZIGZAG
 70
     0
  3
/\/-/\/-/\/-/\/-/\/-/\/
 72
    65
 73
     2
 40
11.0001
 49
0.0001
 49
-11.0
  0
LTYPE
  2
CENTER2
 70
     0
  3
Center (.5x) ___ _ ___ _ ___ _ ___ _ ___ _ ___
 72
    65
 73
     4
 40
1.125
 49
0.75
 49
-0.125
 49
0.125
 49
-0.125
  0
LTYPE
  2
HIDDEN2
 70
     0
  3
Hidden (.5x) _ _ _ _ _ _ _ _ _ _ _ _ _ _ _ _ _
 72
    65
 73
     2
 40
0.1875
 49
0.125
 49
-0.0625
  0
LTYPE
  2
AMZIGZAG2
 70
     0
  3
/\/-/\/-/\/-/\/-/\/-/\/
 72
    65
 73
     2
 40
0.4401
 49
0.0001
 49
-0.4400000000000003
  0
LTYPE
  2
ACANSTGB
 70
     0
  3
__ . . __ . .
 72
    65
 73
     6
 40
0.35433070866
 49
0.15748031496
 49
-0.03937007874
 49
0.03937007874
 49
-0.03937007874
 49
0.03937007874
 49
-0.03937007874
  0
LTYPE
  2
ACANSTGL
 70
     0
  3
_ _ _ _ _
 72
    65
 73
     2
 40
0.11811023622
 49
0.07874015748
 49
-0.03937007874
  0
ENDTAB
  0
TABLE
  2
LAYER
 70
     6
  0
LAYER
  2
0
 70
     0
 62
     7
  6
CONTINUOUS
  0
LAYER
  2
OUTLINE
 70
     0
 62
     7
  6
CONTINUOUS
  0
LAYER
  2
TEXT
 70
     0
 62
   100
  6
CONTINUOUS
  0
LAYER
  2
DIM
 70
     0
 62
     7
  6
CONTINUOUS
  0
LAYER
  2
OVERLAY-A3
 70
     0
 62
     7
  6
CONTINUOUS
  0
LAYER
  2
CLEAR
 70
     0
 62
     1
  6
PHANTOM
  0
ENDTAB
  0
TABLE
  2
STYLE
 70
     8
  0
STYLE
  2
STANDARD
 70
     0
 40
0.0
 41
1.0
 50
0.0
 71
     0
 42
0.2
  3
txt
  4

  0
STYLE
  2
ANNOTATIVE
 70
     0
 40
0.0
 41
1.0
 50
0.0
 71
     0
 42
0.2
  3
txt
  4

  0
STYLE
  2
TITLE3
 70
     0
 40
30.0
 41
1.0
 50
0.0
 71
     0
 42
30.0
  3
SIMPLEX
  4

  0
STYLE
  2
SIMPLEX
 70
     0
 40
40.0
 41
1.0
 50
0.0
 71
     0
 42
25.0
  3
SIMPLEX
  4

  0
STYLE
  2
TITLE5
 70
     0
 40
5.0
 41
1.0
 50
0.0
 71
     0
 42
5.0
  3
SIMPLEX.shx
  4

  0
STYLE
  2

 70
     1
 40
0.0
 41
1.0
 50
0.0
 71
     0
 42
30.0
  3
genltshp.shx
  4

  0
STYLE
  2
ACANSTS
 70
     0
 40
1.0
 41
1.0
 50
0.0
 71
     0
 42
30.0
  3
romans.shx
  4

  0
STYLE
  2
ACANSGDT
 70
     0
 40
0.0
 41
1.0
 50
0.0
 71
     0
 42
30.0
  3
amgdt.shx
  4

  0
ENDTAB
  0
TABLE
  2
VIEW
 70
     0
  0
ENDTAB
  0
TABLE
  2
UCS
 70
     0
  0
ENDTAB
  0
TABLE
  2
APPID
 70
    15
  0
APPID
  2
ACAD
 70
     0
  0
APPID
  2
ACADANNOTATIVE
 70
     0
  0
APPID
  2
ACAD_MLEADERVER
 70
     0
  0
APPID
  2
ACAD_EXEMPT_FROM_CAD_STANDARDS
 70
     0
  0
APPID
  2
ACAD_PSEXT
 70
     0
  0
APPID
  2
MCAD_NO_VIS
 70
     0
  0
APPID
  2
ACAD_TEMP_GRAPHIC
 70
     0
  0
APPID
  2
AD_DRAW
 70
     0
  0
APPID
  2
ACATTRIBSERVICES
 70
     0
  0
APPID
  2
DESIGNERASSEMBLIES
 70
     0
  0
APPID
  2
ACADM_DIM_EDIT
 70
     0
  0
APPID
  2
AMDT_DM_ADJ
 70
     0
  0
APPID
  2
GENIUS_GENSCREG_15
 70
     0
  0
APPID
  2
GENIUS_GENODEF_13
 70
     0
  0
APPID
  2
GENIUS_GENOBJ-N-SDF_13
 70
     0
  0
ENDTAB
  0
TABLE
  2
DIMSTYLE
 70
     8
  0
DIMSTYLE
  2
STANDARD
 70
     0
  3

  4

  5

  6

  7

 40
1.0
 41
0.18
 42
0.0625
 43
0.38
 44
0.18
 45
0.0
 46
0.0
 47
0.0
 48
0.0
140
0.18
141
0.09
142
0.0
143
25.399999999999999
144
1.0
145
0.0
146
1.0
147
0.09
 71
     0
 72
     0
 73
     1
 74
     1
 75
     0
 76
     0
 77
     0
 78
     0
170
     0
171
     2
172
     0
173
     0
174
     0
175
     0
176
     0
177
     0
178
     0
  0
DIMSTYLE
  2
ANNOTATIVE
 70
     0
  3

  4

  5

  6

  7

 40
1.0
 41
0.18
 42
0.0625
 43
0.38
 44
0.18
 45
0.0
 46
0.0
 47
0.0
 48
0.0
140
0.18
141
0.09
142
0.0
143
25.399999999999999
144
1.0
145
0.0
146
1.0
147
0.09
 71
     0
 72
     0
 73
     1
 74
     1
 75
     0
 76
     0
 77
     0
 78
     0
170
     0
171
     2
172
     0
173
     0
174
     0
175
     0
176
     0
177
     0
178
     0
  0
DIMSTYLE
  2
AM_ANSI
 70
     0
  3

  4
mm
  5

  6

  7

 40
1.0
 41
0.12
 42
0.05
 43
0.5
 44
0.1
 45
0.0
 46
0.0
 47
0.1
 48
0.1
140
0.12
141
0.0
142
0.0
143
25.399999999999999
144
1.0
145
0.0
146
0.71
147
0.06
 71
     0
 72
     0
 73
     1
 74
     1
 75
     0
 76
     0
 77
     0
 78
     7
170
     0
171
     2
172
     0
173
     0
174
     0
175
     0
176
   256
177
   256
178
     2
  0
DIMSTYLE
  2
AM_ANSI$3
 70
     0
  3

  4
mm
  5

  6

  7

 40
1.0
 41
0.12
 42
0.05
 43
0.5
 44
0.1
 45
0.0
 46
0.0
 47
0.1
 48
0.1
140
0.12
141
0.0
142
0.0
143
25.399999999999999
144
1.0
145
0.0
146
0.71
147
0.06
 71
     0
 72
     0
 73
     1
 74
     1
 75
     0
 76
     0
 77
     0
 78
     7
170
     0
171
     2
172
     0
173
     0
174
     0
175
     0
176
   256
177
   256
178
     2
  0
DIMSTYLE
  2
AM_ANSI$4
 70
     0
  3

  4
mm
  5

  6

  7

 40
1.0
 41
0.12
 42
0.05
 43
0.5
 44
0.1
 45
0.0
 46
0.0
 47
0.1
 48
0.1
140
0.12
141
0.0
142
0.0
143
25.399999999999999
144
1.0
145
0.0
146
0.71
147
0.06
 71
     0
 72
     0
 73
     1
 74
     1
 75
     0
 76
     0
 77
     0
 78
     7
170
     0
171
     2
172
     0
173
     0
174
     0
175
     0
176
   256
177
   256
178
     2
  0
DIMSTYLE
  2
AM_ANSI$7
 70
     0
  3

  4
mm
  5

  6

  7

 40
1.0
 41
0.12
 42
0.05
 43
0.5
 44
0.1
 45
0.0
 46
0.0
 47
0.1
 48
0.1
140
0.12
141
0.0
142
0.0
143
25.399999999999999
144
1.0
145
0.0
146
0.71
147
0.06
 71
     0
 72
     0
 73
     1
 74
     1
 75
     0
 76
     0
 77
     0
 78
     7
170
     0
171
     2
172
     0
173
     0
174
     0
175
     0
176
   256
177
   256
178
     2
  0
DIMSTYLE
  2
AM_ANSI$SF
 70
     0
  3

  4
mm
  5

  6

  7

 40
1.0
 41
0.12
 42
0.05
 43
0.5
 44
0.1
 45
0.0
 46
0.0
 47
0.1
 48
0.1
140
0.12
141
0.0
142
0.0
143
25.399999999999999
144
1.0
145
0.0
146
0.71
147
0.06
 71
     0
 72
     0
 73
     1
 74
     1
 75
     1
 76
     1
 77
     0
 78
     7
170
     0
171
     2
172
     0
173
     0
174
     0
175
     0
176
   256
177
   256
178
     2
  0
DIMSTYLE
  2
AM_ANSI$SH
 70
     0
  3

  4
mm
  5

  6
GENAXEH
  7

 40
1.0
 41
0.12
 42
0.05
 43
0.5
 44
0.1
 45
0.0
 46
0.0
 47
0.1
 48
0.1
140
0.12
141
0.0
142
0.0
143
25.399999999999999
144
1.0
145
0.0
146
0.71
147
0.06
 71
     0
 72
     0
 73
     1
 74
     1
 75
     1
 76
     1
 77
     0
 78
     7
170
     0
171
     2
172
     0
173
     1
174
     0
175
     0
176
   256
177
   256
178
     2
  0
ENDTAB
  0
ENDSEC
  0
SECTION
  2
BLOCKS
  0
BLOCK
  8
0
  2
$MODEL_SPACE
 70
     0
 10
0.0
 20
0.0
 30
0.0
  3
$MODEL_SPACE
  1

  0
ENDBLK
  5
1933
  8
0
  0
BLOCK
 67
     1
  8
0
  2
$PAPER_SPACE
 70
     0
 10
0.0
 20
0.0
 30
0.0
  3
$PAPER_SPACE
  1

  0
ENDBLK
  5
192F
 67
     1
  8
0
  0
BLOCK
  8
0
  2
NEW_BLOCK
 70
     0
 10
0.0
 20
0.0
 30
0.0
  3
NEW_BLOCK
  1

  0
TEXT
  5
BA1
  8
TEXT
 10
27.285946821803002
 20
25.27142175952417
 30
0.0
 40
40.0
  1
available on request
  7
TITLE3
  0
TEXT
  5
BA2
  8
TEXT
 10
27.285946821803002
 20
93.842850330952714
 30
0.0
 40
40.0
  1
Certified dimensions
  7
TITLE3
  0
TEXT
  5
BA3
  8
TEXT
 10
27.285946821803002
 20
162.4142789023812
 30
0.0
 40
40.0
  1
without notice or obligation.
  7
TITLE3
  0
TEXT
  5
BA4
  8
TEXT
 10
27.285946821803002
 20
230.9857074738097
 30
0.0
 40
40.0
  1
specifications at any time
  7
TITLE3
  0
TEXT
  5
BA5
  8
TEXT
 10
27.285946821803002
 20
299.55713604523839
 30
0.0
 40
40.0
  1
the right to change 
  7
TITLE3
  0
TEXT
  5
BA6
  8
TEXT
 10
27.285946821803002
 20
436.69999318809488
 30
0.0
 40
40.0
  1
NOTE
  7
TITLE3
  0
TEXT
  5
BA7
  8
TEXT
 10
27.285946821803002
 20
368.12856461666678
 30
0.0
 40
40.0
  1
The manufacturer reserves
  7
TITLE3
  0
ENDBLK
  5
BA8
  8
0
  0
BLOCK
  8
0
  2
GENAXEH
 70
     0
 10
0.0
 20
0.0
 30
0.0
  3
GENAXEH
  1

  0
LINE
  5
EBC
  8
0
 10
-1.0
 20
0.0
 30
0.0
 11
1.0
 21
0.0
 31
0.0
  0
ENDBLK
  5
EBE
  8
0
  0
BLOCK
  8
0
  2
*U4
 70
     1
 10
0.0
 20
0.0
 30
0.0
  3
*U4
  1

  0
TEXT
  5
1511
  8
OUTLINE
 62
    50
 10
1972.1273552441
 20
1448.9742080883191
 30
0.0
 40
30.0
  1
714 O/A
  0
ENDBLK
  5
1513
  8
0
  0
BLOCK
  8
0
  2
*U5
 70
     1
 10
0.0
 20
0.0
 30
0.0
  3
*U5
  1

  0
TEXT
  5
1515
  8
OUTLINE
 62
    50
 10
1595.689732063621
 20
982.88256457920045
 30
0.0
 40
30.0
  1
569 O/A
 50
90.0
  0
ENDBLK
  5
1517
  8
0
  0
BLOCK
  8
0
  2
*U6
 70
     1
 10
0.0
 20
0.0
 30
0.0
  3
*U6
  1

  0
TEXT
  5
1519
  8
OUTLINE
 62
    50
 10
4485.2072777001922
 20
653.38332497559395
 30
0.0
 40
30.0
  1
43
 50
90.0
  0
ENDBLK
  5
151B
  8
0
  0
BLOCK
  8
0
  2
*U7
 70
     1
 10
0.0
 20
0.0
 30
0.0
  3
*U7
  1

  0
TEXT
  5
151D
  8
OUTLINE
 62
    50
 10
4560.0950381653847
 20
653.38332497559395
 30
0.0
 40
30.0
  1
86
 50
90.0
  0
ENDBLK
  5
151F
  8
0
  0
BLOCK
  8
0
  2
*U8
 70
     1
 10
0.0
 20
0.0
 30
0.0
  3
*U8
  1

  0
TEXT
  5
1521
  8
OUTLINE
 62
    50
 10
4650.6596832725418
 20
670.88332497559395
 30
0.0
 40
30.0
  1
146
 50
90.0
  0
ENDBLK
  5
1523
  8
0
  0
BLOCK
  8
0
  2
*U9
 70
     1
 10
0.0
 20
0.0
 30
0.0
  3
*U9
  1

  0
TEXT
  5
1525
  8
OUTLINE
 62
    50
 10
2663.2813437218911
 20
2032.857141082666
 30
0.0
 40
30.0
  1
680 CTRS
 50
90.0
  0
ENDBLK
  5
1527
  8
0
  0
BLOCK
  8
0
  2
*U10
 70
     1
 10
0.0
 20
0.0
 30
0.0
  3
*U10
  1

  0
TEXT
  5
1529
  8
OUTLINE
 62
    50
 10
3408.1067221538542
 20
2666.00496196012
 30
0.0
 40
30.0
  1
1503 CTRS
  0
ENDBLK
  5
152B
  8
0
  0
BLOCK
  8
0
  2
*U11
 70
     1
 10
0.0
 20
0.0
 30
0.0
  3
*U11
  1

  0
TEXT
  5
152D
  8
OUTLINE
 62
    50
 10
3469.1067221538569
 20
1449.9163646462421
 30
0.0
 40
30.0
  1
1647 O/A
  0
ENDBLK
  5
152F
  8
0
  0
BLOCK
  8
0
  2
*U12
 70
     1
 10
0.0
 20
0.0
 30
0.0
  3
*U12
  1

  0
TEXT
  5
1531
  8
OUTLINE
 62
    50
 10
3466.1067221538551
 20
1711.976405355676
 30
0.0
 40
30.0
  1
975
  0
ENDBLK
  5
1533
  8
0
  0
BLOCK
  8
0
  2
*U13
 70
     1
 10
0.0
 20
0.0
 30
0.0
  3
*U13
  1

  0
TEXT
  5
1535
  8
OUTLINE
 62
    50
 10
2847.1067221538578
 20
1712.100589223955
 30
0.0
 40
30.0
  1
263
  0
ENDBLK
  5
1537
  8
0
  0
BLOCK
  8
0
  2
*U14
 70
     1
 10
0.0
 20
0.0
 30
0.0
  3
*U14
  1

  0
TEXT
  5
1539
  8
OUTLINE
 62
    50
 10
2615.606722153861
 20
2552.7928924130201
 30
0.0
 40
30.0
  1
60
  0
ENDBLK
  5
153B
  8
0
  0
BLOCK
  8
0
  2
*U15
 70
     1
 10
0.0
 20
0.0
 30
0.0
  3
*U15
  1

  0
TEXT
  5
153D
  8
OUTLINE
 62
    50
 10
3455.1067221538569
 20
2552.7928924130201
 30
0.0
 40
30.0
  1
1379
  0
ENDBLK
  5
153F
  8
0
  0
BLOCK
  8
0
  2
*U16
 70
     1
 10
0.0
 20
0.0
 30
0.0
  3
*U16
  1

  0
TEXT
  5
1541
  8
OUTLINE
 62
    50
 10
1654.98604260514
 20
1462.383324975594
 30
0.0
 40
30.0
  1
56
 50
90.0
  0
ENDBLK
  5
1543
  8
0
  0
BLOCK
  8
0
  2
*U17
 70
     1
 10
0.0
 20
0.0
 30
0.0
  3
*U17
  1

  0
TEXT
  5
1545
  8
OUTLINE
 62
    50
 10
1655.32736664449
 20
1058.883324975594
 30
0.0
 40
30.0
  1
425
 50
90.0
  0
ENDBLK
  5
1547
  8
0
  0
BLOCK
  8
0
  2
*U18
 70
     1
 10
0.0
 20
0.0
 30
0.0
  3
*U18
  1

  0
TEXT
  5
1549
  8
OUTLINE
 62
    50
 10
2508.5219128713088
 20
1462.383324975594
 30
0.0
 40
30.0
  1
47
 50
90.0
  0
ENDBLK
  5
154B
  8
0
  0
BLOCK
  8
0
  2
*U19
 70
     1
 10
0.0
 20
0.0
 30
0.0
  3
*U19
  1

  0
TEXT
  5
154D
  8
OUTLINE
 62
    50
 10
2508.5219128713088
 20
1135.383324975594
 30
0.0
 40
30.0
  1
300
 50
90.0
  0
ENDBLK
  5
154F
  8
0
  0
ENDSEC
  0
SECTION
  2
ENTITIES
  0
LINE
  5
BA9
  8
OUTLINE
 10
4194.0107221538492
 20
1367.381804182806
 30
0.0
 11
2785.010763627236
 21
1367.381804182806
 31
0.0
  0
LINE
  5
BAB
  8
OUTLINE
 10
4298.6067221538569
 20
1367.383324975593
 30
0.0
 11
2762.6067221538569
 21
1367.383324975594
 31
0.0
  0
LINE
  5
C32
  8
OUTLINE
 10
2762.6067221538569
 20
1367.383324975594
 30
0.0
 11
2762.6067221538569
 21
1332.183324975593
 31
0.0
  0
TEXT
  5
C33
  8
TEXT
 10
3597.852354904167
 20
331.83937465895161
 30
0.0
 40
56.25
  1
temperzone ISD 210KG-DN
  7
TITLE5
 72
     1
 11
4175.0844977613096
 21
331.83937465895161
 31
0.0
  0
TEXT
  5
C34
  8
TEXT
 10
4287.5
 20
87.5
 30
0.0
 40
37.5
  1
ISD210KG-DN
 41
0.9759615384615386
  7
TITLE3
 72
     5
 11
4650.0
 21
87.5
 31
0.0
  0
TEXT
  5
C35
  8
TEXT
 10
3687.6594397060949
 20
137.5
 30
0.0
 40
37.5
  1
28-03-08
 41
0.67469879518072
  7
TITLE3
 72
     5
 11
3887.659439706094
 21
137.5
 31
0.0
  0
TEXT
  5
C36
  8
OVERLAY-A3
 10
3558.3907440588541
 20
138.53901732512591
 30
0.0
 40
30.0
  1
Date
  7
SIMPLEX
  0
TEXT
  5
C37
  8
OVERLAY-A3
 10
4682.6389904670023
 20
161.879127529264
 30
0.0
 40
30.0
  1
Revision
 41
0.7812095035934897
  7
SIMPLEX
 72
     5
 11
4814.3285925013333
 21
161.879127529264
 31
0.0
  0
LINE
  5
C38
  8
OVERLAY-A3
 10
4668.1141874877012
 20
26.053116060396409
 30
0.0
 11
4668.1141874877012
 21
210.33581963568329
 31
0.0
  0
LINE
  5
C39
  8
OVERLAY-A3
 10
3524.189411821435
 20
417.0489795327772
 30
0.0
 11
3524.189411821435
 21
26.053116060396409
 31
0.0
  0
LINE
  5
C3A
  8
OVERLAY-A3
 10
4271.1420975163674
 20
26.053116060396409
 30
0.0
 11
4271.1420975163674
 21
210.33581963568329
 31
0.0
  0
LINE
  5
C3B
  8
OVERLAY-A3
 10
4271.1420975163674
 20
116.6407490868297
 30
0.0
 11
3524.189411821435
 21
116.6407490868297
 31
0.0
  0
LINE
  5
C3C
  8
OVERLAY-A3
 10
4826.9693315473032
 20
210.33581963568329
 30
0.0
 11
3524.189411821435
 21
210.33581963568329
 31
0.0
  0
LINE
  5
C3D
  8
OVERLAY-A3
 10
3524.189411821435
 20
26.053116060396409
 30
0.0
 11
4826.5974475743642
 21
26.053116060396409
 31
0.0
  0
LINE
  5
C3E
  8
OVERLAY-A3
 10
4826.5974475743642
 20
26.053116060396409
 30
0.0
 11
4826.5974475743642
 21
417.0489795327772
 31
0.0
  0
LINE
  5
C3F
  8
OVERLAY-A3
 10
4826.5974475743642
 20
417.0489795327772
 30
0.0
 11
3524.189411821435
 21
417.0489795327772
 31
0.0
  0
TEXT
  5
C40
  8
OVERLAY-A3
 10
3555.6040238788869
 20
59.903110081697122
 30
0.0
 40
25.0
  1
Scale
 41
1.3701747965659881
  7
SIMPLEX
 72
     5
 11
3681.2033802307692
 21
59.903110081697122
 31
0.0
  0
TEXT
  5
C41
  8
OVERLAY-A3
 10
4343.5739045009959
 20
161.1167893833869
 30
0.0
 40
25.0
  1
Drawing No.
  7
SIMPLEX
 72
     2
 11
4561.4310473581399
 21
161.1167893833869
 31
0.0
  0
LINE
  5
C42
  8
OVERLAY-A3
 10
1404.906730739787
 20
0.0
 30
0.0
 11
4862.5
 21
0.0
 31
0.0
  0
LINE
  5
C43
  8
OVERLAY-A3
 10
4862.5
 20
0.0
 30
0.0
 11
4862.5
 21
2908.638814366057
 31
0.0
  0
LINE
  5
C44
  8
OVERLAY-A3
 10
4862.5
 20
2908.638814366057
 30
0.0
 11
1404.906730739787
 21
2908.638814366057
 31
0.0
  0
LINE
  5
C45
  8
OVERLAY-A3
 10
1404.906730739787
 20
2908.638814366057
 30
0.0
 11
1404.906730739787
 21
0.0
 31
0.0
  0
TEXT
  5
C46
  8
TEXT
 10
3748.5565704042451
 20
58.012369697124093
 30
0.0
 40
30.0
  1
1:10
  7
TITLE3
  0
LINE
  5
C48
  8
CLEAR
 10
4798.6067221538569
 20
1852.3571410826571
 30
0.0
 11
4798.606722153856
 21
2438.3571410826562
 31
0.0
  0
LINE
  5
C49
  8
CLEAR
 10
4798.606722153856
 20
2438.3571410826562
 30
0.0
 11
4308.606722153856
 21
2438.3571410826562
 31
0.0
  0
TEXT
  5
C61
  8
TEXT
 10
4779.0626931054212
 20
1909.432134674028
 30
0.0
 40
30.0
  1
500 min CLEARANCE
 50
90.0
  7
TITLE3
  0
INSERT
  5
C62
  8
TEXT
  2
NEW_BLOCK
 10
1465.1326559166371
 20
33.644011142307818
 30
0.0
 41
0.75
 42
0.75
 43
0.75
  0
ARC
  5
1030
  8
OUTLINE
  6
HIDDEN
 10
2205.0882288618268
 20
1127.348636481074
 30
0.0
 40
177.512
 50
186.51936645900611
 51
229.8677850898041
  0
ARC
  5
1032
  8
OUTLINE
  6
HIDDEN
 10
2197.1241039482529
 20
1094.7774416555919
 30
0.0
 40
138.97304224290511
 50
321.78409498301409
 51
352.23223143579338
  0
ARC
  5
1033
  8
OUTLINE
  6
HIDDEN
 10
2186.5417662991658
 20
1103.994093879729
 30
0.0
 40
152.99067181415609
 50
276.52386083403968
 51
321.52386083405719
  0
ARC
  5
1034
  8
OUTLINE
  6
HIDDEN
 10
2197.0355754768252
 20
1113.926324603023
 30
0.0
 40
162.0786820390756
 50
228.98586955896141
 51
272.43586955890788
  0
CIRCLE
  5
1035
  8
OUTLINE
  6
HIDDEN
 10
2203.9241039482522
 20
1111.1940938797291
 30
0.0
 40
77.0
  0
LINE
  5
1036
  8
OUTLINE
  6
HIDDEN
 10
2206.2361039482539
 20
1307.994093879729
 30
0.0
 11
2345.1161039482522
 21
1307.994093879729
 31
0.0
  0
LINE
  5
1037
  8
OUTLINE
  6
HIDDEN
 10
2345.1161039482522
 20
1307.18175259022
 30
0.0
 11
2345.1161039482522
 21
1075.9940938797299
 31
0.0
  0
LINE
  5
103A
  8
OUTLINE
  6
HIDDEN
 10
2334.821933693604
 20
1075.9940938797299
 30
0.0
 11
2345.1161039482522
 21
1075.9940938797299
 31
0.0
  0
ARC
  5
103F
  8
OUTLINE
  6
HIDDEN
 10
2217.8650392674308
 20
1119.17478612128
 30
0.0
 40
189.52000000000001
 50
140.0536479551524
 51
183.62442552808389
  0
ARC
  5
1040
  8
OUTLINE
  6
HIDDEN
 10
2223.0427217242518
 20
1107.8986726454291
 30
0.0
 40
200.80000000000001
 50
94.801175959447008
 51
138.5353740550384
  0
LINE
  5
10B2
  8
DIM
 10
2257.437387151906
 20
1228.7303751115439
 30
0.0
 11
2202.4514844443602
 21
1228.7303751115439
 31
0.0
  0
LINE
  5
10B3
  8
DIM
 10
2257.437387151906
 20
1250.3844027076079
 30
0.0
 11
2202.4514844443602
 21
1250.3844027076079
 31
0.0
  0
LINE
  5
10B4
  8
DIM
 10
2202.4514844443602
 20
1228.7303751115439
 30
0.0
 11
2202.4514844443602
 21
1250.3844027076079
 31
0.0
  0
LINE
  5
10B5
  8
DIM
 10
2257.437387151906
 20
1268.1333852612399
 30
0.0
 11
2257.437387151906
 21
1250.3844027076079
 31
0.0
  0
LINE
  5
10B6
  8
DIM
 10
2304.4414686442242
 20
1239.557388909577
 30
0.0
 11
2257.437387151906
 21
1268.1333852612399
 31
0.0
  0
LINE
  5
10B7
  8
DIM
 10
2304.4414686442242
 20
1239.557388909577
 30
0.0
 11
2257.437387151906
 21
1210.9813925579119
 31
0.0
  0
LINE
  5
10B8
  8
DIM
 10
2257.437387151906
 20
1210.9813925579119
 30
0.0
 11
2257.437387151906
 21
1228.7303751115439
 31
0.0
  0
LINE
  5
10D3
  8
OUTLINE
 10
3993.6067221538551
 20
1320.383324975594
 30
0.0
 11
3018.606722153856
 21
1320.383324975593
 31
0.0
  0
LINE
  5
10D6
  8
OUTLINE
 10
3993.6067221538551
 20
1020.383324975593
 30
0.0
 11
3018.6067221538551
 21
1020.383324975593
 31
0.0
  0
LINE
  5
10D7
  8
OUTLINE
 10
3018.606722153856
 20
1320.383324975593
 30
0.0
 11
3018.6067221538551
 21
1020.383324975593
 31
0.0
  0
LINE
  5
10D8
  8
OUTLINE
 10
4298.6067221538569
 20
1367.383324975593
 30
0.0
 11
4298.6067221538569
 21
1332.183324975593
 31
0.0
  0
LINE
  5
10D9
  8
OUTLINE
 10
3993.6067221538551
 20
1320.383324975594
 30
0.0
 11
3993.6067221538551
 21
1020.383324975593
 31
0.0
  0
LINE
  5
10DA
  8
OUTLINE
 10
4402.606722153856
 20
1324.383324975593
 30
0.0
 11
4402.6067221538542
 21
880.38332497559315
 31
0.0
  0
LINE
  5
10DB
  8
OUTLINE
 10
4402.606722153856
 20
1324.383324975593
 30
0.0
 11
4305.606722153856
 21
1324.383324975593
 31
0.0
  0
LINE
  5
10DC
  8
OUTLINE
 10
4402.6067221538542
 20
880.38332497559315
 30
0.0
 11
4298.6067221538542
 21
880.38332497559315
 31
0.0
  0
LINE
  5
10DE
  8
OUTLINE
 10
4349.6067221538569
 20
854.68180418280656
 30
0.0
 11
4349.6067221538569
 21
828.08180418280665
 31
0.0
  0
LINE
  5
10DF
  8
OUTLINE
 10
4349.6067221538569
 20
854.68180418280656
 30
0.0
 11
4298.6067221538569
 21
854.68180418280656
 31
0.0
  0
LINE
  5
10E0
  8
OUTLINE
 10
4349.6067221538569
 20
828.08180418280665
 30
0.0
 11
4298.606722153856
 21
828.08180418280665
 31
0.0
  0
TEXT
  5
1107
  8
TEXT
 10
3188.89947944495
 20
1139.0194236515219
 30
0.0
 40
63.28125
  1
ISD210KG-DN
  7
TITLE5
 72
     1
 11
3502.2923365878069
 21
1139.0194236515219
 31
0.0
  0
LINE
  5
1109
  8
OUTLINE
 10
2360.1273552441012
 20
1367.383324975593
 30
0.0
 11
1774.127355244101
 21
1367.383324975594
 31
0.0
  0
LINE
  5
110A
  8
OUTLINE
 10
2360.127355244098
 20
798.3818041828066
 30
0.0
 11
1774.1273552440971
 21
798.3818041828066
 31
0.0
  0
LINE
  5
110B
  8
OUTLINE
 10
2360.1273552441012
 20
1367.383324975593
 30
0.0
 11
2360.127355244098
 21
798.3818041828066
 31
0.0
  0
LINE
  5
110C
  8
OUTLINE
 10
1774.127355244101
 20
1367.383324975594
 30
0.0
 11
1774.1273552440971
 21
798.3818041828066
 31
0.0
  0
LINE
  5
110D
  8
OUTLINE
 10
2424.1273552441012
 20
1320.383324975593
 30
0.0
 11
2372.1273552441012
 21
1320.383324975593
 31
0.0
  0
LINE
  5
110E
  8
OUTLINE
 10
2424.1273552440989
 20
1020.383324975593
 30
0.0
 11
2360.1273552440989
 21
1020.383324975593
 31
0.0
  0
LINE
  5
110F
  8
OUTLINE
 10
2424.1273552441012
 20
1320.383324975593
 30
0.0
 11
2424.1273552440998
 21
1270.183324975606
 31
0.0
  0
LINE
  5
1110
  8
OUTLINE
 10
1762.127355244101
 20
1311.383324975594
 30
0.0
 11
1710.1273552441
 21
1311.383324975594
 31
0.0
  0
LINE
  5
1111
  8
OUTLINE
 10
1710.1273552441
 20
1311.383324975594
 30
0.0
 11
1710.1273552441
 21
1270.1833249756071
 31
0.0
  0
LINE
  5
1112
  8
OUTLINE
 10
1774.127355244098
 20
886.38332497559384
 30
0.0
 11
1710.127355244098
 21
886.38332497559384
 31
0.0
  0
LINE
  5
1156
  8
OUTLINE
 10
1774.1273552441
 20
1258.1833249756071
 30
0.0
 11
1709.1273552441
 21
1258.183324975606
 31
0.0
  0
LINE
  5
1157
  8
OUTLINE
 10
1713.627355244101
 20
1258.183324975606
 30
0.0
 11
1744.6273552441
 21
1258.183324975606
 31
0.0
  0
LINE
  5
1158
  8
OUTLINE
 10
1737.127355244101
 20
1251.183324975606
 30
0.0
 11
1717.127355244101
 21
1251.183324975606
 31
0.0
  0
LINE
  5
1159
  8
OUTLINE
 10
1709.1273552441
 20
1270.183324975606
 30
0.0
 11
1709.1273552441
 21
1258.183324975606
 31
0.0
  0
LINE
  5
115A
  8
OUTLINE
 10
1774.1273552441
 20
1332.183324975606
 30
0.0
 11
1774.1273552441
 21
1258.1833249756071
 31
0.0
  0
LINE
  5
115B
  8
OUTLINE
 10
1774.1273552441
 20
1332.183324975606
 30
0.0
 11
1762.127355244101
 21
1332.183324975606
 31
0.0
  0
LINE
  5
115C
  8
OUTLINE
 10
1762.127355244101
 20
1270.183324975606
 30
0.0
 11
1709.1273552441
 21
1270.183324975606
 31
0.0
  0
LINE
  5
115D
  8
OUTLINE
 10
1762.127355244101
 20
1332.183324975606
 30
0.0
 11
1762.127355244101
 21
1270.183324975606
 31
0.0
  0
LINE
  5
115E
  8
DIM
 10
1715.127355244101
 20
1258.183324975606
 30
0.0
 11
1717.127355244101
 21
1251.183324975606
 31
0.0
  0
LINE
  5
115F
  8
DIM
 10
1739.1273552440989
 20
1258.183324975606
 30
0.0
 11
1737.127355244101
 21
1251.183324975606
 31
0.0
  0
LINE
  5
1160
  8
DIM
 10
4258.606722153856
 20
1258.1833249755939
 30
0.0
 11
4305.606722153856
 21
1258.183324975593
 31
0.0
  0
LINE
  5
1161
  8
DIM
 10
4258.606722153856
 20
1332.183324975593
 30
0.0
 11
4305.606722153856
 21
1332.183324975593
 31
0.0
  0
LINE
  5
1162
  8
OUTLINE
 10
4258.606722153856
 20
1332.183324975593
 30
0.0
 11
4258.606722153856
 21
1258.1833249755939
 31
0.0
  0
LINE
  5
1163
  8
OUTLINE
 10
4305.606722153856
 20
1332.1833249755939
 30
0.0
 11
4305.606722153856
 21
1258.1833249755939
 31
0.0
  0
LINE
  5
1164
  8
OUTLINE
 10
4272.106722153856
 20
1251.1833249755939
 30
0.0
 11
4292.1067221538551
 21
1251.1833249755939
 31
0.0
  0
LINE
  5
1165
  8
DIM
 10
4294.1067221538551
 20
1258.1833249755939
 30
0.0
 11
4292.1067221538551
 21
1251.1833249755939
 31
0.0
  0
LINE
  5
1166
  8
DIM
 10
4270.1067221538551
 20
1258.1833249755939
 30
0.0
 11
4272.106722153856
 21
1251.1833249755939
 31
0.0
  0
LINE
  5
1167
  8
DIM
 10
4261.1067221538551
 20
1260.683324975593
 30
0.0
 11
4303.1067221538569
 21
1260.683324975593
 31
0.0
  0
LINE
  5
1168
  8
OUTLINE
 10
4261.1067221538551
 20
1332.183324975593
 30
0.0
 11
4261.1067221538551
 21
1260.683324975593
 31
0.0
  0
LINE
  5
1169
  8
OUTLINE
 10
4303.1067221538569
 20
1332.1833249755939
 30
0.0
 11
4303.1067221538569
 21
1260.683324975593
 31
0.0
  0
LINE
  5
116A
  8
DIM
 10
4258.606722153856
 20
1270.1833249755939
 30
0.0
 11
4261.1067221538551
 21
1270.1833249755939
 31
0.0
  0
LINE
  5
116B
  8
DIM
 10
4303.1067221538569
 20
1270.1833249755939
 30
0.0
 11
4305.606722153856
 21
1270.1833249755939
 31
0.0
  0
LINE
  5
116C
  8
DIM
 10
1727.127355244101
 20
1246.183324975606
 30
0.0
 11
1727.127355244101
 21
1263.1833249756071
 31
0.0
  0
LINE
  5
116D
  8
DIM
 10
4282.106722153856
 20
1246.1833249755939
 30
0.0
 11
4282.106722153856
 21
1263.183324975593
 31
0.0
  0
LINE
  5
11E2
  8
OUTLINE
 10
2360.1273552441012
 20
1258.1833249756071
 30
0.0
 11
2425.1273552441012
 21
1258.183324975606
 31
0.0
  0
LINE
  5
11E3
  8
OUTLINE
 10
2420.6273552441012
 20
1258.183324975606
 30
0.0
 11
2390.6273552441012
 21
1258.183324975606
 31
0.0
  0
LINE
  5
11E4
  8
OUTLINE
 10
2397.1273552441012
 20
1251.183324975606
 30
0.0
 11
2417.1273552441012
 21
1251.183324975606
 31
0.0
  0
LINE
  5
11E5
  8
OUTLINE
 10
2425.1273552441012
 20
1270.183324975606
 30
0.0
 11
2425.1273552441012
 21
1258.183324975606
 31
0.0
  0
LINE
  5
11E6
  8
OUTLINE
 10
2360.1273552441012
 20
1332.183324975606
 30
0.0
 11
2360.1273552441012
 21
1258.1833249756071
 31
0.0
  0
LINE
  5
11E7
  8
OUTLINE
 10
2360.1273552441012
 20
1332.183324975606
 30
0.0
 11
2372.1273552441012
 21
1332.183324975606
 31
0.0
  0
LINE
  5
11E8
  8
OUTLINE
 10
2372.1273552441012
 20
1270.183324975606
 30
0.0
 11
2425.1273552441012
 21
1270.183324975606
 31
0.0
  0
LINE
  5
11E9
  8
OUTLINE
 10
2372.1273552441012
 20
1332.183324975606
 30
0.0
 11
2372.1273552441012
 21
1270.183324975606
 31
0.0
  0
LINE
  5
11EA
  8
DIM
 10
2419.1273552441012
 20
1258.183324975606
 30
0.0
 11
2417.1273552441012
 21
1251.183324975606
 31
0.0
  0
LINE
  5
11EB
  8
DIM
 10
2395.127355244103
 20
1258.183324975606
 30
0.0
 11
2397.1273552441012
 21
1251.183324975606
 31
0.0
  0
LINE
  5
11EC
  8
DIM
 10
2407.1273552441012
 20
1246.183324975606
 30
0.0
 11
2407.1273552441012
 21
1263.1833249756071
 31
0.0
  0
LINE
  5
11ED
  8
DIM
 10
2802.6067221538569
 20
1258.1833249755939
 30
0.0
 11
2755.6067221538569
 21
1258.183324975593
 31
0.0
  0
LINE
  5
11EE
  8
DIM
 10
2802.6067221538569
 20
1332.183324975593
 30
0.0
 11
2755.6067221538569
 21
1332.183324975593
 31
0.0
  0
LINE
  5
11EF
  8
OUTLINE
 10
2802.6067221538569
 20
1332.183324975593
 30
0.0
 11
2802.6067221538569
 21
1258.1833249755939
 31
0.0
  0
LINE
  5
11F0
  8
OUTLINE
 10
2755.6067221538569
 20
1332.1833249755939
 30
0.0
 11
2755.6067221538569
 21
1258.1833249755939
 31
0.0
  0
LINE
  5
11F1
  8
OUTLINE
 10
2789.1067221538569
 20
1251.1833249755939
 30
0.0
 11
2769.1067221538592
 21
1251.1833249755939
 31
0.0
  0
LINE
  5
11F2
  8
DIM
 10
2767.1067221538592
 20
1258.1833249755939
 30
0.0
 11
2769.1067221538592
 21
1251.1833249755939
 31
0.0
  0
LINE
  5
11F3
  8
DIM
 10
2791.1067221538592
 20
1258.1833249755939
 30
0.0
 11
2789.1067221538569
 21
1251.1833249755939
 31
0.0
  0
LINE
  5
11F4
  8
DIM
 10
2800.1067221538592
 20
1260.683324975593
 30
0.0
 11
2758.1067221538569
 21
1260.683324975593
 31
0.0
  0
LINE
  5
11F5
  8
OUTLINE
 10
2800.1067221538592
 20
1332.183324975593
 30
0.0
 11
2800.1067221538592
 21
1260.683324975593
 31
0.0
  0
LINE
  5
11F6
  8
OUTLINE
 10
2758.1067221538569
 20
1332.1833249755939
 30
0.0
 11
2758.1067221538569
 21
1260.683324975593
 31
0.0
  0
LINE
  5
11F7
  8
DIM
 10
2802.6067221538569
 20
1270.1833249755939
 30
0.0
 11
2800.1067221538592
 21
1270.1833249755939
 31
0.0
  0
LINE
  5
11F8
  8
DIM
 10
2758.1067221538569
 20
1270.1833249755939
 30
0.0
 11
2755.6067221538569
 21
1270.1833249755939
 31
0.0
  0
LINE
  5
11F9
  8
DIM
 10
2779.1067221538578
 20
1246.1833249755939
 30
0.0
 11
2779.1067221538578
 21
1263.183324975593
 31
0.0
  0
LINE
  5
11FA
  8
OUTLINE
 10
2762.6067221538569
 20
1258.183324975593
 30
0.0
 11
2762.6067221538542
 21
804.38332497559372
 31
0.0
  0
LINE
  5
11FB
  8
OUTLINE
 10
4298.606722153856
 20
1258.183324975593
 30
0.0
 11
4298.6067221538542
 21
804.38332497559293
 31
0.0
  0
LINE
  5
11FC
  8
OUTLINE
 10
1710.1273552441
 20
1258.1833249756071
 30
0.0
 11
1710.127355244098
 21
886.38332497559384
 31
0.0
  0
LINE
  5
11FD
  8
OUTLINE
 10
2424.1273552441012
 20
1258.183324975606
 30
0.0
 11
2424.1273552440989
 21
1020.383324975593
 31
0.0
  0
LINE
  5
1238
  8
DIM
 10
3495.2797083558221
 20
1920.7780683635569
 30
0.0
 11
3495.2797083558221
 21
1975.7639710711021
 31
0.0
  0
LINE
  5
1239
  8
DIM
 10
3516.9337359518868
 20
1920.7780683635569
 30
0.0
 11
3516.9337359518868
 21
1975.7639710711021
 31
0.0
  0
LINE
  5
123A
  8
DIM
 10
3495.2797083558221
 20
1975.7639710711021
 30
0.0
 11
3516.9337359518868
 21
1975.7639710711021
 31
0.0
  0
LINE
  5
123B
  8
DIM
 10
3534.6827185055199
 20
1920.7780683635569
 30
0.0
 11
3516.9337359518868
 21
1920.7780683635569
 31
0.0
  0
LINE
  5
123C
  8
DIM
 10
3506.106722153856
 20
1873.773986871239
 30
0.0
 11
3534.6827185055199
 21
1920.7780683635569
 31
0.0
  0
LINE
  5
123D
  8
DIM
 10
3506.106722153856
 20
1873.773986871239
 30
0.0
 11
3477.5307258021908
 21
1920.7780683635569
 31
0.0
  0
LINE
  5
123E
  8
DIM
 10
3477.5307258021908
 20
1920.7780683635569
 30
0.0
 11
3495.2797083558221
 21
1920.7780683635569
 31
0.0
  0
LINE
  5
1264
  8
OUTLINE
 10
2762.6067221538569
 20
2438.3571410826648
 30
0.0
 11
2762.6067221538542
 21
1852.3571410826651
 31
0.0
  0
LINE
  5
1265
  8
OUTLINE
 10
4298.6067221538569
 20
2438.3571410826562
 30
0.0
 11
4298.6067221538542
 21
1852.3571410826571
 31
0.0
  0
LINE
  5
1266
  8
OUTLINE
 10
4298.6067221538542
 20
1852.3571410826571
 30
0.0
 11
2762.6067221538542
 21
1852.3571410826651
 31
0.0
  0
LINE
  5
1267
  8
OUTLINE
 10
4298.6067221538569
 20
2438.3571410826562
 30
0.0
 11
2762.6067221538569
 21
2438.3571410826648
 31
0.0
  0
LINE
  5
1268
  8
OUTLINE
 10
3018.606722153856
 20
1852.357141082663
 30
0.0
 11
3018.606722153856
 21
1788.3571410826639
 31
0.0
  0
LINE
  5
1269
  8
OUTLINE
 10
3993.606722153856
 20
1852.357141082658
 30
0.0
 11
3993.6067221538551
 21
1788.3571410826571
 31
0.0
  0
LINE
  5
126A
  8
OUTLINE
 10
3993.6067221538551
 20
1788.3571410826571
 30
0.0
 11
3018.606722153856
 21
1788.3571410826639
 31
0.0
  0
LINE
  5
126B
  8
OUTLINE
 10
4194.606722153856
 20
2502.3571410826571
 30
0.0
 11
2815.6067221538592
 21
2502.3571410826648
 31
0.0
  0
LINE
  5
126C
  8
OUTLINE
 10
2815.6067221538592
 20
2502.3571410826648
 30
0.0
 11
2815.6067221538592
 21
2438.3571410826648
 31
0.0
  0
LINE
  5
126D
  8
OUTLINE
 10
4194.606722153856
 20
2502.3571410826571
 30
0.0
 11
4194.606722153856
 21
2438.357141082658
 31
0.0
  0
LINE
  5
126E
  8
OUTLINE
 10
4402.606722153856
 20
2315.3571410826571
 30
0.0
 11
4402.6067221538542
 21
1947.357141082656
 31
0.0
  0
LINE
  5
126F
  8
OUTLINE
 10
4402.606722153856
 20
2315.3571410826571
 30
0.0
 11
4298.6067221538569
 21
2315.3571410826571
 31
0.0
  0
LINE
  5
1270
  8
OUTLINE
 10
4402.6067221538542
 20
1947.357141082656
 30
0.0
 11
4298.6067221538551
 21
1947.3571410826571
 31
0.0
  0
TEXT
  5
1297
  8
TEXT
 10
3193.7549802246108
 20
2129.4826769489059
 30
0.0
 40
63.28125
  1
ISD210KG-DN
  7
TITLE5
 72
     1
 11
3507.1478373674681
 21
2129.4826769489059
 31
0.0
  0
LINE
  5
12A5
  8
DIM
 10
2802.606722153861
 20
1852.3571410826651
 30
0.0
 11
2755.6067221538619
 21
1852.3571410826651
 31
0.0
  0
LINE
  5
12A6
  8
OUTLINE
 10
2802.606722153861
 20
1852.3571410826639
 30
0.0
 11
2802.606722153861
 21
1787.357141082663
 31
0.0
  0
LINE
  5
12A7
  8
OUTLINE
 10
2800.106722153861
 20
1852.3571410826651
 30
0.0
 11
2800.106722153861
 21
1787.3571410826639
 31
0.0
  0
LINE
  5
12A8
  8
OUTLINE
 10
2755.6067221538619
 20
1852.3571410826651
 30
0.0
 11
2755.606722153861
 21
1787.3571410826639
 31
0.0
  0
LINE
  5
12A9
  8
OUTLINE
 10
2758.1067221538619
 20
1852.3571410826639
 30
0.0
 11
2758.1067221538619
 21
1787.357141082663
 31
0.0
  0
LINE
  5
12AA
  8
DIM
 10
2802.606722153861
 20
1787.3571410826639
 30
0.0
 11
2755.606722153861
 21
1787.3571410826639
 31
0.0
  0
CIRCLE
  5
12AB
  8
DIM
 10
2779.1067221538619
 20
1805.3571410826639
 30
0.0
 40
12.0
  0
CIRCLE
  5
12AC
  8
DIM
 10
2779.1067221538619
 20
1805.3571410826639
 30
0.0
 40
10.0
  0
LINE
  5
12AD
  8
DIM
 10
2802.606722153861
 20
1840.3571410826639
 30
0.0
 11
2755.6067221538619
 21
1840.3571410826639
 31
0.0
  0
LINE
  5
12AE
  8
DIM
 10
4258.606722153846
 20
1852.3571410826651
 30
0.0
 11
4305.606722153846
 21
1852.3571410826651
 31
0.0
  0
LINE
  5
12AF
  8
DIM
 10
4258.606722153846
 20
1840.3571410826639
 30
0.0
 11
4305.606722153846
 21
1840.3571410826639
 31
0.0
  0
LINE
  5
12B0
  8
OUTLINE
 10
4258.606722153846
 20
1852.3571410826639
 30
0.0
 11
4258.6067221538469
 21
1787.357141082663
 31
0.0
  0
LINE
  5
12B1
  8
OUTLINE
 10
4261.106722153846
 20
1852.3571410826651
 30
0.0
 11
4261.106722153846
 21
1787.3571410826639
 31
0.0
  0
LINE
  5
12B2
  8
OUTLINE
 10
4305.606722153846
 20
1852.3571410826651
 30
0.0
 11
4305.606722153846
 21
1787.3571410826639
 31
0.0
  0
LINE
  5
12B3
  8
OUTLINE
 10
4303.1067221538469
 20
1852.3571410826639
 30
0.0
 11
4303.1067221538469
 21
1787.357141082663
 31
0.0
  0
LINE
  5
12B4
  8
DIM
 10
4258.6067221538469
 20
1787.3571410826639
 30
0.0
 11
4305.606722153846
 21
1787.3571410826639
 31
0.0
  0
CIRCLE
  5
12B5
  8
DIM
 10
4282.1067221538469
 20
1805.3571410826639
 30
0.0
 40
12.0
  0
CIRCLE
  5
12B6
  8
DIM
 10
4282.1067221538469
 20
1805.3571410826639
 30
0.0
 40
10.0
  0
LINE
  5
12B7
  8
DIM
 10
2802.606722153861
 20
2438.3571410826671
 30
0.0
 11
2755.6067221538619
 21
2438.3571410826671
 31
0.0
  0
LINE
  5
12B8
  8
DIM
 10
2802.606722153861
 20
2450.357141082668
 30
0.0
 11
2755.6067221538619
 21
2450.357141082668
 31
0.0
  0
LINE
  5
12B9
  8
OUTLINE
 10
2802.606722153861
 20
2438.3571410826671
 30
0.0
 11
2802.606722153861
 21
2503.3571410826671
 31
0.0
  0
LINE
  5
12BA
  8
OUTLINE
 10
2800.106722153861
 20
2438.3571410826671
 30
0.0
 11
2800.106722153861
 21
2503.3571410826671
 31
0.0
  0
LINE
  5
12BB
  8
OUTLINE
 10
2755.6067221538619
 20
2438.3571410826671
 30
0.0
 11
2755.606722153861
 21
2503.3571410826671
 31
0.0
  0
LINE
  5
12BC
  8
OUTLINE
 10
2758.1067221538619
 20
2438.3571410826671
 30
0.0
 11
2758.1067221538619
 21
2503.3571410826671
 31
0.0
  0
LINE
  5
12BD
  8
DIM
 10
2802.606722153861
 20
2503.3571410826671
 30
0.0
 11
2755.606722153861
 21
2503.3571410826671
 31
0.0
  0
CIRCLE
  5
12BE
  8
DIM
 10
2779.1067221538619
 20
2485.3571410826671
 30
0.0
 40
12.0
  0
CIRCLE
  5
12BF
  8
DIM
 10
2779.1067221538619
 20
2485.3571410826671
 30
0.0
 40
10.0
  0
LINE
  5
12C0
  8
DIM
 10
4258.606722153846
 20
2438.3571410826671
 30
0.0
 11
4305.606722153846
 21
2438.3571410826671
 31
0.0
  0
LINE
  5
12C1
  8
DIM
 10
4258.606722153846
 20
2450.357141082668
 30
0.0
 11
4305.606722153846
 21
2450.357141082668
 31
0.0
  0
LINE
  5
12C2
  8
OUTLINE
 10
4258.606722153846
 20
2438.3571410826671
 30
0.0
 11
4258.6067221538469
 21
2503.3571410826671
 31
0.0
  0
LINE
  5
12C3
  8
OUTLINE
 10
4261.106722153846
 20
2438.3571410826671
 30
0.0
 11
4261.106722153846
 21
2503.3571410826671
 31
0.0
  0
LINE
  5
12C4
  8
OUTLINE
 10
4305.606722153846
 20
2438.3571410826671
 30
0.0
 11
4305.606722153846
 21
2503.3571410826671
 31
0.0
  0
LINE
  5
12C5
  8
OUTLINE
 10
4303.1067221538469
 20
2438.3571410826671
 30
0.0
 11
4303.1067221538469
 21
2503.3571410826671
 31
0.0
  0
LINE
  5
12C6
  8
DIM
 10
4258.6067221538469
 20
2503.3571410826671
 30
0.0
 11
4305.606722153846
 21
2503.3571410826671
 31
0.0
  0
CIRCLE
  5
12C7
  8
DIM
 10
4282.1067221538469
 20
2485.3571410826671
 30
0.0
 40
12.0
  0
CIRCLE
  5
12C8
  8
DIM
 10
4282.1067221538469
 20
2485.3571410826671
 30
0.0
 40
10.0
  0
LINE
  5
12CB
  8
CLEAR
 10
4798.6067221538569
 20
1852.3571410826571
 30
0.0
 11
4308.606722153856
 21
1852.3571410826571
 31
0.0
  0
LINE
  5
12F2
  8
DIM
 10
3495.2797083558221
 20
2358.4701912972109
 30
0.0
 11
3495.2797083558221
 21
2413.4560940047559
 31
0.0
  0
LINE
  5
12F3
  8
DIM
 10
3516.9337359518868
 20
2358.4701912972109
 30
0.0
 11
3516.9337359518868
 21
2413.4560940047559
 31
0.0
  0
LINE
  5
12F4
  8
DIM
 10
3495.2797083558221
 20
2413.4560940047559
 30
0.0
 11
3516.9337359518868
 21
2413.4560940047559
 31
0.0
  0
LINE
  5
12F5
  8
DIM
 10
3534.6827185055199
 20
2358.4701912972109
 30
0.0
 11
3516.9337359518868
 21
2358.4701912972109
 31
0.0
  0
LINE
  5
12F6
  8
DIM
 10
3506.106722153856
 20
2311.4661098048932
 30
0.0
 11
3534.6827185055199
 21
2358.4701912972109
 31
0.0
  0
LINE
  5
12F7
  8
DIM
 10
3506.106722153856
 20
2311.4661098048932
 30
0.0
 11
3477.5307258021908
 21
2358.4701912972109
 31
0.0
  0
LINE
  5
12F8
  8
DIM
 10
3477.5307258021908
 20
2358.4701912972109
 30
0.0
 11
3495.2797083558221
 21
2358.4701912972109
 31
0.0
  0
LINE
  5
12FA
  8
OUTLINE
 10
4342.6067221538551
 20
2409.3571410826571
 30
0.0
 11
4298.6067221538569
 21
2409.357141082658
 31
0.0
  0
LINE
  5
12FB
  8
OUTLINE
 10
4342.6067221538551
 20
2387.3571410826571
 30
0.0
 11
4298.6067221538569
 21
2387.3571410826571
 31
0.0
  0
LINE
  5
12FC
  8
OUTLINE
 10
4364.6067221538569
 20
2410.3571410826571
 30
0.0
 11
4364.6067221538569
 21
2386.3571410826562
 31
0.0
  0
LINE
  5
12FD
  8
OUTLINE
 10
4342.6067221538551
 20
2410.3571410826571
 30
0.0
 11
4342.6067221538551
 21
2404.707141082657
 31
0.0
  0
LINE
  5
12FE
  8
OUTLINE
 10
4364.6067221538569
 20
2410.3571410826571
 30
0.0
 11
4342.6067221538551
 21
2410.3571410826571
 31
0.0
  0
LINE
  5
12FF
  8
OUTLINE
 10
4364.6067221538569
 20
2386.3571410826562
 30
0.0
 11
4342.6067221538551
 21
2386.3571410826562
 31
0.0
  0
LINE
  5
1307
  8
OUTLINE
 10
4345.9067221538571
 20
2404.707141082657
 30
0.0
 11
4298.6067221538569
 21
2404.707141082657
 31
0.0
  0
LINE
  5
1308
  8
OUTLINE
 10
4345.9067221538571
 20
2392.0071410826558
 30
0.0
 11
4298.6067221538569
 21
2392.0071410826558
 31
0.0
  0
LINE
  5
1309
  8
OUTLINE
 10
4358.6067221538569
 20
2405.707141082657
 30
0.0
 11
4358.6067221538569
 21
2391.0071410826558
 31
0.0
  0
LINE
  5
130A
  8
OUTLINE
 10
4345.9067221538571
 20
2405.707141082657
 30
0.0
 11
4345.9067221538571
 21
2391.0071410826558
 31
0.0
  0
LINE
  5
130B
  8
OUTLINE
 10
4358.6067221538569
 20
2405.707141082657
 30
0.0
 11
4345.9067221538571
 21
2405.707141082657
 31
0.0
  0
LINE
  5
130C
  8
OUTLINE
 10
4358.6067221538569
 20
2391.0071410826558
 30
0.0
 11
4345.9067221538571
 21
2391.0071410826558
 31
0.0
  0
LINE
  5
130D
  8
OUTLINE
 10
4342.6067221538551
 20
2392.0071410826558
 30
0.0
 11
4342.6067221538551
 21
2386.3571410826562
 31
0.0
  0
LINE
  5
1310
  8
OUTLINE
 10
4364.6067221538606
 20
880.3833249755935
 30
0.0
 11
4364.6067221538606
 21
872.38180418280638
 31
0.0
  0
LINE
  5
1311
  8
OUTLINE
 10
4342.6067221538578
 20
880.38332497559315
 30
0.0
 11
4342.6067221538551
 21
872.38180418280672
 31
0.0
  0
LINE
  5
1313
  8
OUTLINE
 10
4342.6067221538624
 20
873.38180418280695
 30
0.0
 11
4298.6067221538569
 21
873.38180418280706
 31
0.0
  0
LINE
  5
1314
  8
OUTLINE
 10
4364.6067221538606
 20
872.38180418280638
 30
0.0
 11
4342.6067221538551
 21
872.38180418280672
 31
0.0
  0
LINE
  5
134F
  8
OUTLINE
 62
    52
 10
1710.1273552441
 20
1331.383324975593
 30
0.0
 11
1710.1273552441
 21
1483.9742080883191
 31
0.0
  0
LINE
  5
1350
  8
OUTLINE
 62
    52
 10
2424.1273552441012
 20
1340.383324975593
 30
0.0
 11
2424.1273552441012
 21
1483.9742080883191
 31
0.0
  0
LINE
  5
1351
  8
OUTLINE
 62
    52
 10
1747.6273552441
 20
1463.9742080883191
 30
0.0
 11
1952.1273552441
 21
1463.9742080883191
 31
0.0
  0
LINE
  5
1352
  8
OUTLINE
 62
    52
 10
2386.6273552441012
 20
1463.9742080883191
 30
0.0
 11
2182.1273552440998
 21
1463.9742080883191
 31
0.0
  0
SOLID
  5
1353
  8
OUTLINE
 62
    52
 10
1747.6273552441
 20
1470.2242080883191
 30
0.0
 11
1747.6273552441
 21
1457.7242080883179
 31
0.0
 12
1710.1273552441
 22
1463.9742080883191
 32
0.0
 13
1710.1273552441
 23
1463.9742080883191
 33
0.0
  0
SOLID
  5
1354
  8
OUTLINE
 62
    52
 10
2386.6273552441012
 20
1470.2242080883191
 30
0.0
 11
2386.6273552441012
 21
1457.7242080883179
 31
0.0
 12
2424.1273552441012
 22
1463.9742080883191
 32
0.0
 13
2424.1273552441012
 23
1463.9742080883191
 33
0.0
  0
INSERT
  5
1355
  8
OUTLINE
  2
*U4
 10
0.0
 20
0.0
 30
0.0
  0
LINE
  5
135D
  8
OUTLINE
 10
4298.6067221538542
 20
798.38332497559327
 30
0.0
 11
2762.6067221538542
 21
798.38332497559372
 31
0.0
  0
LINE
  5
135F
  8
OUTLINE
  6
HIDDEN2
 10
4358.6067221538606
 20
951.7318041828072
 30
0.0
 11
4358.6067221538606
 21
937.03180418280635
 31
0.0
  0
LINE
  5
1360
  8
OUTLINE
  6
HIDDEN2
 10
4345.9067221538608
 20
951.7318041828072
 30
0.0
 11
4345.9067221538608
 21
937.03180418280635
 31
0.0
  0
LINE
  5
1361
  8
OUTLINE
  6
HIDDEN2
 10
4364.6067221538606
 20
896.38180418280706
 30
0.0
 11
4364.6067221538606
 21
880.3833249755935
 31
0.0
  0
LINE
  5
1362
  8
OUTLINE
  6
HIDDEN2
 10
4342.6067221538624
 20
896.38180418280751
 30
0.0
 11
4342.6067221538578
 21
880.3833249755935
 31
0.0
  0
LINE
  5
1365
  8
OUTLINE
  6
HIDDEN2
 10
4342.6067221538624
 20
895.38180418280751
 30
0.0
 11
4298.6067221538569
 21
895.38180418280842
 31
0.0
  0
LINE
  5
1366
  8
OUTLINE
  6
HIDDEN2
 10
4364.6067221538606
 20
896.38180418280706
 30
0.0
 11
4342.6067221538624
 21
896.38180418280751
 31
0.0
  0
LINE
  5
1367
  8
OUTLINE
  6
HIDDEN2
 10
4345.9067221538608
 20
938.03180418280635
 30
0.0
 11
4298.6067221538569
 21
938.03180418280635
 31
0.0
  0
LINE
  5
1368
  8
OUTLINE
  6
HIDDEN2
 10
4358.6067221538606
 20
937.03180418280635
 30
0.0
 11
4345.9067221538608
 21
937.03180418280635
 31
0.0
  0
LINE
  5
1369
  8
OUTLINE
  6
HIDDEN2
 10
4345.9067221538608
 20
950.73180418280674
 30
0.0
 11
4298.6067221538569
 21
950.73180418280674
 31
0.0
  0
LINE
  5
136A
  8
OUTLINE
  6
HIDDEN2
 10
4358.6067221538606
 20
951.7318041828072
 30
0.0
 11
4345.9067221538608
 21
951.7318041828072
 31
0.0
  0
TEXT
  5
136B
  8
TEXT
 10
1793.567722866648
 20
825.13932225317035
 30
0.0
 40
63.28125
  1
ISD210KG-DN
 41
0.88167142753062
  7
TITLE5
 72
     5
 11
2346.1867783367329
 21
825.13932225317035
 31
0.0
  0
LINE
  5
139D
  8
OUTLINE
 62
    52
 10
1754.127355244101
 20
1367.383324975594
 30
0.0
 11
1560.6897320636219
 21
1367.383324975594
 31
0.0
  0
LINE
  5
139E
  8
OUTLINE
 62
    52
 10
1754.1273552440971
 20
798.3818041828066
 30
0.0
 11
1560.6897320636219
 21
798.38180418280672
 31
0.0
  0
LINE
  5
139F
  8
OUTLINE
 62
    52
 10
1580.689732063621
 20
1329.883324975593
 30
0.0
 11
1580.689732063621
 21
1202.8825645792001
 31
0.0
  0
LINE
  5
13A0
  8
OUTLINE
 62
    52
 10
1580.689732063621
 20
835.88180418280672
 30
0.0
 11
1580.689732063621
 21
962.88256457920022
 31
0.0
  0
SOLID
  5
13A1
  8
OUTLINE
 62
    52
 10
1574.4397320636219
 20
1329.883324975593
 30
0.0
 11
1586.9397320636219
 21
1329.883324975593
 31
0.0
 12
1580.689732063621
 22
1367.383324975594
 32
0.0
 13
1580.689732063621
 23
1367.383324975594
 33
0.0
  0
SOLID
  5
13A2
  8
OUTLINE
 62
    52
 10
1574.4397320636219
 20
835.88180418280672
 30
0.0
 11
1586.9397320636219
 21
835.88180418280672
 31
0.0
 12
1580.689732063621
 22
798.38180418280672
 32
0.0
 13
1580.689732063621
 23
798.38180418280672
 33
0.0
  0
INSERT
  5
13A3
  8
OUTLINE
  2
*U5
 10
0.0
 20
0.0
 30
0.0
  0
LINE
  5
13AB
  8
OUTLINE
 62
    52
 10
4369.606722153856
 20
841.38180418280649
 30
0.0
 11
4490.2072777001922
 21
841.38180418280649
 31
0.0
  0
LINE
  5
13AD
  8
OUTLINE
 62
    52
 10
4470.2072777001922
 20
878.88180418280649
 30
0.0
 11
4470.2072777001922
 21
916.38180418280649
 31
0.0
  0
LINE
  5
13AE
  8
OUTLINE
 62
    52
 10
4470.2072777001922
 20
760.88332497559315
 30
0.0
 11
4470.2072777001922
 21
723.38332497559327
 31
0.0
  0
SOLID
  5
13AF
  8
OUTLINE
 62
    52
 10
4463.9572777001922
 20
878.88180418280649
 30
0.0
 11
4476.4572777001922
 21
878.88180418280649
 31
0.0
 12
4470.2072777001922
 22
841.38180418280649
 32
0.0
 13
4470.2072777001922
 23
841.38180418280649
 33
0.0
  0
SOLID
  5
13B0
  8
OUTLINE
 62
    52
 10
4463.9572777001922
 20
760.88332497559315
 30
0.0
 11
4476.4572777001922
 21
760.88332497559315
 31
0.0
 12
4470.2072777001922
 22
798.38332497559315
 32
0.0
 13
4470.2072777001922
 23
798.38332497559315
 33
0.0
  0
LINE
  5
13B3
  8
OUTLINE
 62
    52
 10
4384.6067221538606
 20
884.3818041828066
 30
0.0
 11
4565.0950381653838
 21
884.3818041828066
 31
0.0
  0
LINE
  5
13B5
  8
OUTLINE
 62
    52
 10
4545.0950381653838
 20
921.8818041828066
 30
0.0
 11
4545.0950381653838
 21
959.3818041828066
 31
0.0
  0
LINE
  5
13B6
  8
OUTLINE
 62
    52
 10
4545.0950381653838
 20
760.88332497559315
 30
0.0
 11
4545.0950381653838
 21
723.38332497559327
 31
0.0
  0
SOLID
  5
13B7
  8
OUTLINE
 62
    52
 10
4538.8450381653829
 20
921.8818041828066
 30
0.0
 11
4551.3450381653847
 21
921.8818041828066
 31
0.0
 12
4545.0950381653838
 22
884.3818041828066
 32
0.0
 13
4545.0950381653838
 23
884.3818041828066
 33
0.0
  0
SOLID
  5
13B8
  8
OUTLINE
 62
    52
 10
4538.8450381653829
 20
760.88332497559315
 30
0.0
 11
4551.3450381653847
 21
760.88332497559315
 31
0.0
 12
4545.0950381653838
 22
798.38332497559315
 32
0.0
 13
4545.0950381653838
 23
798.38332497559315
 33
0.0
  0
LINE
  5
13BA
  8
OUTLINE
 62
    52
 10
4378.6067221538578
 20
944.3818041828066
 30
0.0
 11
4655.6596832725454
 21
944.3818041828066
 31
0.0
  0
LINE
  5
13BC
  8
OUTLINE
 62
    52
 10
4635.6596832725418
 20
906.8818041828066
 30
0.0
 11
4635.6596832725418
 21
798.38332497559315
 31
0.0
  0
LINE
  5
13BD
  8
OUTLINE
 62
    52
 10
4635.6596832725418
 20
798.38332497559315
 30
0.0
 11
4635.6596832725418
 21
760.88332497559315
 31
0.0
  0
SOLID
  5
13BE
  8
OUTLINE
 62
    52
 10
4629.4096832725436
 20
906.8818041828066
 30
0.0
 11
4641.9096832725427
 21
906.8818041828066
 31
0.0
 12
4635.6596832725418
 22
944.3818041828066
 32
0.0
 13
4635.6596832725418
 23
944.3818041828066
 33
0.0
  0
SOLID
  5
13BF
  8
OUTLINE
 62
    52
 10
4629.4096832725436
 20
835.88332497559315
 30
0.0
 11
4641.9096832725427
 21
835.88332497559315
 31
0.0
 12
4635.6596832725418
 22
798.38332497559315
 32
0.0
 13
4635.6596832725418
 23
798.38332497559315
 33
0.0
  0
LINE
  5
13C1
  8
OUTLINE
 62
    52
 10
2759.8067221538608
 20
2485.3571410826671
 30
0.0
 11
2628.2813437218888
 21
2485.3571410826671
 31
0.0
  0
LINE
  5
13C2
  8
OUTLINE
 62
    52
 10
2759.8067221538608
 20
1805.3571410826639
 30
0.0
 11
2628.2813437218888
 21
1805.3571410826639
 31
0.0
  0
LINE
  5
13C3
  8
OUTLINE
 62
    52
 10
2648.2813437218888
 20
2447.8571410826671
 30
0.0
 11
2648.2813437218888
 21
2277.8571410826671
 31
0.0
  0
LINE
  5
13C4
  8
OUTLINE
 62
    52
 10
2648.2813437218888
 20
1842.8571410826639
 30
0.0
 11
2648.2813437218888
 21
2012.8571410826651
 31
0.0
  0
SOLID
  5
13C5
  8
OUTLINE
 62
    52
 10
2642.0313437218879
 20
2447.8571410826671
 30
0.0
 11
2654.5313437218911
 21
2447.8571410826671
 31
0.0
 12
2648.2813437218888
 22
2485.3571410826671
 32
0.0
 13
2648.2813437218888
 23
2485.3571410826671
 33
0.0
  0
SOLID
  5
13C6
  8
OUTLINE
 62
    52
 10
2642.0313437218879
 20
1842.8571410826639
 30
0.0
 11
2654.5313437218911
 21
1842.8571410826639
 31
0.0
 12
2648.2813437218888
 22
1805.3571410826639
 32
0.0
 13
2648.2813437218888
 23
1805.3571410826639
 33
0.0
  0
INSERT
  5
13C7
  8
OUTLINE
  2
*U9
 10
0.0
 20
0.0
 30
0.0
  0
LINE
  5
13CF
  8
OUTLINE
 62
    52
 10
2779.1067221538619
 20
2505.3571410826671
 30
0.0
 11
2779.1067221538619
 21
2701.0049619601191
 31
0.0
  0
LINE
  5
13D0
  8
OUTLINE
 62
    52
 10
4282.1067221538469
 20
2505.3571410826671
 30
0.0
 11
4282.1067221538469
 21
2701.0049619601191
 31
0.0
  0
LINE
  5
13D1
  8
OUTLINE
 62
    52
 10
2816.6067221538619
 20
2681.0049619601191
 30
0.0
 11
3388.1067221538542
 21
2681.0049619601191
 31
0.0
  0
LINE
  5
13D2
  8
OUTLINE
 62
    52
 10
4244.6067221538469
 20
2681.0049619601191
 30
0.0
 11
3673.106722153856
 21
2681.0049619601191
 31
0.0
  0
SOLID
  5
13D3
  8
OUTLINE
 62
    52
 10
2816.6067221538619
 20
2687.2549619601191
 30
0.0
 11
2816.6067221538619
 21
2674.7549619601191
 31
0.0
 12
2779.1067221538619
 22
2681.0049619601191
 32
0.0
 13
2779.1067221538619
 23
2681.0049619601191
 33
0.0
  0
SOLID
  5
13D4
  8
OUTLINE
 62
    52
 10
4244.6067221538469
 20
2687.2549619601191
 30
0.0
 11
4244.6067221538469
 21
2674.7549619601191
 31
0.0
 12
4282.1067221538469
 22
2681.0049619601191
 32
0.0
 13
4282.1067221538469
 23
2681.0049619601191
 33
0.0
  0
INSERT
  5
13D5
  8
OUTLINE
  2
*U10
 10
0.0
 20
0.0
 30
0.0
  0
LINE
  5
13D6
  8
OUTLINE
 62
    52
 10
2755.6067221538569
 20
1352.1833249755939
 30
0.0
 11
2755.6067221538569
 21
1484.9163646462421
 31
0.0
  0
LINE
  5
13D7
  8
OUTLINE
 62
    52
 10
4402.606722153856
 20
1344.383324975593
 30
0.0
 11
4402.606722153856
 21
1484.9163646462421
 31
0.0
  0
LINE
  5
13D8
  8
OUTLINE
 62
    52
 10
2793.1067221538569
 20
1464.9163646462421
 30
0.0
 11
3449.1067221538569
 21
1464.9163646462421
 31
0.0
  0
LINE
  5
13D9
  8
OUTLINE
 62
    52
 10
4365.106722153856
 20
1464.9163646462421
 30
0.0
 11
3709.1067221538569
 21
1464.9163646462421
 31
0.0
  0
SOLID
  5
13DA
  8
OUTLINE
 62
    52
 10
2793.1067221538569
 20
1471.1663646462421
 30
0.0
 11
2793.1067221538569
 21
1458.6663646462421
 31
0.0
 12
2755.6067221538569
 22
1464.9163646462421
 32
0.0
 13
2755.6067221538569
 23
1464.9163646462421
 33
0.0
  0
SOLID
  5
13DB
  8
OUTLINE
 62
    52
 10
4365.106722153856
 20
1471.1663646462421
 30
0.0
 11
4365.106722153856
 21
1458.6663646462421
 31
0.0
 12
4402.606722153856
 22
1464.9163646462421
 32
0.0
 13
4402.606722153856
 23
1464.9163646462421
 33
0.0
  0
INSERT
  5
13DC
  8
OUTLINE
  2
*U11
 10
0.0
 20
0.0
 30
0.0
  0
LINE
  5
13E6
  8
OUTLINE
 62
    52
 10
3018.606722153856
 20
1768.3571410826639
 30
0.0
 11
3018.606722153856
 21
1706.976405355676
 31
0.0
  0
LINE
  5
13ED
  8
OUTLINE
 62
    52
 10
3018.606722153856
 20
1768.3571410826639
 30
0.0
 11
3018.606722153856
 21
1706.976405355676
 31
0.0
  0
LINE
  5
13EE
  8
OUTLINE
 62
    52
 10
3993.6067221538551
 20
1768.3571410826571
 30
0.0
 11
3993.6067221538551
 21
1706.976405355676
 31
0.0
  0
LINE
  5
13EF
  8
OUTLINE
 62
    52
 10
3056.106722153856
 20
1726.9764053556751
 30
0.0
 11
3446.1067221538551
 21
1726.9764053556751
 31
0.0
  0
LINE
  5
13F0
  8
OUTLINE
 62
    52
 10
3956.1067221538551
 20
1726.9764053556751
 30
0.0
 11
3566.1067221538551
 21
1726.9764053556751
 31
0.0
  0
SOLID
  5
13F1
  8
OUTLINE
 62
    52
 10
3056.106722153856
 20
1733.2264053556751
 30
0.0
 11
3056.106722153856
 21
1720.7264053556751
 31
0.0
 12
3018.606722153856
 22
1726.9764053556751
 32
0.0
 13
3018.606722153856
 23
1726.9764053556751
 33
0.0
  0
SOLID
  5
13F2
  8
OUTLINE
 62
    52
 10
3956.1067221538551
 20
1733.2264053556751
 30
0.0
 11
3956.1067221538551
 21
1720.7264053556751
 31
0.0
 12
3993.6067221538551
 22
1726.9764053556751
 32
0.0
 13
3993.6067221538551
 23
1726.9764053556751
 33
0.0
  0
INSERT
  5
13F3
  8
OUTLINE
  2
*U12
 10
0.0
 20
0.0
 30
0.0
  0
LINE
  5
13F4
  8
OUTLINE
 62
    52
 10
2755.606722153861
 20
1767.3571410826639
 30
0.0
 11
2755.606722153861
 21
1707.100589223955
 31
0.0
  0
LINE
  5
13F5
  8
OUTLINE
 62
    52
 10
3018.606722153856
 20
1768.3571410826639
 30
0.0
 11
3018.606722153856
 21
1707.100589223955
 31
0.0
  0
LINE
  5
13F6
  8
OUTLINE
 62
    52
 10
2793.106722153861
 20
1727.100589223955
 30
0.0
 11
2827.1067221538592
 21
1727.100589223955
 31
0.0
  0
LINE
  5
13F7
  8
OUTLINE
 62
    52
 10
2981.106722153856
 20
1727.100589223955
 30
0.0
 11
2947.1067221538578
 21
1727.100589223955
 31
0.0
  0
SOLID
  5
13F8
  8
OUTLINE
 62
    52
 10
2793.106722153861
 20
1733.350589223955
 30
0.0
 11
2793.106722153861
 21
1720.850589223955
 31
0.0
 12
2755.606722153861
 22
1727.100589223955
 32
0.0
 13
2755.606722153861
 23
1727.100589223955
 33
0.0
  0
SOLID
  5
13F9
  8
OUTLINE
 62
    52
 10
2981.106722153856
 20
1733.350589223955
 30
0.0
 11
2981.106722153856
 21
1720.850589223955
 31
0.0
 12
3018.606722153856
 22
1727.100589223955
 32
0.0
 13
3018.606722153856
 23
1727.100589223955
 33
0.0
  0
INSERT
  5
13FA
  8
OUTLINE
  2
*U13
 10
0.0
 20
0.0
 30
0.0
  0
LINE
  5
13FB
  8
OUTLINE
 62
    52
 10
2815.6067221538592
 20
2522.3571410826648
 30
0.0
 11
2815.6067221538592
 21
2587.7928924130192
 31
0.0
  0
LINE
  5
13FC
  8
OUTLINE
 62
    52
 10
2755.606722153861
 20
2523.3571410826671
 30
0.0
 11
2755.606722153861
 21
2587.7928924130192
 31
0.0
  0
LINE
  5
13FD
  8
OUTLINE
 62
    52
 10
2853.1067221538592
 20
2567.7928924130192
 30
0.0
 11
2890.6067221538592
 21
2567.7928924130192
 31
0.0
  0
LINE
  5
13FE
  8
OUTLINE
 62
    52
 10
2718.106722153861
 20
2567.7928924130192
 30
0.0
 11
2680.606722153861
 21
2567.7928924130192
 31
0.0
  0
SOLID
  5
13FF
  8
OUTLINE
 62
    52
 10
2853.1067221538592
 20
2574.0428924130192
 30
0.0
 11
2853.1067221538592
 21
2561.5428924130192
 31
0.0
 12
2815.6067221538592
 22
2567.7928924130192
 32
0.0
 13
2815.6067221538592
 23
2567.7928924130192
 33
0.0
  0
SOLID
  5
1400
  8
OUTLINE
 62
    52
 10
2718.106722153861
 20
2574.0428924130192
 30
0.0
 11
2718.106722153861
 21
2561.5428924130192
 31
0.0
 12
2755.606722153861
 22
2567.7928924130192
 32
0.0
 13
2755.606722153861
 23
2567.7928924130192
 33
0.0
  0
INSERT
  5
1401
  8
OUTLINE
  2
*U14
 10
0.0
 20
0.0
 30
0.0
  0
LINE
  5
1402
  8
OUTLINE
 62
    52
 10
2815.6067221538592
 20
2522.3571410826648
 30
0.0
 11
2815.6067221538592
 21
2587.7928924130192
 31
0.0
  0
LINE
  5
1403
  8
OUTLINE
 62
    52
 10
4194.606722153856
 20
2522.3571410826571
 30
0.0
 11
4194.606722153856
 21
2587.7928924130192
 31
0.0
  0
LINE
  5
1404
  8
OUTLINE
 62
    52
 10
2853.1067221538592
 20
2567.7928924130192
 30
0.0
 11
3435.1067221538601
 21
2567.7928924130192
 31
0.0
  0
LINE
  5
1405
  8
OUTLINE
 62
    52
 10
4157.1067221538578
 20
2567.7928924130192
 30
0.0
 11
3575.1067221538578
 21
2567.7928924130192
 31
0.0
  0
SOLID
  5
1406
  8
OUTLINE
 62
    52
 10
2853.1067221538592
 20
2574.0428924130192
 30
0.0
 11
2853.1067221538592
 21
2561.5428924130192
 31
0.0
 12
2815.6067221538592
 22
2567.7928924130192
 32
0.0
 13
2815.6067221538592
 23
2567.7928924130192
 33
0.0
  0
SOLID
  5
1407
  8
OUTLINE
 62
    52
 10
4157.1067221538578
 20
2574.0428924130192
 30
0.0
 11
4157.1067221538578
 21
2561.5428924130192
 31
0.0
 12
4194.606722153856
 22
2567.7928924130192
 32
0.0
 13
4194.606722153856
 23
2567.7928924130192
 33
0.0
  0
INSERT
  5
1408
  8
OUTLINE
  2
*U15
 10
0.0
 20
0.0
 30
0.0
  0
LINE
  5
1462
  8
OUTLINE
 62
    52
 10
1690.1273552441
 20
1311.383324975594
 30
0.0
 11
1619.9860426051421
 21
1311.383324975594
 31
0.0
  0
LINE
  5
1463
  8
OUTLINE
 62
    52
 10
1754.127355244101
 20
1367.383324975594
 30
0.0
 11
1619.9860426051421
 21
1367.383324975594
 31
0.0
  0
LINE
  5
1464
  8
OUTLINE
 62
    52
 10
1639.9860426051421
 20
1273.883324975594
 30
0.0
 11
1639.9860426051421
 21
1236.383324975594
 31
0.0
  0
LINE
  5
1465
  8
OUTLINE
 62
    52
 10
1639.9860426051421
 20
1404.883324975594
 30
0.0
 11
1639.9860426051421
 21
1442.383324975593
 31
0.0
  0
SOLID
  5
1466
  8
OUTLINE
 62
    52
 10
1633.7360426051421
 20
1273.883324975594
 30
0.0
 11
1646.2360426051421
 21
1273.883324975594
 31
0.0
 12
1639.9860426051421
 22
1311.383324975594
 32
0.0
 13
1639.9860426051421
 23
1311.383324975594
 33
0.0
  0
SOLID
  5
1467
  8
OUTLINE
 62
    52
 10
1633.7360426051421
 20
1404.883324975594
 30
0.0
 11
1646.2360426051421
 21
1404.883324975594
 31
0.0
 12
1639.9860426051421
 22
1367.383324975594
 32
0.0
 13
1639.9860426051421
 23
1367.383324975594
 33
0.0
  0
INSERT
  5
1468
  8
OUTLINE
  2
*U16
 10
0.0
 20
0.0
 30
0.0
  0
LINE
  5
1469
  8
OUTLINE
 62
    52
 10
1690.1273552441
 20
1311.383324975594
 30
0.0
 11
1620.3273666444909
 21
1311.383324975594
 31
0.0
  0
LINE
  5
146A
  8
OUTLINE
 62
    52
 10
1690.127355244098
 20
886.38332497559384
 30
0.0
 11
1620.3273666444909
 21
886.38332497559384
 31
0.0
  0
LINE
  5
146B
  8
OUTLINE
 62
    52
 10
1640.3273666444909
 20
1273.883324975594
 30
0.0
 11
1640.3273666444909
 21
1158.883324975594
 31
0.0
  0
LINE
  5
146C
  8
OUTLINE
 62
    52
 10
1640.3273666444909
 20
923.88332497559384
 30
0.0
 11
1640.3273666444909
 21
1038.883324975593
 31
0.0
  0
SOLID
  5
146D
  8
OUTLINE
 62
    52
 10
1634.0773666444909
 20
1273.883324975594
 30
0.0
 11
1646.57736664449
 21
1273.883324975594
 31
0.0
 12
1640.3273666444909
 22
1311.383324975594
 32
0.0
 13
1640.3273666444909
 23
1311.383324975594
 33
0.0
  0
SOLID
  5
146E
  8
OUTLINE
 62
    52
 10
1634.0773666444909
 20
923.88332497559384
 30
0.0
 11
1646.57736664449
 21
923.88332497559384
 31
0.0
 12
1640.3273666444909
 22
886.38332497559384
 32
0.0
 13
1640.3273666444909
 23
886.38332497559384
 33
0.0
  0
INSERT
  5
146F
  8
OUTLINE
  2
*U17
 10
0.0
 20
0.0
 30
0.0
  0
LINE
  5
1470
  8
OUTLINE
 62
    52
 10
2444.1273552441012
 20
1320.383324975593
 30
0.0
 11
2513.5219128713088
 21
1320.383324975593
 31
0.0
  0
LINE
  5
1471
  8
OUTLINE
 62
    52
 10
2380.1273552441012
 20
1367.383324975593
 30
0.0
 11
2513.5219128713088
 21
1367.383324975593
 31
0.0
  0
LINE
  5
1472
  8
OUTLINE
 62
    52
 10
2493.5219128713088
 20
1282.883324975593
 30
0.0
 11
2493.5219128713088
 21
1245.383324975593
 31
0.0
  0
LINE
  5
1473
  8
OUTLINE
 62
    52
 10
2493.5219128713088
 20
1404.883324975593
 30
0.0
 11
2493.5219128713088
 21
1442.383324975593
 31
0.0
  0
SOLID
  5
1474
  8
OUTLINE
 62
    52
 10
2487.2719128713088
 20
1282.883324975593
 30
0.0
 11
2499.7719128713088
 21
1282.883324975593
 31
0.0
 12
2493.5219128713088
 22
1320.383324975593
 32
0.0
 13
2493.5219128713088
 23
1320.383324975593
 33
0.0
  0
SOLID
  5
1475
  8
OUTLINE
 62
    52
 10
2487.2719128713088
 20
1404.883324975593
 30
0.0
 11
2499.7719128713088
 21
1404.883324975593
 31
0.0
 12
2493.5219128713088
 22
1367.383324975593
 32
0.0
 13
2493.5219128713088
 23
1367.383324975593
 33
0.0
  0
INSERT
  5
1476
  8
OUTLINE
  2
*U18
 10
0.0
 20
0.0
 30
0.0
  0
LINE
  5
1477
  8
OUTLINE
 62
    52
 10
2444.1273552441012
 20
1320.383324975593
 30
0.0
 11
2513.5219128713088
 21
1320.383324975593
 31
0.0
  0
LINE
  5
1478
  8
OUTLINE
 62
    52
 10
2444.1273552440989
 20
1020.383324975593
 30
0.0
 11
2513.5219128713088
 21
1020.383324975593
 31
0.0
  0
LINE
  5
1479
  8
OUTLINE
 62
    52
 10
2493.5219128713088
 20
1282.883324975593
 30
0.0
 11
2493.5219128713088
 21
1225.383324975593
 31
0.0
  0
LINE
  5
147A
  8
OUTLINE
 62
    52
 10
2493.5219128713088
 20
1057.883324975594
 30
0.0
 11
2493.5219128713088
 21
1115.383324975593
 31
0.0
  0
SOLID
  5
147B
  8
OUTLINE
 62
    52
 10
2487.2719128713088
 20
1282.883324975593
 30
0.0
 11
2499.7719128713088
 21
1282.883324975593
 31
0.0
 12
2493.5219128713088
 22
1320.383324975593
 32
0.0
 13
2493.5219128713088
 23
1320.383324975593
 33
0.0
  0
SOLID
  5
147C
  8
OUTLINE
 62
    52
 10
2487.2719128713088
 20
1057.883324975594
 30
0.0
 11
2499.7719128713088
 21
1057.883324975594
 31
0.0
 12
2493.5219128713088
 22
1020.383324975593
 32
0.0
 13
2493.5219128713088
 23
1020.383324975593
 33
0.0
  0
INSERT
  5
147D
  8
OUTLINE
  2
*U19
 10
0.0
 20
0.0
 30
0.0
  0
LINE
  5
16B5
  8
OUTLINE
  6
HIDDEN2
 10
2762.6067221538542
 20
798.38332497559372
 30
0.0
 11
2762.6067221538542
 21
804.38332497559372
 31
0.0
  0
LINE
  5
16B6
  8
OUTLINE
  6
HIDDEN2
 10
4298.6067221538542
 20
798.38332497559327
 30
0.0
 11
4298.6067221538542
 21
804.38332497559293
 31
0.0
  0
LINE
  5
16C5
  8
OUTLINE
 62
    52
 10
4310.2471508081208
 20
798.38332497559293
 30
0.0
 11
4655.6596832725454
 21
798.38332497559315
 31
0.0
  0
TEXT
  5
16D0
  8
OUTLINE
 62
    50
 10
4650.6596832725418
 20
670.88332497559395
 30
0.0
 40
30.0
  1
146
 50
90.0
  0
TEXT
  5
16D1
  8
OUTLINE
 62
    50
 10
4560.0950381653847
 20
653.38332497559395
 30
0.0
 40
30.0
  1
86
 50
90.0
  0
TEXT
  5
16D2
  8
OUTLINE
 62
    50
 10
4485.2072777001922
 20
653.38332497559395
 30
0.0
 40
30.0
  1
23
 50
90.0
  0
VIEWPORT
  5
D70
 67
     1
  8
0
 10
5.2499996395561652
 20
3.9999998836066761
 30
0.0
 40
15.91535696818293
 41
8.9929997457669462
 68
     1
 69
     1
1001
ACAD
1000
MVIEW
1002
{
1070
    16
1010
0.0
1020
0.0
1030
0.0
1010
0.0
1020
0.0
1030
1.0
1040
0.0
1040
8.9929997457669462
1040
5.2499996395561652
1040
3.9999998836066761
1040
50.0
1040
0.0
1040
0.0
1070
     0
1070
   100
1070
     1
1070
     1
1070
     0
1070
     0
1070
     0
1070
     0
1040
0.0
1040
0.0
1040
0.0
1040
10.0
1040
10.0
1040
10.0
1040
10.0
1070
     0
1002
{
1002
}
1002
}
1001
GENIUS_GENODEF_13
1002
{
1000
HIER
1070
     0
1002
}
1002
{
1000
MANEDIT
1070
     0
1002
}
1002
{
1000
NOSEL
1070
     0
1002
}
1002
{
1000
BEHIND
1070
     0
1002
}
1002
{
1000
OTHER
1070
     0
1002
}
1002
{
1000
REACTOR
1002
}
1001
GENIUS_GENOBJ-N-SDF_13
1002
{
1000
OWNER
1000
GEN
1002
}
1001
GENIUS_GENSCREG_15
1000
PF
1040
1.0
1000
DF
1040
1.0
1000
MIN
1011
-2.7076788445352991
1021
0.0
1031
0.0
1021
-0.4964999892767974
1031
0.0
1000
MAX
1011
13.20767812364763
1021
0.0
1031
0.0
1021
8.4964997564901488
1031
0.0
1000
FLAGS
1070
     4
  0
VIEWPORT
  5
D73
 67
     1
  8
OUTLINE
 10
5.24999976158142
 20
3.9999997615814191
 30
0.0
 40
8.3999996185302752
 41
6.3999996185302734
 68
     2
 69
     2
1001
ACAD
1000
MVIEW
1002
{
1070
    16
1010
0.0
1020
0.0
1030
0.0
1010
0.0
1020
0.0
1030
1.0
1040
0.0
1040
2932.4973450311322
1040
3261.3162163587608
1040
1454.3194139552311
1040
50.0
1040
0.0
1040
0.0
1070
     0
1070
   100
1070
     1
1070
     1
1070
     0
1070
     0
1070
     0
1070
     0
1040
0.0
1040
0.0
1040
0.0
1040
10.0
1040
10.0
1040
10.0
1040
10.0
1070
     0
1002
{
1002
}
1002
}
1001
GENIUS_GENODEF_13
1002
{
1000
HIER
1070
     0
1002
}
1002
{
1000
MANEDIT
1070
     0
1002
}
1002
{
1000
NOSEL
1070
     0
1002
}
1002
{
1000
BEHIND
1070
     0
1002
}
1002
{
1000
OTHER
1070
     0
1002
}
1002
{
1000
REACTOR
1002
}
1001
GENIUS_GENOBJ-N-SDF_13
1002
{
1000
OWNER
1000
GEN
1002
}
1001
GENIUS_GENSCREG_15
1000
PF
1040
0.0
1000
DF
1040
0.0
1000
MIN
1011
1.049999952316282
1021
0.0
1031
0.0
1021
0.7999999523162824
1031
0.0
1000
MAX
1011
9.4499995708465576
1021
0.0
1031
0.0
1021
7.199999570846555
1031
0.0
1000
FLAGS
1070
     4
  0
ENDSEC
  0
EOF
