  0
SECTION
  2
HEADER
  9
$ACADVER
  1
AC1009
  9
$INSBASE
 10
0.0
 20
0.0
 30
0.0
  9
$EXTMIN
 10
975.47646208097501
 20
0.0
 30
0.0
  9
$EXTMAX
 10
3890.0
 20
2660.0
 30
0.0
  9
$LIMMIN
 10
0.0
 20
0.0
  9
$LIMMAX
 10
3890.0
 20
2660.0
  9
$ORTHOMODE
 70
     1
  9
$REGENMODE
 70
     1
  9
$FILLMODE
 70
     1
  9
$QTEXTMODE
 70
     0
  9
$MIRRTEXT
 70
     0
  9
$DRAGMODE
 70
     2
  9
$LTSCALE
 40
100.0
  9
$OSMODE
 70
     0
  9
$ATTMODE
 70
     1
  9
$TEXTSIZE
 40
30.0
  9
$TRACEWID
 40
0.05
  9
$TEXTSTYLE
  7
TITLE3
  9
$CLAYER
  8
DIM
  9
$CELTYPE
  6
BYLAYER
  9
$CECOLOR
 62
   256
  9
$DIMSCALE
 40
1.0
  9
$DIMASZ
 40
0.12
  9
$DIMEXO
 40
0.05
  9
$DIMDLI
 40
0.5
  9
$DIMRND
 40
0.0
  9
$DIMDLE
 40
0.0
  9
$DIMEXE
 40
0.1
  9
$DIMTP
 40
0.1
  9
$DIMTM
 40
0.1
  9
$DIMTXT
 40
0.12
  9
$DIMCEN
 40
0.0
  9
$DIMTSZ
 40
0.0
  9
$DIMTOL
 70
     0
  9
$DIMLIM
 70
     0
  9
$DIMTIH
 70
     1
  9
$DIMTOH
 70
     1
  9
$DIMSE1
 70
     0
  9
$DIMSE2
 70
     0
  9
$DIMTAD
 70
     0
  9
$DIMZIN
 70
     7
  9
$DIMBLK
  1

  9
$DIMASO
 70
     0
  9
$DIMSHO
 70
     0
  9
$DIMPOST
  1

  9
$DIMAPOST
  1
mm
  9
$DIMALT
 70
     0
  9
$DIMALTD
 70
     2
  9
$DIMALTF
 40
25.399999999999999
  9
$DIMLFAC
 40
1.0
  9
$DIMTOFL
 70
     0
  9
$DIMTVP
 40
0.0
  9
$DIMTIX
 70
     0
  9
$DIMSOXD
 70
     0
  9
$DIMSAH
 70
     0
  9
$DIMBLK1
  1

  9
$DIMBLK2
  1

  9
$DIMSTYLE
  2
AM_ANSI
  9
$DIMCLRD
 70
   256
  9
$DIMCLRE
 70
   256
  9
$DIMCLRT
 70
     2
  9
$DIMTFAC
 40
0.71
  9
$DIMGAP
 40
0.06
  9
$LUNITS
 70
     2
  9
$LUPREC
 70
     2
  9
$SKETCHINC
 40
0.1
  9
$FILLETRAD
 40
0.0
  9
$AUNITS
 70
     0
  9
$AUPREC
 70
     2
  9
$MENU
  1
\acad12\support\cnc
  9
$ELEVATION
 40
0.0
  9
$PELEVATION
 40
0.0
  9
$THICKNESS
 40
0.0
  9
$LIMCHECK
 70
     0
  9
$BLIPMODE
 70
     0
  9
$CHAMFERA
 40
0.0
  9
$CHAMFERB
 40
0.0
  9
$SKPOLY
 70
     0
  9
$TDCREATE
 40
2450764.4272488421
  9
$TDUPDATE
 40
2454699.4966436811
  9
$TDINDWG
 40
0.1138293981
  9
$TDUSRTIMER
 40
0.113829213
  9
$USRTIMER
 70
     1
  9
$ANGBASE
 50
0.0
  9
$ANGDIR
 70
     0
  9
$PDMODE
 70
     2
  9
$PDSIZE
 40
10.0
  9
$PLINEWID
 40
0.0
  9
$COORDS
 70
     1
  9
$SPLFRAME
 70
     0
  9
$SPLINETYPE
 70
     6
  9
$SPLINESEGS
 70
     8
  9
$ATTDIA
 70
     1
  9
$ATTREQ
 70
     1
  9
$HANDLING
 70
     1
  9
$HANDSEED
  5
1637
  9
$SURFTAB1
 70
     6
  9
$SURFTAB2
 70
     6
  9
$SURFTYPE
 70
     6
  9
$SURFU
 70
     6
  9
$SURFV
 70
     6
  9
$UCSNAME
  2

  9
$UCSORG
 10
0.0
 20
0.0
 30
0.0
  9
$UCSXDIR
 10
1.0
 20
0.0
 30
0.0
  9
$UCSYDIR
 10
0.0
 20
1.0
 30
0.0
  9
$PUCSNAME
  2

  9
$PUCSORG
 10
0.0
 20
0.0
 30
0.0
  9
$PUCSXDIR
 10
1.0
 20
0.0
 30
0.0
  9
$PUCSYDIR
 10
0.0
 20
1.0
 30
0.0
  9
$USERI1
 70
     0
  9
$USERI2
 70
     0
  9
$USERI3
 70
     0
  9
$USERI4
 70
     0
  9
$USERI5
 70
     0
  9
$USERR1
 40
0.0
  9
$USERR2
 40
0.0
  9
$USERR3
 40
0.0
  9
$USERR4
 40
0.0
  9
$USERR5
 40
0.0
  9
$WORLDVIEW
 70
     1
  9
$SHADEDGE
 70
     3
  9
$SHADEDIF
 70
    70
  9
$TILEMODE
 70
     1
  9
$MAXACTVP
 70
    16
  9
$PLIMCHECK
 70
     0
  9
$PEXTMIN
 10
1.0000000000000000E+020
 20
1.0000000000000000E+020
 30
1.0000000000000000E+020
  9
$PEXTMAX
 10
-1.0000000000000000E+020
 20
-1.0000000000000000E+020
 30
-1.0000000000000000E+020
  9
$PLIMMIN
 10
0.0
 20
0.0
  9
$PLIMMAX
 10
12.0
 20
9.0
  9
$UNITMODE
 70
     0
  9
$VISRETAIN
 70
     0
  9
$PLINEGEN
 70
     0
  9
$PSLTSCALE
 70
     0
  0
ENDSEC
  0
SECTION
  2
TABLES
  0
TABLE
  2
VPORT
 70
     1
  0
VPORT
  2
*ACTIVE
 70
     0
 10
0.0
 20
0.0
 11
1.0
 21
1.0
 12
2481.734272327637
 22
1414.958119396669
 13
0.0
 23
0.0
 14
25.0
 24
25.0
 15
100.0
 25
100.0
 16
0.0
 26
0.0
 36
1.0
 17
0.0
 27
0.0
 37
0.0
 40
2859.3953166356132
 41
1.5308953341740219
 42
50.0
 43
0.0
 44
0.0
 50
0.0
 51
0.0
 71
     0
 72
   100
 73
     1
 74
     0
 75
     0
 76
     0
 77
     0
 78
     0
  0
ENDTAB
  0
TABLE
  2
LTYPE
 70
    17
  0
LTYPE
  2
CONTINUOUS
 70
     0
  3
Solid line
 72
    65
 73
     0
 40
0.0
  0
LTYPE
  2
HIDDEN
 70
     0
  3
_ _ _ _ _ _ _ _ _ _ _ _ _ _ _ _ _ _ _ _ _ _ _
 72
    65
 73
     2
 40
0.375
 49
0.25
 49
-0.125
  0
LTYPE
  2
PHANTOM
 70
     0
  3
Phantom ______  __  __  ______  __  __  ______
 72
    65
 73
     6
 40
2.5
 49
1.25
 49
-0.25
 49
0.25
 49
-0.25
 49
0.25
 49
-0.25
  0
LTYPE
  2
PHANTOM2
 70
     0
  3
Phantom (.5x) ___ _ _ ___ _ _ ___ _ _ ___ _ _
 72
    65
 73
     6
 40
1.25
 49
0.625
 49
-0.125
 49
0.125
 49
-0.125
 49
0.125
 49
-0.125
  0
LTYPE
  2
CENTER
 70
     0
  3
Center ____ _ ____ _ ____ _ ____ _ ____ _ ____
 72
    65
 73
     4
 40
2.0
 49
1.25
 49
-0.25
 49
0.25
 49
-0.25
  0
LTYPE
  2
AM_ISO02W050
 70
     0
  3
__ __ __ __ __ __ __ __ __ __ __ __ __ __ __
 72
    65
 73
     2
 40
7.5
 49
6.0
 49
-1.5
  0
LTYPE
  2
AM_ISO08W050
 70
     0
  3
____ . ____ . ____ . ____ . ____ . ____ . ____
 72
    65
 73
     4
 40
18.0
 49
12.0
 49
-1.5
 49
3.0
 49
-1.5
  0
LTYPE
  2
AM_ISO09W050
 70
     0
  3
_____ . . _____ . . _____ . . ____ .. ____
 72
    65
 73
     6
 40
22.5
 49
12.0
 49
-1.5
 49
3.0
 49
-1.5
 49
3.0
 49
-1.5
  0
LTYPE
  2
AMCONSTR
 70
     0
  3
_______________________
 72
    65
 73
     2
 40
9999.0
 49
9999.0
 49
0.0
  0
LTYPE
  2
AM_ISO08W050X2
 70
     0
  3
__ . __ . __ . __ . __ . __
 72
    65
 73
     4
 40
9.0
 49
6.0
 49
-0.75
 49
1.5
 49
-0.75
  0
LTYPE
  2
AM_ISO02W050X2
 70
     0
  3
 _ _ _ _ _ _ _ _ _ _ _ _
 72
    65
 73
     2
 40
3.75
 49
3.0
 49
-0.75
  0
LTYPE
  2
AMZIGZAG
 70
     0
  3
/\/-/\/-/\/-/\/-/\/-/\/
 72
    65
 73
     2
 40
11.0001
 49
0.0001
 49
-11.0
  0
LTYPE
  2
CENTER2
 70
     0
  3
Center (.5x) ___ _ ___ _ ___ _ ___ _ ___ _ ___
 72
    65
 73
     4
 40
1.125
 49
0.75
 49
-0.125
 49
0.125
 49
-0.125
  0
LTYPE
  2
HIDDEN2
 70
     0
  3
Hidden (.5x) _ _ _ _ _ _ _ _ _ _ _ _ _ _ _ _ _
 72
    65
 73
     2
 40
0.1875
 49
0.125
 49
-0.0625
  0
LTYPE
  2
AMZIGZAG2
 70
     0
  3
/\/-/\/-/\/-/\/-/\/-/\/
 72
    65
 73
     2
 40
0.4401
 49
0.0001
 49
-0.4400000000000001
  0
LTYPE
  2
ACANSTGB
 70
     0
  3
__ . . __ . .
 72
    65
 73
     6
 40
0.35433070866
 49
0.15748031496
 49
-0.03937007874
 49
0.03937007874
 49
-0.03937007874
 49
0.03937007874
 49
-0.03937007874
  0
LTYPE
  2
ACANSTGL
 70
     0
  3
_ _ _ _ _
 72
    65
 73
     2
 40
0.11811023622
 49
0.07874015748
 49
-0.03937007874
  0
ENDTAB
  0
TABLE
  2
LAYER
 70
     6
  0
LAYER
  2
0
 70
     0
 62
     7
  6
CONTINUOUS
  0
LAYER
  2
DIM
 70
     0
 62
     7
  6
CONTINUOUS
  0
LAYER
  2
TEXT
 70
     0
 62
   100
  6
CONTINUOUS
  0
LAYER
  2
OVERLAY-A3
 70
     0
 62
     7
  6
CONTINUOUS
  0
LAYER
  2
OUTLINE
 70
     0
 62
     7
  6
CONTINUOUS
  0
LAYER
  2
CLEAR
 70
     0
 62
     1
  6
PHANTOM
  0
ENDTAB
  0
TABLE
  2
STYLE
 70
     8
  0
STYLE
  2
STANDARD
 70
     0
 40
0.0
 41
1.0
 50
0.0
 71
     0
 42
0.2
  3
txt
  4

  0
STYLE
  2
ANNOTATIVE
 70
     0
 40
0.0
 41
1.0
 50
0.0
 71
     0
 42
0.2
  3
txt
  4

  0
STYLE
  2
TITLE3
 70
     0
 40
30.0
 41
1.0
 50
0.0
 71
     0
 42
30.0
  3
SIMPLEX
  4

  0
STYLE
  2
SIMPLEX
 70
     0
 40
40.0
 41
1.0
 50
0.0
 71
     0
 42
25.0
  3
SIMPLEX
  4

  0
STYLE
  2
TITLE5
 70
     0
 40
50.0
 41
1.0
 50
0.0
 71
     0
 42
50.0
  3
SIMPLEX.shx
  4

  0
STYLE
  2

 70
     1
 40
0.0
 41
1.0
 50
0.0
 71
     0
 42
30.0
  3
genltshp.shx
  4

  0
STYLE
  2
ACANSTS
 70
     0
 40
1.0
 41
1.0
 50
0.0
 71
     0
 42
30.0
  3
romans.shx
  4

  0
STYLE
  2
ACANSGDT
 70
     0
 40
0.0
 41
1.0
 50
0.0
 71
     0
 42
30.0
  3
amgdt.shx
  4

  0
ENDTAB
  0
TABLE
  2
VIEW
 70
     0
  0
ENDTAB
  0
TABLE
  2
UCS
 70
     0
  0
ENDTAB
  0
TABLE
  2
APPID
 70
    10
  0
APPID
  2
ACAD
 70
     0
  0
APPID
  2
ACADANNOTATIVE
 70
     0
  0
APPID
  2
ACAD_MLEADERVER
 70
     0
  0
APPID
  2
MCAD_NO_VIS
 70
     0
  0
APPID
  2
ACAD_TEMP_GRAPHIC
 70
     0
  0
APPID
  2
AD_DRAW
 70
     0
  0
APPID
  2
ACATTRIBSERVICES
 70
     0
  0
APPID
  2
DESIGNERASSEMBLIES
 70
     0
  0
APPID
  2
ACADM_DIM_EDIT
 70
     0
  0
APPID
  2
AMDT_DM_ADJ
 70
     0
  0
ENDTAB
  0
TABLE
  2
DIMSTYLE
 70
     8
  0
DIMSTYLE
  2
STANDARD
 70
     0
  3

  4

  5

  6

  7

 40
1.0
 41
0.18
 42
0.0625
 43
0.38
 44
0.18
 45
0.0
 46
0.0
 47
0.0
 48
0.0
140
0.18
141
0.09
142
0.0
143
25.399999999999999
144
1.0
145
0.0
146
1.0
147
0.09
 71
     0
 72
     0
 73
     1
 74
     1
 75
     0
 76
     0
 77
     0
 78
     0
170
     0
171
     2
172
     0
173
     0
174
     0
175
     0
176
     0
177
     0
178
     0
  0
DIMSTYLE
  2
ANNOTATIVE
 70
     0
  3

  4

  5

  6

  7

 40
1.0
 41
0.18
 42
0.0625
 43
0.38
 44
0.18
 45
0.0
 46
0.0
 47
0.0
 48
0.0
140
0.18
141
0.09
142
0.0
143
25.399999999999999
144
1.0
145
0.0
146
1.0
147
0.09
 71
     0
 72
     0
 73
     1
 74
     1
 75
     0
 76
     0
 77
     0
 78
     0
170
     0
171
     2
172
     0
173
     0
174
     0
175
     0
176
     0
177
     0
178
     0
  0
DIMSTYLE
  2
AM_ANSI
 70
     0
  3

  4
mm
  5

  6

  7

 40
1.0
 41
0.12
 42
0.05
 43
0.5
 44
0.1
 45
0.0
 46
0.0
 47
0.1
 48
0.1
140
0.12
141
0.0
142
0.0
143
25.399999999999999
144
1.0
145
0.0
146
0.71
147
0.06
 71
     0
 72
     0
 73
     1
 74
     1
 75
     0
 76
     0
 77
     0
 78
     7
170
     0
171
     2
172
     0
173
     0
174
     0
175
     0
176
   256
177
   256
178
     2
  0
DIMSTYLE
  2
AM_ANSI$3
 70
     0
  3

  4
mm
  5

  6

  7

 40
1.0
 41
0.12
 42
0.05
 43
0.5
 44
0.1
 45
0.0
 46
0.0
 47
0.1
 48
0.1
140
0.12
141
0.0
142
0.0
143
25.399999999999999
144
1.0
145
0.0
146
0.71
147
0.06
 71
     0
 72
     0
 73
     1
 74
     1
 75
     0
 76
     0
 77
     0
 78
     7
170
     0
171
     2
172
     0
173
     0
174
     0
175
     0
176
   256
177
   256
178
     2
  0
DIMSTYLE
  2
AM_ANSI$4
 70
     0
  3

  4
mm
  5

  6

  7

 40
1.0
 41
0.12
 42
0.05
 43
0.5
 44
0.1
 45
0.0
 46
0.0
 47
0.1
 48
0.1
140
0.12
141
0.0
142
0.0
143
25.399999999999999
144
1.0
145
0.0
146
0.71
147
0.06
 71
     0
 72
     0
 73
     1
 74
     1
 75
     0
 76
     0
 77
     0
 78
     7
170
     0
171
     2
172
     0
173
     0
174
     0
175
     0
176
   256
177
   256
178
     2
  0
DIMSTYLE
  2
AM_ANSI$7
 70
     0
  3

  4
mm
  5

  6

  7

 40
1.0
 41
0.12
 42
0.05
 43
0.5
 44
0.1
 45
0.0
 46
0.0
 47
0.1
 48
0.1
140
0.12
141
0.0
142
0.0
143
25.399999999999999
144
1.0
145
0.0
146
0.71
147
0.06
 71
     0
 72
     0
 73
     1
 74
     1
 75
     0
 76
     0
 77
     0
 78
     7
170
     0
171
     2
172
     0
173
     0
174
     0
175
     0
176
   256
177
   256
178
     2
  0
DIMSTYLE
  2
AM_ANSI$SF
 70
     0
  3

  4
mm
  5

  6

  7

 40
1.0
 41
0.12
 42
0.05
 43
0.5
 44
0.1
 45
0.0
 46
0.0
 47
0.1
 48
0.1
140
0.12
141
0.0
142
0.0
143
25.399999999999999
144
1.0
145
0.0
146
0.71
147
0.06
 71
     0
 72
     0
 73
     1
 74
     1
 75
     1
 76
     1
 77
     0
 78
     7
170
     0
171
     2
172
     0
173
     0
174
     0
175
     0
176
   256
177
   256
178
     2
  0
DIMSTYLE
  2
AM_ANSI$SH
 70
     0
  3

  4
mm
  5

  6
GENAXEH
  7

 40
1.0
 41
0.12
 42
0.05
 43
0.5
 44
0.1
 45
0.0
 46
0.0
 47
0.1
 48
0.1
140
0.12
141
0.0
142
0.0
143
25.399999999999999
144
1.0
145
0.0
146
0.71
147
0.06
 71
     0
 72
     0
 73
     1
 74
     1
 75
     1
 76
     1
 77
     0
 78
     7
170
     0
171
     2
172
     0
173
     1
174
     0
175
     0
176
   256
177
   256
178
     2
  0
ENDTAB
  0
ENDSEC
  0
SECTION
  2
BLOCKS
  0
BLOCK
  8
0
  2
$MODEL_SPACE
 70
     0
 10
0.0
 20
0.0
 30
0.0
  3
$MODEL_SPACE
  1

  0
ENDBLK
  5
155D
  8
0
  0
BLOCK
 67
     1
  8
0
  2
$PAPER_SPACE
 70
     0
 10
0.0
 20
0.0
 30
0.0
  3
$PAPER_SPACE
  1

  0
ENDBLK
  5
1559
 67
     1
  8
0
  0
BLOCK
  8
0
  2
NEW_BLOCK
 70
     0
 10
0.0
 20
0.0
 30
0.0
  3
NEW_BLOCK
  1

  0
TEXT
  5
13CD
  8
TEXT
 10
27.285946821803002
 20
25.27142175952417
 30
0.0
 40
40.0
  1
available on request
  7
TITLE3
  0
TEXT
  5
13CE
  8
TEXT
 10
27.285946821803002
 20
93.842850330952714
 30
0.0
 40
40.0
  1
Certified dimensions
  7
TITLE3
  0
TEXT
  5
13CF
  8
TEXT
 10
27.285946821803002
 20
162.4142789023812
 30
0.0
 40
40.0
  1
without notice or obligation.
  7
TITLE3
  0
TEXT
  5
13D0
  8
TEXT
 10
27.285946821803002
 20
230.9857074738097
 30
0.0
 40
40.0
  1
specifications at any time
  7
TITLE3
  0
TEXT
  5
13D1
  8
TEXT
 10
27.285946821803002
 20
299.55713604523839
 30
0.0
 40
40.0
  1
the right to change 
  7
TITLE3
  0
TEXT
  5
13D2
  8
TEXT
 10
27.285946821803002
 20
436.69999318809528
 30
0.0
 40
40.0
  1
NOTE
  7
TITLE3
  0
TEXT
  5
13D3
  8
TEXT
 10
27.285946821803002
 20
368.12856461666678
 30
0.0
 40
40.0
  1
The manufacturer reserves
  7
TITLE3
  0
ENDBLK
  5
13D4
  8
0
  0
BLOCK
  8
0
  2
GENAXEH
 70
     0
 10
0.0
 20
0.0
 30
0.0
  3
GENAXEH
  1

  0
LINE
  5
15FD
  8
0
 10
-1.0
 20
0.0
 30
0.0
 11
1.0
 21
0.0
 31
0.0
  0
ENDBLK
  5
15FF
  8
0
  0
ENDSEC
  0
SECTION
  2
ENTITIES
  0
LINE
  5
13D5
  8
OUTLINE
 10
2835.2930137369258
 20
844.06641318637958
 30
0.0
 11
1651.093013736926
 21
844.06641318637958
 31
0.0
  0
LINE
  5
13D6
  8
DIM
 10
2823.1930137369259
 20
1835.0928435194751
 30
0.0
 11
2452.2644423083548
 21
1835.0928435194751
 31
0.0
  0
LINE
  5
13D7
  8
DIM
 10
2885.1930137369268
 20
1931.6848522920729
 30
0.0
 11
2359.4072994512089
 21
1931.6848522920729
 31
0.0
  0
LINE
  5
13D8
  8
OUTLINE
 10
1577.1930137369241
 20
2521.936714623675
 30
0.0
 11
2899.1930137369282
 21
2521.936714623675
 31
0.0
  0
LINE
  5
13D9
  8
OUTLINE
 10
2835.2930137369258
 20
491.56641318637998
 30
0.0
 11
1651.093013736926
 21
491.56641318637998
 31
0.0
  0
LINE
  5
13DA
  8
OUTLINE
 10
2861.1930137369259
 20
1130.560895191609
 30
0.0
 11
1604.1930137369241
 21
1130.560895191609
 31
0.0
  0
LINE
  5
13DB
  8
OUTLINE
 10
1604.1930137369279
 20
1687.5608951916099
 30
0.0
 11
2861.1930137369259
 21
1687.5608951916099
 31
0.0
  0
LINE
  5
13DC
  8
OUTLINE
 10
1891.893013736925
 20
2338.436714623675
 30
0.0
 11
2753.8930137369262
 21
2338.436714623675
 31
0.0
  0
LINE
  5
13DD
  8
OUTLINE
 10
1891.893013736925
 20
2110.4367146236759
 30
0.0
 11
2753.8930137369262
 21
2110.4367146236759
 31
0.0
  0
LINE
  5
13DE
  8
OUTLINE
 10
2754.1930137369259
 20
1722.163929590658
 30
0.0
 11
1892.1930137369261
 21
1722.163929590658
 31
0.0
  0
LINE
  5
13DF
  8
OUTLINE
 10
1651.093013736926
 20
1095.5608951916099
 30
0.0
 11
2835.0930137369269
 21
1095.5608951916099
 31
0.0
  0
LINE
  5
13E0
  8
OUTLINE
 10
1577.1930137369241
 20
1660.5608951916099
 30
0.0
 11
2888.1930137369268
 21
1660.5608951916099
 31
0.0
  0
LINE
  5
13E1
  8
OUTLINE
 10
2915.1930137369259
 20
861.06646026636304
 30
0.0
 11
1550.193013736925
 21
861.06983000954335
 31
0.0
  0
LINE
  5
13E2
  8
OUTLINE
 10
1550.193013736925
 20
2097.436714623675
 30
0.0
 11
2915.1930137369282
 21
2097.436714623675
 31
0.0
  0
LINE
  5
13E3
  8
OUTLINE
 10
2888.1930137369268
 20
1157.5608951916061
 30
0.0
 11
1577.1930137369241
 21
1157.5608951916061
 31
0.0
  0
LINE
  5
13E4
  8
DIM
 10
3143.1292345925781
 20
1141.565703233659
 30
0.0
 11
3143.1292345925781
 21
1314.775180905895
 31
0.0
  0
SOLID
  5
13E5
  8
DIM
 10
3013.9537695833878
 20
1174.0608951916099
 30
0.0
 11
3003.9537695833892
 21
1174.0608951916099
 31
0.0
 12
3008.9537695833892
 22
1144.0608951916099
 32
0.0
 13
3008.9537695833892
 23
1144.0608951916099
 33
0.0
  0
LINE
  5
13E6
  8
OUTLINE
 10
1565.6930137369241
 20
1091.565703233658
 30
0.0
 11
1565.6930137369241
 21
1169.060895191609
 31
0.0
  0
LINE
  5
13E7
  8
OUTLINE
 10
1550.193013736925
 20
1184.5608951916081
 30
0.0
 11
1604.1930137369241
 21
1130.560895191609
 31
0.0
  0
LINE
  5
13E8
  8
OUTLINE
 10
1651.093013736926
 20
844.06641318637958
 30
0.0
 11
1651.093013736926
 21
491.56641318637998
 31
0.0
  0
LINE
  5
13E9
  8
OUTLINE
 10
1577.193030740779
 20
436.56982948094247
 30
0.0
 11
1577.1930186127149
 21
735.06654868530416
 31
0.0
  0
LINE
  5
13EA
  8
OUTLINE
 10
1577.1929006296109
 20
436.56982948127131
 30
0.0
 11
1566.19290062961
 21
436.56982948127131
 31
0.0
  0
LINE
  5
13EB
  8
DIM
 10
2887.0263903073951
 20
1111.565703233658
 30
0.0
 11
3163.1292345925781
 21
1111.565703233658
 31
0.0
  0
LINE
  5
13EC
  8
DIM
 10
2867.3263507400561
 20
1144.0608951916099
 30
0.0
 11
3028.9537695833892
 21
1144.0608951916099
 31
0.0
  0
SOLID
  5
13ED
  8
DIM
 10
3148.129234592579
 20
1141.565703233659
 30
0.0
 11
3138.1292345925781
 21
1141.565703233659
 31
0.0
 12
3143.1292345925781
 22
1111.565703233658
 32
0.0
 13
3143.1292345925781
 23
1111.565703233658
 33
0.0
  0
LINE
  5
13EE
  8
OUTLINE
 10
1615.693013736925
 20
812.06654868530416
 30
0.0
 11
1615.693013736925
 21
742.06654868530416
 31
0.0
  0
LINE
  5
13EF
  8
OUTLINE
 10
1565.6930137369241
 20
742.06654868530416
 30
0.0
 11
1565.6930137369241
 21
812.06654868530416
 31
0.0
  0
LINE
  5
13F0
  8
OUTLINE
 10
1615.693013736925
 20
742.06654868530416
 30
0.0
 11
1565.6930137369241
 21
742.06654868530416
 31
0.0
  0
LINE
  5
13F1
  8
OUTLINE
 10
1572.193013736925
 20
735.06654868530416
 30
0.0
 11
1609.1930137369261
 21
735.06654868530416
 31
0.0
  0
LINE
  5
13F2
  8
OUTLINE
 10
1606.1930137369261
 20
742.06654868530416
 30
0.0
 11
1575.1930137369241
 21
742.06654868530416
 31
0.0
  0
LINE
  5
13F3
  8
OUTLINE
 10
1572.193013736925
 20
739.06654868530416
 30
0.0
 11
1572.193013736925
 21
735.06654868530416
 31
0.0
  0
ARC
  5
13F4
  8
OUTLINE
 10
1575.1930137369241
 20
739.06654868530416
 30
0.0
 40
3.0
 50
90.0
 51
180.0
  0
ARC
  5
13F5
  8
OUTLINE
 10
1606.1930137369261
 20
739.06654868530416
 30
0.0
 40
3.0
 50
0.0
 51
90.0
  0
LINE
  5
13F6
  8
OUTLINE
 10
1609.1930137369261
 20
739.06654868530416
 30
0.0
 11
1609.1930137369261
 21
735.06654868530416
 31
0.0
  0
LINE
  5
13F7
  8
OUTLINE
 10
1615.693013736925
 20
812.06654868530416
 30
0.0
 11
1565.6930137369241
 21
812.06654868530416
 31
0.0
  0
LINE
  5
13F8
  8
OUTLINE
 10
1550.193013736925
 20
852.06976336355297
 30
0.0
 11
1550.193013736925
 21
861.06983000954335
 31
0.0
  0
LINE
  5
13F9
  8
OUTLINE
 10
1615.693013736925
 20
1091.565703233658
 30
0.0
 11
1615.693013736925
 21
1130.560895191609
 31
0.0
  0
LINE
  5
13FA
  8
OUTLINE
 10
1615.693013736925
 20
1091.565703233658
 30
0.0
 11
1565.6930137369241
 21
1091.565703233658
 31
0.0
  0
CIRCLE
  5
13FB
  8
OUTLINE
 10
1590.6930137369261
 20
1111.565703233658
 30
0.0
 40
9.5
  0
LINE
  5
13FC
  8
OUTLINE
 10
1651.093013736926
 20
1095.5608951916099
 30
0.0
 11
1651.093013736926
 21
1130.560895191609
 31
0.0
  0
LINE
  5
13FD
  8
DIM
 10
1642.1930137369261
 20
1835.0928435194751
 30
0.0
 11
2005.121585165497
 21
1835.0928435194751
 31
0.0
  0
LINE
  5
13FE
  8
DIM
 10
1620.6930137369241
 20
1882.1482270830249
 30
0.0
 11
1993.6930137369241
 21
1882.1482270830249
 31
0.0
  0
LINE
  5
13FF
  8
DIM
 10
1580.193013736925
 20
1931.6848522920729
 30
0.0
 11
2097.978728022641
 21
1931.6848522920729
 31
0.0
  0
LINE
  5
1400
  8
OUTLINE
 10
1550.193013736925
 20
1184.5608951916081
 30
0.0
 11
1550.193013736925
 21
1633.5608951916099
 31
0.0
  0
TEXT
  5
1401
  8
DIM
 10
3111.2438042562262
 20
1155.452477001995
 30
0.0
 40
30.0
  1
(OPTIONAL HANGER CTRS.)
 50
90.0
 41
0.8374249188316895
  7
TITLE3
 72
     5
 11
3111.2438042562262
 21
1667.477998801942
 31
0.0
  0
TEXT
  5
1402
  8
DIM
 10
2995.222834205219
 20
1284.04853346761
 30
0.0
 40
30.0
  1
FIXING CTRS.
 50
90.0
  7
TITLE3
  0
LINE
  5
1403
  8
DIM
 10
3143.1292345925781
 20
1676.5560871495591
 30
0.0
 11
3143.1292345925781
 21
1503.3466094773239
 31
0.0
  0
LINE
  5
1404
  8
DIM
 10
3008.9537695833892
 20
1644.0608951916099
 30
0.0
 11
3008.9537695833892
 21
1505.846609477323
 31
0.0
  0
LINE
  5
1405
  8
OUTLINE
 10
1577.1930137369241
 20
1157.5608951916061
 30
0.0
 11
1577.1930137369241
 21
1660.5608951916099
 31
0.0
  0
TEXT
  5
1406
  8
DIM
 10
3158.1292345925781
 20
1370.4894666201801
 30
0.0
 40
30.0
  1
595
 50
90.0
  7
TITLE3
 72
     1
 11
3143.1292345925781
 21
1409.060895191609
 31
0.0
 73
     2
  0
TEXT
  5
1407
  8
DIM
 10
3050.6804295291522
 20
1370.489466620181
 30
0.0
 40
30.0
  1
530
 50
90.0
  7
TITLE3
 72
     4
 11
3035.6804295291522
 21
1409.0608951916099
 31
0.0
  0
LINE
  5
1408
  8
DIM
 10
3008.9537695833892
 20
1174.0608951916099
 30
0.0
 11
3008.9537695833892
 21
1312.2751809058959
 31
0.0
  0
LINE
  5
1409
  8
DIM
 10
2888.5620824774901
 20
1706.5560871495591
 30
0.0
 11
3163.1292345925781
 21
1706.5560871495591
 31
0.0
  0
LINE
  5
140A
  8
DIM
 10
2864.6555295481489
 20
1674.0608951916099
 30
0.0
 11
3028.9537695833892
 21
1674.0608951916099
 31
0.0
  0
SOLID
  5
140B
  8
DIM
 10
3148.129234592579
 20
1676.5560871495591
 30
0.0
 11
3138.1292345925781
 21
1676.5560871495591
 31
0.0
 12
3143.1292345925781
 22
1706.5560871495591
 32
0.0
 13
3143.1292345925781
 23
1706.5560871495591
 33
0.0
  0
SOLID
  5
140C
  8
DIM
 10
3013.9537695833878
 20
1644.0608951916099
 30
0.0
 11
3003.9537695833892
 21
1644.0608951916099
 31
0.0
 12
3008.9537695833892
 22
1674.0608951916099
 32
0.0
 13
3008.9537695833892
 23
1674.0608951916099
 33
0.0
  0
LINE
  5
140D
  8
DIM
 10
1550.193013736925
 20
1673.5608951916099
 30
0.0
 11
1550.193013736925
 21
1796.8338134651831
 31
0.0
  0
LINE
  5
140E
  8
DIM
 10
1612.193013736925
 20
1694.0608951916099
 30
0.0
 11
1612.193013736925
 21
1855.0928435194751
 31
0.0
  0
LINE
  5
140F
  8
DIM
 10
1590.6930137369261
 20
1726.5560871495591
 30
0.0
 11
1590.6930137369261
 21
1902.1482270830249
 31
0.0
  0
LINE
  5
1410
  8
DIM
 10
1550.193013736925
 20
1653.5608951916099
 30
0.0
 11
1550.193013736925
 21
1951.684852292072
 31
0.0
  0
LINE
  5
1411
  8
OUTLINE
 10
1577.1930137369241
 20
1660.5608951916099
 30
0.0
 11
1604.1930137369241
 21
1687.5608951916099
 31
0.0
  0
LINE
  5
1412
  8
OUTLINE
 10
1565.6930137369241
 20
1726.5560871495591
 30
0.0
 11
1565.6930137369241
 21
1649.0608951916099
 31
0.0
  0
LINE
  5
1413
  8
OUTLINE
 10
1577.1930137369241
 20
1660.5608951916099
 30
0.0
 11
1550.193013736925
 21
1633.5608951916099
 31
0.0
  0
LINE
  5
1414
  8
OUTLINE
 10
1615.693013736925
 20
1726.5560871495591
 30
0.0
 11
1615.693013736925
 21
1687.5608951916099
 31
0.0
  0
CIRCLE
  5
1415
  8
OUTLINE
 10
1590.6930137369261
 20
1706.5560871495591
 30
0.0
 40
9.5
  0
LINE
  5
1416
  8
OUTLINE
 10
1615.693013736925
 20
1726.5560871495591
 30
0.0
 11
1565.6930137369241
 21
1726.5560871495591
 31
0.0
  0
SOLID
  5
1417
  8
DIM
 10
1642.1930137369261
 20
1840.092843519476
 30
0.0
 11
1642.1930137369261
 21
1830.092843519476
 31
0.0
 12
1612.193013736925
 22
1835.0928435194751
 32
0.0
 13
1612.193013736925
 23
1835.0928435194751
 33
0.0
  0
SOLID
  5
1418
  8
DIM
 10
1580.193013736925
 20
1936.684852292072
 30
0.0
 11
1580.193013736925
 21
1926.6848522920729
 31
0.0
 12
1550.193013736925
 22
1931.6848522920729
 32
0.0
 13
1550.193013736925
 23
1931.6848522920729
 33
0.0
  0
SOLID
  5
1419
  8
DIM
 10
1620.6930137369241
 20
1887.1482270830249
 30
0.0
 11
1620.6930137369241
 21
1877.1482270830249
 31
0.0
 12
1590.6930137369261
 22
1882.1482270830249
 32
0.0
 13
1590.6930137369261
 23
1882.1482270830249
 33
0.0
  0
TEXT
  5
141A
  8
DIM
 10
2027.9787280226401
 20
1820.0928435194751
 30
0.0
 40
30.0
  1
1241 FIXING CTRS
  7
TITLE3
 72
     4
 11
2228.693013736925
 21
1835.0928435194751
 31
0.0
  0
TEXT
  5
141B
  8
DIM
 10
2013.693013736925
 20
1867.1482270830249
 30
0.0
 40
30.0
  1
1284 SPRING CTRS
  7
TITLE3
 72
     4
 11
2228.693013736925
 21
1882.1482270830249
 31
0.0
  0
TEXT
  5
141C
  8
DIM
 10
2178.693013736925
 20
1916.6848522920729
 30
0.0
 40
30.0
  1
1365
  7
TITLE3
 72
     4
 11
2228.693013736925
 21
1931.6848522920729
 31
0.0
  0
LINE
  5
141D
  8
OUTLINE
 10
1892.1930137369261
 20
1722.163929590658
 30
0.0
 11
1892.1930137369261
 21
1687.5608951916099
 31
0.0
  0
LINE
  5
141E
  8
OUTLINE
 10
1577.1930137369241
 20
2521.936714623675
 30
0.0
 11
1577.1930137369241
 21
2223.4367146236759
 31
0.0
  0
LINE
  5
141F
  8
OUTLINE
 10
1565.6930137369241
 20
2216.4367146236759
 30
0.0
 11
1565.6930137369241
 21
2146.4367146236759
 31
0.0
  0
LINE
  5
1420
  8
OUTLINE
 10
1615.693013736925
 20
2146.4367146236759
 30
0.0
 11
1615.693013736925
 21
2216.4367146236759
 31
0.0
  0
LINE
  5
1421
  8
OUTLINE
 10
1550.193013736925
 20
2106.436714623675
 30
0.0
 11
1550.193013736925
 21
2097.436714623675
 31
0.0
  0
LINE
  5
1422
  8
OUTLINE
 10
1615.693013736925
 20
2146.4367146236759
 30
0.0
 11
1565.6930137369241
 21
2146.4367146236759
 31
0.0
  0
LINE
  5
1423
  8
OUTLINE
 10
1606.1930137369261
 20
2216.4367146236759
 30
0.0
 11
1575.1930137369241
 21
2216.4367146236759
 31
0.0
  0
LINE
  5
1424
  8
OUTLINE
 10
1572.193013736925
 20
2223.4367146236759
 30
0.0
 11
1609.1930137369261
 21
2223.4367146236759
 31
0.0
  0
LINE
  5
1425
  8
OUTLINE
 10
1615.693013736925
 20
2216.4367146236759
 30
0.0
 11
1565.6930137369241
 21
2216.4367146236759
 31
0.0
  0
ARC
  5
1426
  8
OUTLINE
 10
1575.1930137369241
 20
2219.4367146236759
 30
0.0
 40
3.0
 50
180.0
 51
270.0
  0
LINE
  5
1427
  8
OUTLINE
 10
1572.193013736925
 20
2219.4367146236759
 30
0.0
 11
1572.193013736925
 21
2223.4367146236759
 31
0.0
  0
LINE
  5
1428
  8
OUTLINE
 10
1609.1930137369261
 20
2219.4367146236759
 30
0.0
 11
1609.1930137369261
 21
2223.4367146236759
 31
0.0
  0
ARC
  5
1429
  8
OUTLINE
 10
1606.1930137369261
 20
2219.4367146236759
 30
0.0
 40
3.0
 50
270.0
 51
0.0
  0
LINE
  5
142A
  8
OUTLINE
 10
1577.1930137369241
 20
2521.936714623675
 30
0.0
 11
1566.193013736925
 21
2521.936714623675
 31
0.0
  0
LINE
  5
142B
  8
OUTLINE
 10
1891.893013736925
 20
2338.436714623675
 30
0.0
 11
1891.893013736925
 21
2110.4367146236759
 31
0.0
  0
LINE
  5
142C
  8
OUTLINE
 10
3443.9867956332018
 20
1156.5639295906601
 30
0.0
 11
3443.9867956332018
 21
1148.5639295906601
 31
0.0
  0
LINE
  5
142D
  8
OUTLINE
 10
3762.4867956332032
 20
1156.5639295906581
 30
0.0
 11
3762.4867956332018
 21
1095.5639295906581
 31
0.0
  0
LINE
  5
142E
  8
OUTLINE
 10
3409.9867956332041
 20
1156.5639295906581
 30
0.0
 11
3409.9867956332041
 21
1095.5639295906581
 31
0.0
  0
LINE
  5
142F
  8
DIM
 10
3293.7170381418618
 20
1125.96089519161
 30
0.0
 11
3293.7170381418618
 21
1341.211080380674
 31
0.0
  0
LINE
  5
1430
  8
OUTLINE
 10
2899.6930137369268
 20
1091.565703233658
 30
0.0
 11
2899.6930137369268
 21
1169.060895191609
 31
0.0
  0
LINE
  5
1431
  8
OUTLINE
 10
2915.1930137369259
 20
1184.5608951916081
 30
0.0
 11
2861.1930137369259
 21
1130.560895191609
 31
0.0
  0
LINE
  5
1432
  8
OUTLINE
 10
3520.9867956332009
 20
1095.5639295906581
 30
0.0
 11
3762.4867956332018
 21
1095.5639295906581
 31
0.0
  0
TEXT
  5
1433
  8
TEXT
 10
2903.0952380952381
 20
261.25758100940669
 30
0.0
 40
50.0
  1
temperzone ISD 220 Q
  7
TITLE5
 72
     1
 11
3340.0
 21
261.25758100940669
 31
0.0
  0
LINE
  5
1434
  8
OUTLINE
 10
2835.2930137369258
 20
491.56641318637998
 30
0.0
 11
2835.2930137369258
 21
844.06641318637958
 31
0.0
  0
LINE
  5
1435
  8
OUTLINE
 10
2888.1896635597532
 20
436.56652685008788
 30
0.0
 11
2888.1896635597532
 21
742.06654868530461
 31
0.0
  0
LINE
  5
1436
  8
DIM
 10
3032.905119375846
 20
469.56644466133451
 30
0.0
 11
3032.9051023719908
 21
526.78066424992176
 31
0.0
  0
LINE
  5
1437
  8
DIM
 10
2908.393572054496
 20
436.56644466133451
 30
0.0
 11
3052.905119375846
 21
436.56644466133451
 31
0.0
  0
SOLID
  5
1438
  8
DIM
 10
3027.905119375846
 20
466.56644466133451
 30
0.0
 11
3037.905119375846
 21
466.56644466133451
 31
0.0
 12
3032.905119375846
 22
436.56644466133451
 32
0.0
 13
3032.905119375846
 23
436.56644466133451
 33
0.0
  0
TEXT
  5
1439
  8
DIM
 10
3045.3893319760969
 20
597.35821430371243
 30
0.0
 40
30.0
  1
424.5
 50
90.0
  7
TITLE3
 72
     4
 11
3030.3893319760969
 21
657.35821430371243
 31
0.0
  0
LINE
  5
143A
  8
OUTLINE
 10
2899.6930137369268
 20
742.06654868530416
 30
0.0
 11
2899.6930137369268
 21
812.06654868530416
 31
0.0
  0
LINE
  5
143B
  8
OUTLINE
 10
2849.6930137369259
 20
812.06654868530416
 30
0.0
 11
2849.6930137369259
 21
742.06654868530416
 31
0.0
  0
LINE
  5
143C
  8
OUTLINE
 10
2859.1930137369268
 20
742.06654868530416
 30
0.0
 11
2890.1930137369268
 21
742.06654868530416
 31
0.0
  0
LINE
  5
143D
  8
OUTLINE
 10
2893.1930137369259
 20
735.06654868530416
 30
0.0
 11
2856.1930137369268
 21
735.06654868530416
 31
0.0
  0
LINE
  5
143E
  8
OUTLINE
 10
2849.6930137369259
 20
742.06654868530416
 30
0.0
 11
2899.6930137369268
 21
742.06654868530416
 31
0.0
  0
LINE
  5
143F
  8
OUTLINE
 10
2856.1930137369268
 20
739.06654868530416
 30
0.0
 11
2856.1930137369268
 21
735.06654868530416
 31
0.0
  0
ARC
  5
1440
  8
OUTLINE
 10
2859.1930137369268
 20
739.06654868530416
 30
0.0
 40
3.0
 50
90.0
 51
180.0
  0
ARC
  5
1441
  8
OUTLINE
 10
2890.1930137369268
 20
739.06654868530416
 30
0.0
 40
3.0
 50
0.0
 51
90.0
  0
LINE
  5
1442
  8
OUTLINE
 10
2893.1930137369259
 20
739.06654868530416
 30
0.0
 11
2893.1930137369259
 21
735.06654868530416
 31
0.0
  0
LINE
  5
1443
  8
OUTLINE
 10
2849.6930137369259
 20
812.06654868530416
 30
0.0
 11
2899.6930137369268
 21
812.06654868530416
 31
0.0
  0
LINE
  5
1444
  8
OUTLINE
 10
2915.1930137369259
 20
861.06646026636304
 30
0.0
 11
2915.1930137369259
 21
852.06646026636315
 31
0.0
  0
SOLID
  5
1445
  8
DIM
 10
3027.905232483246
 20
831.06641318638003
 30
0.0
 11
3037.905232483246
 21
831.06641318638003
 31
0.0
 12
3032.905232483246
 22
861.06641318637969
 32
0.0
 13
3032.905232483246
 23
861.06641318637969
 33
0.0
  0
LINE
  5
1446
  8
DIM
 10
3032.905232483246
 20
831.06641318638003
 30
0.0
 11
3032.905232483246
 21
766.85212747209425
 31
0.0
  0
LINE
  5
1447
  8
DIM
 10
2923.3970353390691
 20
861.06641318637969
 30
0.0
 11
3052.9052324832451
 21
861.06641318637969
 31
0.0
  0
LINE
  5
1448
  8
OUTLINE
 10
2835.0930137369269
 20
1095.5608951916099
 30
0.0
 11
2835.0930137369269
 21
1130.560895191609
 31
0.0
  0
LINE
  5
1449
  8
OUTLINE
 10
2849.6930137369259
 20
1091.565703233658
 30
0.0
 11
2849.6930137369259
 21
1130.560895191609
 31
0.0
  0
LINE
  5
144A
  8
OUTLINE
 10
2849.6930137369259
 20
1091.565703233658
 30
0.0
 11
2899.6930137369268
 21
1091.565703233658
 31
0.0
  0
CIRCLE
  5
144B
  8
OUTLINE
 10
2874.693013736925
 20
1111.565703233658
 30
0.0
 40
9.5
  0
LINE
  5
144C
  8
DIM
 10
3393.9463333941999
 20
1095.96089519161
 30
0.0
 11
3273.7170381418609
 21
1095.96089519161
 31
0.0
  0
SOLID
  5
144D
  8
DIM
 10
3288.7170381418609
 20
1125.96089519161
 30
0.0
 11
3298.7170381418609
 21
1125.96089519161
 31
0.0
 12
3293.7170381418618
 22
1095.96089519161
 32
0.0
 13
3293.7170381418618
 23
1095.96089519161
 33
0.0
  0
LINE
  5
144E
  8
OUTLINE
 10
3443.9867956332018
 20
1148.5639295906601
 30
0.0
 11
3505.9867956332018
 21
1148.5639295906601
 31
0.0
  0
LINE
  5
144F
  8
OUTLINE
 10
3409.9867956332041
 20
1095.5639295906581
 30
0.0
 11
3505.9867956332018
 21
1095.563929590656
 31
0.0
  0
LINE
  5
1450
  8
OUTLINE
 10
3393.9867956332018
 20
1130.5639295906569
 30
0.0
 11
3402.9867956332009
 21
1130.563929590661
 31
0.0
  0
LINE
  5
1451
  8
OUTLINE
 10
3505.9867956332018
 20
1148.5639295906601
 30
0.0
 11
3505.9867956332018
 21
1091.5639295906601
 31
0.0
  0
LINE
  5
1452
  8
OUTLINE
 10
3513.9867956332009
 20
1156.5639295906601
 30
0.0
 11
3513.9867956332009
 21
1091.5639295906601
 31
0.0
  0
LINE
  5
1453
  8
OUTLINE
 10
3520.9867956332009
 20
1130.0639295906601
 30
0.0
 11
3520.9867956332009
 21
1093.0639295906601
 31
0.0
  0
LINE
  5
1454
  8
OUTLINE
 10
3513.9867956332009
 20
1096.0639295906601
 30
0.0
 11
3513.9867956332009
 21
1127.063929590659
 31
0.0
  0
LINE
  5
1455
  8
OUTLINE
 10
3505.9867956332018
 20
1091.5639295906601
 30
0.0
 11
3513.9867956332009
 21
1091.5639295906601
 31
0.0
  0
ARC
  5
1456
  8
OUTLINE
 10
3516.9867956332009
 20
1096.0639295906601
 30
0.0
 40
3.0
 50
180.0
 51
270.0
  0
LINE
  5
1457
  8
OUTLINE
 10
3516.9867956332009
 20
1093.0639295906601
 30
0.0
 11
3520.9867956332009
 21
1093.0639295906601
 31
0.0
  0
ARC
  5
1458
  8
OUTLINE
 10
3516.9867956332009
 20
1127.063929590659
 30
0.0
 40
3.0
 50
90.0
 51
180.0
  0
LINE
  5
1459
  8
OUTLINE
 10
3516.9867956332009
 20
1130.0639295906601
 30
0.0
 11
3520.9867956332009
 21
1130.0639295906601
 31
0.0
  0
TEXT
  5
145A
  8
TEXT
 10
3430.0
 20
70.0
 30
0.0
 40
30.0
  1
ISD220
 41
1.9708737864077659
  7
TITLE3
 72
     5
 11
3720.0
 21
70.0
 31
0.0
  0
TEXT
  5
145B
  8
TEXT
 10
2948.522336966787
 20
110.0
 30
0.0
 40
30.0
  1
12.11.02
 41
0.9180327868852456
  7
TITLE3
 72
     5
 11
3108.522336966787
 21
110.0
 31
0.0
  0
LINE
  5
145C
  8
OUTLINE
 10
3400.9867956332032
 20
1156.5639295906581
 30
0.0
 11
3781.4867956332032
 21
1156.5639295906581
 31
0.0
  0
LINE
  5
145D
  8
OUTLINE
 10
3396.9867956332032
 20
1661.5639295906569
 30
0.0
 11
3646.9867956332032
 21
1661.5639295906569
 31
0.0
  0
LINE
  5
145E
  8
OUTLINE
 10
3393.9867956332032
 20
1661.5639295906569
 30
0.0
 11
3819.4867956332009
 21
1661.5639295906581
 31
0.0
  0
LINE
  5
145F
  8
OUTLINE
 10
3393.9867956332018
 20
1156.563929590661
 30
0.0
 11
3819.4867956332032
 21
1156.563929590656
 31
0.0
  0
LINE
  5
1460
  8
OUTLINE
  6
HIDDEN
 10
3668.9867956332018
 20
1641.5337579251591
 30
0.0
 11
3408.842095094823
 21
1641.5337579251591
 31
0.0
  0
ARC
  5
1461
  8
OUTLINE
  6
HIDDEN
 10
3582.1220950948232
 20
1491.7437579251571
 30
0.0
 40
152.0
 50
254.5371159686957
 51
295.78898702140572
  0
CIRCLE
  5
1462
  8
OUTLINE
  6
HIDDEN
 10
3593.032095094823
 20
1502.333757925159
 30
0.0
 40
85.0
  0
LINE
  5
1463
  8
OUTLINE
 10
2915.1930137369259
 20
1633.5608951916099
 30
0.0
 11
2915.1930137369259
 21
1184.5608951916081
 31
0.0
  0
LINE
  5
1464
  8
OUTLINE
 10
2888.1930137369268
 20
1660.5608951916099
 30
0.0
 11
2888.1930137369268
 21
1157.560895191607
 31
0.0
  0
LINE
  5
1465
  8
DIM
 10
2844.6930137369268
 20
1882.1482270830249
 30
0.0
 11
2463.6930137369268
 21
1882.1482270830249
 31
0.0
  0
LINE
  5
1466
  8
OUTLINE
 10
2754.1930137369259
 20
1722.163929590658
 30
0.0
 11
2754.1930137369259
 21
1687.5608951916099
 31
0.0
  0
LINE
  5
1467
  8
DIM
 10
2915.1930137369259
 20
1672.5608951916099
 30
0.0
 11
2915.1930137369259
 21
1796.8338134651831
 31
0.0
  0
LINE
  5
1468
  8
DIM
 10
2853.1930137369268
 20
1694.0608951916099
 30
0.0
 11
2853.1930137369268
 21
1855.0928435194751
 31
0.0
  0
LINE
  5
1469
  8
DIM
 10
2874.693013736925
 20
1726.5560871495591
 30
0.0
 11
2874.693013736925
 21
1902.1482270830249
 31
0.0
  0
LINE
  5
146A
  8
DIM
 10
2915.1930137369259
 20
1652.5608951916081
 30
0.0
 11
2915.1930137369259
 21
1951.684852292072
 31
0.0
  0
LINE
  5
146B
  8
OUTLINE
 10
2899.6930137369268
 20
1726.5560871495591
 30
0.0
 11
2899.6930137369268
 21
1649.0608951916081
 31
0.0
  0
LINE
  5
146C
  8
OUTLINE
 10
2861.1930137369259
 20
1687.5608951916099
 30
0.0
 11
2915.1930137369259
 21
1633.5608951916099
 31
0.0
  0
LINE
  5
146D
  8
OUTLINE
 10
2849.6930137369259
 20
1726.5560871495591
 30
0.0
 11
2849.6930137369259
 21
1687.5608951916099
 31
0.0
  0
CIRCLE
  5
146E
  8
OUTLINE
 10
2874.693013736925
 20
1706.5560871495591
 30
0.0
 40
9.5
  0
LINE
  5
146F
  8
OUTLINE
 10
2849.6930137369259
 20
1726.5560871495591
 30
0.0
 11
2899.6930137369268
 21
1726.5560871495591
 31
0.0
  0
SOLID
  5
1470
  8
DIM
 10
2823.1930137369259
 20
1840.092843519476
 30
0.0
 11
2823.1930137369259
 21
1830.092843519476
 31
0.0
 12
2853.1930137369268
 22
1835.0928435194751
 32
0.0
 13
2853.1930137369268
 23
1835.0928435194751
 33
0.0
  0
SOLID
  5
1471
  8
DIM
 10
2885.1930137369268
 20
1936.684852292072
 30
0.0
 11
2885.1930137369268
 21
1926.6848522920729
 31
0.0
 12
2915.1930137369259
 22
1931.6848522920729
 32
0.0
 13
2915.1930137369259
 23
1931.6848522920729
 33
0.0
  0
SOLID
  5
1472
  8
DIM
 10
2844.6930137369268
 20
1887.1482270830249
 30
0.0
 11
2844.6930137369268
 21
1877.1482270830249
 31
0.0
 12
2874.693013736925
 22
1882.1482270830249
 32
0.0
 13
2874.693013736925
 23
1882.1482270830249
 33
0.0
  0
LINE
  5
1473
  8
OUTLINE
 10
3393.9867956332032
 20
1687.5639295906581
 30
0.0
 11
3393.9867956332018
 21
1130.5639295906569
 31
0.0
  0
LINE
  5
1474
  8
OUTLINE
  6
HIDDEN
 10
3408.842095094823
 20
1641.5337579251591
 30
0.0
 11
3408.842095094823
 21
1515.7437579251571
 31
0.0
  0
LINE
  5
1475
  8
DIM
 10
3293.7170381418618
 20
1692.5639295906581
 30
0.0
 11
3293.7170381418618
 21
1477.313751444982
 31
0.0
  0
TEXT
  5
1476
  8
DIM
 10
3308.7170381418618
 20
1370.6909838197021
 30
0.0
 40
30.0
  1
627
 50
90.0
  7
TITLE3
 72
     1
 11
3293.7170381418618
 21
1409.262412391131
 31
0.0
 73
     2
  0
ARC
  5
1477
  8
OUTLINE
  6
HIDDEN
 10
3586.032095094823
 20
1521.76375792516
 30
0.0
 40
182.0199999999999
 50
244.93350708534891
 51
255.87037031549119
  0
ARC
  5
1478
  8
OUTLINE
  6
CONTINUOUS
 10
3586.032095094823
 20
1521.76375792516
 30
0.0
 40
182.0199999999999
 50
214.26319426179069
 51
244.93350708534891
  0
LINE
  5
1479
  8
OUTLINE
 10
3443.9867956332018
 20
1156.5639295906601
 30
0.0
 11
3503.9867956332018
 21
1156.5639295906601
 31
0.0
  0
ARC
  5
147A
  8
OUTLINE
  6
HIDDEN
 10
3596.032095094823
 20
1515.7437579251571
 30
0.0
 40
187.19
 50
180.0
 51
211.01546950757131
  0
LINE
  5
147B
  8
DIM
 10
3386.894914284062
 20
1722.5639295906581
 30
0.0
 11
3273.7170381418609
 21
1722.5639295906581
 31
0.0
  0
SOLID
  5
147C
  8
DIM
 10
3288.7170381418609
 20
1692.5639295906581
 30
0.0
 11
3298.7170381418609
 21
1692.5639295906581
 31
0.0
 12
3293.7170381418618
 22
1722.5639295906581
 32
0.0
 13
3293.7170381418618
 23
1722.5639295906581
 33
0.0
  0
LINE
  5
147D
  8
OUTLINE
 10
3406.9867956332009
 20
1722.5639295906581
 30
0.0
 11
3505.9867956332018
 21
1722.563929590656
 31
0.0
  0
LINE
  5
147E
  8
OUTLINE
 10
3443.9867956332018
 20
1669.563929590656
 30
0.0
 11
3505.9867956332018
 21
1669.563929590656
 31
0.0
  0
LINE
  5
147F
  8
OUTLINE
 10
3406.9867956332009
 20
1661.5639295906569
 30
0.0
 11
3406.9867956332009
 21
1722.5639295906581
 31
0.0
  0
LINE
  5
1480
  8
OUTLINE
 10
3443.9867956332018
 20
1661.5639295906569
 30
0.0
 11
3443.9867956332018
 21
1669.563929590656
 31
0.0
  0
LINE
  5
1481
  8
OUTLINE
 10
3393.9867956332032
 20
1687.5639295906581
 30
0.0
 11
3402.9867956332009
 21
1687.5639295906581
 31
0.0
  0
LINE
  5
1482
  8
OUTLINE
 10
3634.9867956332018
 20
1661.5639295906569
 30
0.0
 11
3634.9867956332018
 21
1722.563929590656
 31
0.0
  0
LINE
  5
1483
  8
OUTLINE
 10
3520.9867956332009
 20
1722.5639295906581
 30
0.0
 11
3634.9867956332018
 21
1722.563929590656
 31
0.0
  0
LINE
  5
1484
  8
OUTLINE
 10
3505.9867956332018
 20
1669.563929590656
 30
0.0
 11
3505.9867956332018
 21
1726.563929590656
 31
0.0
  0
LINE
  5
1485
  8
OUTLINE
 10
3513.9867956332009
 20
1661.5639295906569
 30
0.0
 11
3513.9867956332009
 21
1726.563929590656
 31
0.0
  0
LINE
  5
1486
  8
OUTLINE
 10
3520.9867956332009
 20
1688.0639295906581
 30
0.0
 11
3520.9867956332009
 21
1725.063929590656
 31
0.0
  0
LINE
  5
1487
  8
OUTLINE
 10
3513.9867956332009
 20
1722.0639295906581
 30
0.0
 11
3513.9867956332009
 21
1691.063929590656
 31
0.0
  0
ARC
  5
1488
  8
OUTLINE
 10
3516.9867956332009
 20
1691.063929590656
 30
0.0
 40
3.0
 50
180.0
 51
270.0
  0
LINE
  5
1489
  8
OUTLINE
 10
3516.9867956332009
 20
1688.0639295906581
 30
0.0
 11
3520.9867956332009
 21
1688.0639295906581
 31
0.0
  0
LINE
  5
148A
  8
OUTLINE
 10
3505.9867956332018
 20
1726.563929590656
 30
0.0
 11
3513.9867956332009
 21
1726.563929590656
 31
0.0
  0
ARC
  5
148B
  8
OUTLINE
 10
3516.9867956332009
 20
1722.0639295906581
 30
0.0
 40
3.0
 50
90.0
 51
180.0
  0
LINE
  5
148C
  8
OUTLINE
 10
3516.9867956332009
 20
1725.063929590656
 30
0.0
 11
3520.9867956332009
 21
1725.063929590656
 31
0.0
  0
LINE
  5
148D
  8
OUTLINE
 10
2888.1896635597541
 20
2521.936714623675
 30
0.0
 11
2888.1896635597541
 21
2223.4367146236759
 31
0.0
  0
LINE
  5
148E
  8
OUTLINE
 10
2753.8930137369262
 20
2110.4367146236759
 30
0.0
 11
2753.8930137369262
 21
2338.436714623675
 31
0.0
  0
LINE
  5
148F
  8
OUTLINE
 10
2849.6930137369259
 20
2146.4367146236759
 30
0.0
 11
2849.6930137369259
 21
2216.4367146236759
 31
0.0
  0
LINE
  5
1490
  8
OUTLINE
 10
2899.6930137369268
 20
2216.4367146236759
 30
0.0
 11
2899.6930137369268
 21
2146.4367146236759
 31
0.0
  0
LINE
  5
1491
  8
OUTLINE
 10
2773.1930137369259
 20
2098.4367146236759
 30
0.0
 11
2773.1930137369259
 21
2097.4367146236768
 31
0.0
  0
LINE
  5
1492
  8
OUTLINE
 10
2915.1930137369282
 20
2097.436714623675
 30
0.0
 11
2915.1930137369282
 21
2106.436714623675
 31
0.0
  0
LINE
  5
1493
  8
OUTLINE
 10
2849.6930137369259
 20
2146.4367146236759
 30
0.0
 11
2899.6930137369268
 21
2146.4367146236759
 31
0.0
  0
LINE
  5
1494
  8
OUTLINE
 10
2859.1930137369268
 20
2216.4367146236759
 30
0.0
 11
2890.1930137369268
 21
2216.4367146236759
 31
0.0
  0
LINE
  5
1495
  8
OUTLINE
 10
2893.1930137369259
 20
2223.4367146236759
 30
0.0
 11
2856.1930137369268
 21
2223.4367146236759
 31
0.0
  0
LINE
  5
1496
  8
OUTLINE
 10
2849.6930137369259
 20
2216.4367146236759
 30
0.0
 11
2899.6930137369268
 21
2216.4367146236759
 31
0.0
  0
LINE
  5
1497
  8
OUTLINE
 10
2856.1930137369268
 20
2219.4367146236759
 30
0.0
 11
2856.1930137369268
 21
2223.4367146236759
 31
0.0
  0
ARC
  5
1498
  8
OUTLINE
 10
2859.1930137369268
 20
2219.4367146236759
 30
0.0
 40
3.0
 50
180.0
 51
270.0
  0
LINE
  5
1499
  8
OUTLINE
 10
2893.1930137369259
 20
2219.4367146236759
 30
0.0
 11
2893.1930137369259
 21
2223.4367146236759
 31
0.0
  0
ARC
  5
149A
  8
OUTLINE
 10
2890.1930137369268
 20
2219.4367146236759
 30
0.0
 40
3.0
 50
270.0
 51
0.0
  0
LINE
  5
149B
  8
OUTLINE
 10
3819.4867956332009
 20
1671.563929590656
 30
0.0
 11
3819.4867956332032
 21
1148.563929590656
 31
0.0
  0
ARC
  5
149C
  8
OUTLINE
  6
HIDDEN
 10
3590.3820950948229
 20
1497.743757925158
 30
0.0
 40
143.75
 50
358.70163791046571
 51
56.958102002170392
  0
ARC
  5
149D
  8
OUTLINE
  6
CONTINUOUS
 10
3582.1220950948232
 20
1491.7437579251571
 30
0.0
 40
152.0
 50
295.78898702140572
 51
322.70432457911278
  0
ARC
  5
149E
  8
OUTLINE
  6
HIDDEN
 10
3582.1220950948232
 20
1491.7437579251571
 30
0.0
 40
152.0
 50
322.70432457911278
 51
1.033926482545908
  0
LINE
  5
149F
  8
OUTLINE
 10
3668.9867956332018
 20
1641.5337579251591
 30
0.0
 11
3668.9867956332018
 21
1618.098913831634
 31
0.0
  0
TEXT
  5
14A0
  8
OVERLAY-A3
 10
2845.1073804489929
 20
110.8312138601009
 30
0.0
 40
24.0
  1
Date
  7
SIMPLEX
  0
TEXT
  5
14A1
  8
OVERLAY-A3
 10
3746.1111923736021
 20
129.50330202341121
 30
0.0
 40
24.0
  1
Revision
 41
0.7812095035934773
  7
SIMPLEX
 72
     5
 11
3851.4628740010648
 21
129.50330202341121
 31
0.0
  0
LINE
  5
14A2
  8
OVERLAY-A3
 10
3734.49134999016
 20
20.842492848317129
 30
0.0
 11
3734.49134999016
 21
168.2686557085465
 31
0.0
  0
LINE
  5
14A3
  8
OVERLAY-A3
 10
2819.3515294571471
 20
327.10007385772383
 30
0.0
 11
2819.3515294571471
 21
20.842492848317129
 31
0.0
  0
LINE
  5
14A4
  8
OVERLAY-A3
 10
3416.9136780130939
 20
20.842492848317129
 30
0.0
 11
3416.9136780130939
 21
168.2686557085465
 31
0.0
  0
LINE
  5
14A5
  8
OVERLAY-A3
 10
3416.9136780130939
 20
93.312599269463774
 30
0.0
 11
2819.3515294571471
 21
93.312599269463774
 31
0.0
  0
LINE
  5
14A6
  8
OVERLAY-A3
 10
3861.5754652378419
 20
168.2686557085465
 30
0.0
 11
2819.3515294571471
 21
168.2686557085465
 31
0.0
  0
LINE
  5
14A7
  8
OVERLAY-A3
 10
2819.3515294571471
 20
20.842492848317129
 30
0.0
 11
3861.2779580594911
 21
20.842492848317129
 31
0.0
  0
LINE
  5
14A8
  8
OVERLAY-A3
 10
3861.2779580594911
 20
20.842492848317129
 30
0.0
 11
3861.2779580594911
 21
327.10007385772383
 31
0.0
  0
LINE
  5
14A9
  8
OVERLAY-A3
 10
3861.2779580594911
 20
327.10007385772383
 30
0.0
 11
2819.3515294571471
 21
327.10007385772383
 31
0.0
  0
TEXT
  5
14AA
  8
OVERLAY-A3
 10
2844.483219103111
 20
47.922488065357669
 30
0.0
 40
20.0
  1
Scale
 41
1.370174796565947
  7
SIMPLEX
 72
     5
 11
2944.9627041846138
 21
47.922488065357669
 31
0.0
  0
TEXT
  5
14AB
  8
OVERLAY-A3
 10
3474.8591236007969
 20
128.8934315067097
 30
0.0
 40
20.0
  1
Drawing No.
  7
SIMPLEX
 72
     2
 11
3649.1448378865121
 21
128.8934315067097
 31
0.0
  0
LINE
  5
14AC
  8
OVERLAY-A3
 10
975.47646208097501
 20
0.0
 30
0.0
 11
3890.0
 21
0.0
 31
0.0
  0
LINE
  5
14AD
  8
OVERLAY-A3
 10
3890.0
 20
0.0
 30
0.0
 11
3890.0
 21
2660.0
 31
0.0
  0
LINE
  5
14AE
  8
OVERLAY-A3
 10
3890.0
 20
2660.0
 30
0.0
 11
975.47646208097501
 21
2660.0
 31
0.0
  0
LINE
  5
14AF
  8
OVERLAY-A3
 10
975.47646208097501
 20
2660.0
 30
0.0
 11
975.47646208097501
 21
0.0
 31
0.0
  0
TEXT
  5
14B0
  8
TEXT
 10
2986.4981767448089
 20
47.9546519586629
 30
0.0
 40
30.0
  1
1:10
  7
TITLE3
  0
LINE
  5
14B1
  8
OUTLINE
 10
1577.1930154841671
 20
812.06654868530416
 30
0.0
 11
1577.1930134931431
 21
861.06976336355285
 31
0.0
  0
LINE
  5
14B2
  8
OUTLINE
 10
2888.1896635597532
 20
812.06654868530416
 30
0.0
 11
2888.1896635597532
 21
861.06652692889418
 31
0.0
  0
LINE
  5
14B3
  8
OUTLINE
 10
2899.1930307407811
 20
436.56649913067361
 30
0.0
 11
1577.1896805636061
 21
436.56982948925167
 31
0.0
  0
LINE
  5
14B4
  8
OUTLINE
 10
1577.1930137369241
 20
2146.4367146236759
 30
0.0
 11
1577.1930137369241
 21
2097.436714623675
 31
0.0
  0
LINE
  5
14B5
  8
OUTLINE
 10
2888.1896635597532
 20
2146.4367146236759
 30
0.0
 11
2888.1896635597532
 21
2097.436714623675
 31
0.0
  0
ARC
  5
14B6
  8
OUTLINE
 10
1606.6930137369261
 20
1674.0608951916099
 30
0.0
 40
4.5
 50
90.0
 51
270.0
  0
ARC
  5
14B7
  8
OUTLINE
 10
1617.693013736925
 20
1674.0608951916099
 30
0.0
 40
4.5
 50
270.0
 51
90.0
  0
LINE
  5
14B8
  8
OUTLINE
 10
1606.6930137369261
 20
1669.5608951916099
 30
0.0
 11
1617.693013736925
 21
1669.5608951916099
 31
0.0
  0
LINE
  5
14B9
  8
OUTLINE
 10
1617.693013736925
 20
1678.5608951916099
 30
0.0
 11
1606.6930137369261
 21
1678.5608951916099
 31
0.0
  0
ARC
  5
14BA
  8
OUTLINE
 10
2858.693013736925
 20
1674.0608951916099
 30
0.0
 40
4.5
 50
270.0
 51
90.0
  0
ARC
  5
14BB
  8
OUTLINE
 10
2847.6930137369268
 20
1674.0608951916099
 30
0.0
 40
4.5
 50
90.0
 51
270.0
  0
LINE
  5
14BC
  8
OUTLINE
 10
2858.693013736925
 20
1669.5608951916099
 30
0.0
 11
2847.6930137369268
 21
1669.5608951916099
 31
0.0
  0
LINE
  5
14BD
  8
OUTLINE
 10
2847.6930137369268
 20
1678.5608951916099
 30
0.0
 11
2858.693013736925
 21
1678.5608951916099
 31
0.0
  0
ARC
  5
14BE
  8
OUTLINE
 10
2847.6930137369268
 20
1144.0608951916099
 30
0.0
 40
4.5
 50
90.0
 51
270.0
  0
ARC
  5
14BF
  8
OUTLINE
 10
2858.693013736925
 20
1144.0608951916099
 30
0.0
 40
4.5
 50
270.0
 51
90.0
  0
LINE
  5
14C0
  8
OUTLINE
 10
2847.6930137369268
 20
1139.5608951916081
 30
0.0
 11
2858.693013736925
 21
1139.5608951916081
 31
0.0
  0
LINE
  5
14C1
  8
OUTLINE
 10
2858.693013736925
 20
1148.560895191609
 30
0.0
 11
2847.6930137369268
 21
1148.560895191609
 31
0.0
  0
ARC
  5
14C2
  8
OUTLINE
 10
1606.6930137369261
 20
1144.0608951916099
 30
0.0
 40
4.5
 50
90.0
 51
270.0
  0
ARC
  5
14C3
  8
OUTLINE
 10
1617.693013736925
 20
1144.0608951916099
 30
0.0
 40
4.5
 50
270.0
 51
90.0
  0
LINE
  5
14C4
  8
OUTLINE
 10
1606.6930137369261
 20
1139.5608951916081
 30
0.0
 11
1617.693013736925
 21
1139.5608951916081
 31
0.0
  0
LINE
  5
14C5
  8
OUTLINE
 10
1617.693013736925
 20
1148.560895191609
 30
0.0
 11
1606.6930137369261
 21
1148.560895191609
 31
0.0
  0
LINE
  5
14C6
  8
CLEAR
 10
1077.1930137369241
 20
1157.5608951916061
 30
0.0
 11
1077.1930137369241
 21
1660.5608951916099
 31
0.0
  0
LINE
  5
14C7
  8
CLEAR
 10
1077.1930137369241
 20
1660.5608951916099
 30
0.0
 11
1530.824186819038
 21
1660.5608951916099
 31
0.0
  0
LINE
  5
14C8
  8
CLEAR
 10
1077.1930137369241
 20
1157.5608951916061
 30
0.0
 11
1540.6276098979611
 21
1157.5608951916061
 31
0.0
  0
LINE
  5
14C9
  8
DIM
 10
2267.5101494526371
 20
1042.1344960495301
 30
0.0
 11
2267.5101494526371
 21
987.14859334198366
 31
0.0
  0
LINE
  5
14CA
  8
DIM
 10
2245.8561218565742
 20
1042.1344960495301
 30
0.0
 11
2245.8561218565742
 21
987.14859334198366
 31
0.0
  0
LINE
  5
14CB
  8
DIM
 10
2245.8561218565742
 20
987.14859334198366
 30
0.0
 11
2267.5101494526371
 21
987.14859334198366
 31
0.0
  0
LINE
  5
14CC
  8
DIM
 10
2285.2591320062711
 20
1042.1344960495301
 30
0.0
 11
2267.5101494526371
 21
1042.1344960495301
 31
0.0
  0
LINE
  5
14CD
  8
DIM
 10
2256.6831356546049
 20
1089.138577541848
 30
0.0
 11
2285.2591320062711
 21
1042.1344960495301
 31
0.0
  0
LINE
  5
14CE
  8
DIM
 10
2256.6831356546049
 20
1089.138577541848
 30
0.0
 11
2228.1071393029429
 21
1042.1344960495301
 31
0.0
  0
LINE
  5
14CF
  8
DIM
 10
2228.1071393029429
 20
1042.1344960495301
 30
0.0
 11
2245.8561218565742
 21
1042.1344960495301
 31
0.0
  0
LINE
  5
14D0
  8
DIM
 10
2315.503683678322
 20
1804.3304059635871
 30
0.0
 11
2344.079680029985
 21
1757.326324471268
 31
0.0
  0
LINE
  5
14D1
  8
DIM
 10
2344.079680029985
 20
1757.326324471268
 30
0.0
 11
2326.330697476355
 21
1757.326324471268
 31
0.0
  0
LINE
  5
14D2
  8
DIM
 10
2326.330697476355
 20
1757.326324471268
 30
0.0
 11
2326.330697476355
 21
1702.340421763723
 31
0.0
  0
LINE
  5
14D3
  8
DIM
 10
2304.676669880289
 20
1757.326324471268
 30
0.0
 11
2304.676669880289
 21
1702.340421763723
 31
0.0
  0
LINE
  5
14D4
  8
DIM
 10
2304.676669880289
 20
1702.340421763723
 30
0.0
 11
2326.330697476355
 21
1702.340421763723
 31
0.0
  0
LINE
  5
14D5
  8
DIM
 10
2286.9276873266581
 20
1757.326324471268
 30
0.0
 11
2304.676669880289
 21
1757.326324471268
 31
0.0
  0
LINE
  5
14D6
  8
DIM
 10
2315.503683678322
 20
1804.3304059635871
 30
0.0
 11
2286.9276873266581
 21
1757.326324471268
 31
0.0
  0
LINE
  5
14D7
  8
DIM
 10
3456.0930742438768
 20
1812.0528045137039
 30
0.0
 11
3456.0930742438768
 21
1757.066901806156
 31
0.0
  0
LINE
  5
14D8
  8
DIM
 10
3477.7471018399428
 20
1812.0528045137039
 30
0.0
 11
3477.7471018399428
 21
1757.066901806156
 31
0.0
  0
LINE
  5
14D9
  8
DIM
 10
3456.0930742438768
 20
1757.066901806156
 30
0.0
 11
3477.7471018399428
 21
1757.066901806156
 31
0.0
  0
LINE
  5
14DA
  8
DIM
 10
3495.4960843935742
 20
1812.0528045137039
 30
0.0
 11
3477.7471018399428
 21
1812.0528045137039
 31
0.0
  0
LINE
  5
14DB
  8
DIM
 10
3466.9200880419098
 20
1859.056886006023
 30
0.0
 11
3495.4960843935742
 21
1812.0528045137039
 31
0.0
  0
LINE
  5
14DC
  8
DIM
 10
3466.9200880419098
 20
1859.056886006023
 30
0.0
 11
3438.344091690245
 21
1812.0528045137039
 31
0.0
  0
LINE
  5
14DD
  8
DIM
 10
3438.344091690245
 20
1812.0528045137039
 30
0.0
 11
3456.0930742438768
 21
1812.0528045137039
 31
0.0
  0
TEXT
  5
14DE
  8
TEXT
 10
2046.124667928304
 20
1412.048036241328
 30
0.0
 40
75.0
  1
ISD220
  7
TITLE5
 72
     1
 11
2230.0532393568751
 21
1412.048036241328
 31
0.0
  0
TEXT
  5
14DF
  8
TEXT
 10
1123.575816991799
 20
1172.799518323518
 30
0.0
 40
30.0
  1
500 min CLEARANCE
 50
90.0
  7
TITLE3
  0
INSERT
  5
14E0
  8
TEXT
  2
NEW_BLOCK
 10
1019.711156898374
 20
17.10070727166476
 30
0.0
 41
0.75
 42
0.75
 43
0.75
  0
ENDSEC
  0
EOF
