  0
SECTION
  2
HEADER
  9
$ACADVER
  1
AC1009
  9
$INSBASE
 10
0.0
 20
0.0
 30
0.0
  9
$EXTMIN
 10
2882.2683065116498
 20
0.0
 30
0.0
  9
$EXTMAX
 10
7780.000000000312
 20
5320.0000000002146
 30
0.0
  9
$LIMMIN
 10
0.0
 20
0.0
  9
$LIMMAX
 10
7780.0
 20
5320.0
  9
$ORTHOMODE
 70
     1
  9
$REGENMODE
 70
     1
  9
$FILLMODE
 70
     1
  9
$QTEXTMODE
 70
     0
  9
$MIRRTEXT
 70
     0
  9
$DRAGMODE
 70
     2
  9
$LTSCALE
 40
150.0
  9
$OSMODE
 70
  3071
  9
$ATTMODE
 70
     1
  9
$TEXTSIZE
 40
60.0
  9
$TRACEWID
 40
0.05
  9
$TEXTSTYLE
  7
TITLE3
  9
$CLAYER
  8
TEXT
  9
$CELTYPE
  6
BYLAYER
  9
$CECOLOR
 62
   256
  9
$DIMSCALE
 40
1.0
  9
$DIMASZ
 40
0.12
  9
$DIMEXO
 40
0.05
  9
$DIMDLI
 40
0.5
  9
$DIMRND
 40
0.0
  9
$DIMDLE
 40
0.0
  9
$DIMEXE
 40
0.1
  9
$DIMTP
 40
0.1
  9
$DIMTM
 40
0.1
  9
$DIMTXT
 40
0.12
  9
$DIMCEN
 40
0.0
  9
$DIMTSZ
 40
0.0
  9
$DIMTOL
 70
     0
  9
$DIMLIM
 70
     0
  9
$DIMTIH
 70
     1
  9
$DIMTOH
 70
     1
  9
$DIMSE1
 70
     0
  9
$DIMSE2
 70
     0
  9
$DIMTAD
 70
     0
  9
$DIMZIN
 70
     7
  9
$DIMBLK
  1

  9
$DIMASO
 70
     0
  9
$DIMSHO
 70
     0
  9
$DIMPOST
  1

  9
$DIMAPOST
  1
mm
  9
$DIMALT
 70
     0
  9
$DIMALTD
 70
     2
  9
$DIMALTF
 40
25.399999999999999
  9
$DIMLFAC
 40
1.0
  9
$DIMTOFL
 70
     0
  9
$DIMTVP
 40
0.0
  9
$DIMTIX
 70
     0
  9
$DIMSOXD
 70
     0
  9
$DIMSAH
 70
     0
  9
$DIMBLK1
  1

  9
$DIMBLK2
  1

  9
$DIMSTYLE
  2
AM_ANSI
  9
$DIMCLRD
 70
   256
  9
$DIMCLRE
 70
   256
  9
$DIMCLRT
 70
     2
  9
$DIMTFAC
 40
0.71
  9
$DIMGAP
 40
0.06
  9
$LUNITS
 70
     2
  9
$LUPREC
 70
     2
  9
$SKETCHINC
 40
0.1
  9
$FILLETRAD
 40
0.0
  9
$AUNITS
 70
     0
  9
$AUPREC
 70
     2
  9
$MENU
  1
\acad12\support\cnc
  9
$ELEVATION
 40
0.0
  9
$PELEVATION
 40
0.0
  9
$THICKNESS
 40
0.0
  9
$LIMCHECK
 70
     0
  9
$BLIPMODE
 70
     0
  9
$CHAMFERA
 40
0.0
  9
$CHAMFERB
 40
0.0
  9
$SKPOLY
 70
     0
  9
$TDCREATE
 40
2451351.6417723382
  9
$TDUPDATE
 40
2454929.661483739
  9
$TDINDWG
 40
0.7235772454
  9
$TDUSRTIMER
 40
0.723575081
  9
$USRTIMER
 70
     1
  9
$ANGBASE
 50
0.0
  9
$ANGDIR
 70
     0
  9
$PDMODE
 70
     2
  9
$PDSIZE
 40
20.0
  9
$PLINEWID
 40
0.0
  9
$COORDS
 70
     1
  9
$SPLFRAME
 70
     0
  9
$SPLINETYPE
 70
     6
  9
$SPLINESEGS
 70
     8
  9
$ATTDIA
 70
     1
  9
$ATTREQ
 70
     1
  9
$HANDLING
 70
     1
  9
$HANDSEED
  5
1192
  9
$SURFTAB1
 70
     6
  9
$SURFTAB2
 70
     6
  9
$SURFTYPE
 70
     6
  9
$SURFU
 70
     6
  9
$SURFV
 70
     6
  9
$UCSNAME
  2

  9
$UCSORG
 10
0.0
 20
0.0
 30
0.0
  9
$UCSXDIR
 10
1.0
 20
0.0
 30
0.0
  9
$UCSYDIR
 10
0.0
 20
1.0
 30
0.0
  9
$PUCSNAME
  2

  9
$PUCSORG
 10
0.0
 20
0.0
 30
0.0
  9
$PUCSXDIR
 10
1.0
 20
0.0
 30
0.0
  9
$PUCSYDIR
 10
0.0
 20
1.0
 30
0.0
  9
$USERI1
 70
     0
  9
$USERI2
 70
     0
  9
$USERI3
 70
     0
  9
$USERI4
 70
     0
  9
$USERI5
 70
     0
  9
$USERR1
 40
0.0
  9
$USERR2
 40
0.0
  9
$USERR3
 40
0.0
  9
$USERR4
 40
0.0
  9
$USERR5
 40
0.0
  9
$WORLDVIEW
 70
     0
  9
$SHADEDGE
 70
     3
  9
$SHADEDIF
 70
    70
  9
$TILEMODE
 70
     1
  9
$MAXACTVP
 70
    16
  9
$PLIMCHECK
 70
     0
  9
$PEXTMIN
 10
1.0000000000000000E+020
 20
1.0000000000000000E+020
 30
1.0000000000000000E+020
  9
$PEXTMAX
 10
-1.0000000000000000E+020
 20
-1.0000000000000000E+020
 30
-1.0000000000000000E+020
  9
$PLIMMIN
 10
0.0
 20
0.0
  9
$PLIMMAX
 10
12.0
 20
9.0
  9
$UNITMODE
 70
     0
  9
$VISRETAIN
 70
     0
  9
$PLINEGEN
 70
     0
  9
$PSLTSCALE
 70
     0
  0
ENDSEC
  0
SECTION
  2
TABLES
  0
TABLE
  2
VPORT
 70
     1
  0
VPORT
  2
*ACTIVE
 70
     0
 10
0.0
 20
0.0
 11
1.0
 21
1.0
 12
5355.952660658596
 22
2660.000012386698
 13
0.0
 23
0.0
 14
50.0
 24
50.0
 15
100.0
 25
100.0
 16
0.0
 26
0.0
 36
1.0
 17
0.0
 27
0.0
 37
0.0
 40
5355.1359919197303
 41
2.0474613686534209
 42
50.0
 43
0.0
 44
0.0
 50
0.0
 51
0.0
 71
     0
 72
   100
 73
     1
 74
     0
 75
     0
 76
     0
 77
     0
 78
     0
  0
ENDTAB
  0
TABLE
  2
LTYPE
 70
    17
  0
LTYPE
  2
CONTINUOUS
 70
     0
  3
Solid line
 72
    65
 73
     0
 40
0.0
  0
LTYPE
  2
HIDDEN
 70
     0
  3
_ _ _ _ _ _ _ _ _ _ _ _ _ _ _ _ _ _ _ _ _ _ _
 72
    65
 73
     2
 40
0.375
 49
0.25
 49
-0.125
  0
LTYPE
  2
PHANTOM
 70
     0
  3
Phantom ______  __  __  ______  __  __  ______
 72
    65
 73
     6
 40
2.5
 49
1.25
 49
-0.25
 49
0.25
 49
-0.25
 49
0.25
 49
-0.25
  0
LTYPE
  2
PHANTOM2
 70
     0
  3
Phantom (.5x) ___ _ _ ___ _ _ ___ _ _ ___ _ _
 72
    65
 73
     6
 40
1.25
 49
0.625
 49
-0.125
 49
0.125
 49
-0.125
 49
0.125
 49
-0.125
  0
LTYPE
  2
CENTER
 70
     0
  3
Center ____ _ ____ _ ____ _ ____ _ ____ _ ____
 72
    65
 73
     4
 40
2.0
 49
1.25
 49
-0.25
 49
0.25
 49
-0.25
  0
LTYPE
  2
AM_ISO02W050
 70
     0
  3
__ __ __ __ __ __ __ __ __ __ __ __ __ __ __
 72
    65
 73
     2
 40
7.5
 49
6.0
 49
-1.5
  0
LTYPE
  2
AM_ISO08W050
 70
     0
  3
____ . ____ . ____ . ____ . ____ . ____ . ____
 72
    65
 73
     4
 40
18.0
 49
12.0
 49
-1.5
 49
3.0
 49
-1.5
  0
LTYPE
  2
AM_ISO09W050
 70
     0
  3
_____ . . _____ . . _____ . . ____ .. ____
 72
    65
 73
     6
 40
22.5
 49
12.0
 49
-1.5
 49
3.0
 49
-1.5
 49
3.0
 49
-1.5
  0
LTYPE
  2
AMCONSTR
 70
     0
  3
_______________________
 72
    65
 73
     2
 40
9999.0
 49
9999.0
 49
0.0
  0
LTYPE
  2
AM_ISO08W050X2
 70
     0
  3
__ . __ . __ . __ . __ . __
 72
    65
 73
     4
 40
9.0
 49
6.0
 49
-0.75
 49
1.5
 49
-0.75
  0
LTYPE
  2
AM_ISO02W050X2
 70
     0
  3
 _ _ _ _ _ _ _ _ _ _ _ _
 72
    65
 73
     2
 40
3.75
 49
3.0
 49
-0.75
  0
LTYPE
  2
AMZIGZAG
 70
     0
  3
/\/-/\/-/\/-/\/-/\/-/\/
 72
    65
 73
     2
 40
11.0001
 49
0.0001
 49
-11.0
  0
LTYPE
  2
CENTER2
 70
     0
  3
Center (.5x) ___ _ ___ _ ___ _ ___ _ ___ _ ___
 72
    65
 73
     4
 40
1.125
 49
0.75
 49
-0.125
 49
0.125
 49
-0.125
  0
LTYPE
  2
HIDDEN2
 70
     0
  3
Hidden (.5x) _ _ _ _ _ _ _ _ _ _ _ _ _ _ _ _ _
 72
    65
 73
     2
 40
0.1875
 49
0.125
 49
-0.0625
  0
LTYPE
  2
AMZIGZAG2
 70
     0
  3
/\/-/\/-/\/-/\/-/\/-/\/
 72
    65
 73
     2
 40
0.4401
 49
0.0001
 49
-0.4400000000000003
  0
LTYPE
  2
ACANSTGB
 70
     0
  3
__ . . __ . .
 72
    65
 73
     6
 40
0.35433070866
 49
0.15748031496
 49
-0.03937007874
 49
0.03937007874
 49
-0.03937007874
 49
0.03937007874
 49
-0.03937007874
  0
LTYPE
  2
ACANSTGL
 70
     0
  3
_ _ _ _ _
 72
    65
 73
     2
 40
0.11811023622
 49
0.07874015748
 49
-0.03937007874
  0
ENDTAB
  0
TABLE
  2
LAYER
 70
     6
  0
LAYER
  2
0
 70
     0
 62
     7
  6
CONTINUOUS
  0
LAYER
  2
TEXT
 70
     0
 62
   100
  6
CONTINUOUS
  0
LAYER
  2
DIM
 70
     0
 62
     7
  6
CONTINUOUS
  0
LAYER
  2
OUTLINE
 70
     0
 62
     7
  6
CONTINUOUS
  0
LAYER
  2
OVERLAY-A3
 70
     0
 62
     7
  6
CONTINUOUS
  0
LAYER
  2
CLEAR
 70
     0
 62
     1
  6
PHANTOM
  0
ENDTAB
  0
TABLE
  2
STYLE
 70
     7
  0
STYLE
  2
STANDARD
 70
     0
 40
0.0
 41
1.0
 50
0.0
 71
     0
 42
0.2
  3
txt
  4

  0
STYLE
  2
ANNOTATIVE
 70
     0
 40
0.0
 41
1.0
 50
0.0
 71
     0
 42
0.2
  3
txt
  4

  0
STYLE
  2
TITLE3
 70
     0
 40
60.0
 41
1.0
 50
0.0
 71
     0
 42
60.0
  3
SIMPLEX
  4

  0
STYLE
  2
SIMPLEX
 70
     0
 40
45.0
 41
1.0
 50
0.0
 71
     0
 42
45.0
  3
simplex
  4

  0
STYLE
  2

 70
     1
 40
0.0
 41
1.0
 50
0.0
 71
     0
 42
60.0
  3
genltshp.shx
  4

  0
STYLE
  2
ACANSTS
 70
     0
 40
1.0
 41
1.0
 50
0.0
 71
     0
 42
60.0
  3
romans.shx
  4

  0
STYLE
  2
ACANSGDT
 70
     0
 40
0.0
 41
1.0
 50
0.0
 71
     0
 42
60.0
  3
amgdt.shx
  4

  0
ENDTAB
  0
TABLE
  2
VIEW
 70
     0
  0
ENDTAB
  0
TABLE
  2
UCS
 70
     0
  0
ENDTAB
  0
TABLE
  2
APPID
 70
    15
  0
APPID
  2
ACAD
 70
     0
  0
APPID
  2
ACADANNOTATIVE
 70
     0
  0
APPID
  2
ACAD_MLEADERVER
 70
     0
  0
APPID
  2
MCAD_NO_VIS
 70
     0
  0
APPID
  2
ACAD_TEMP_GRAPHIC
 70
     0
  0
APPID
  2
AD_DRAW
 70
     0
  0
APPID
  2
ACATTRIBSERVICES
 70
     0
  0
APPID
  2
DESIGNERASSEMBLIES
 70
     0
  0
APPID
  2
ACADM_DIM_EDIT
 70
     0
  0
APPID
  2
AMDT_DM_ADJ
 70
     0
  0
APPID
  2
ACAD_EXEMPT_FROM_CAD_STANDARDS
 70
     0
  0
APPID
  2
ACAD_DSTYLE_DIMARC_LENGTH_
 70
     0
  0
APPID
  2
ACAD_DSTYLE_DIM_LINETYPE
 70
     0
  0
APPID
  2
ACAD_DSTYLE_DIM_EXT1_LINETYPE
 70
     0
  0
APPID
  2
ACAD_DSTYLE_DIM_EXT2_LINETYPE
 70
     0
  0
ENDTAB
  0
TABLE
  2
DIMSTYLE
 70
     8
  0
DIMSTYLE
  2
STANDARD
 70
     0
  3

  4

  5

  6

  7

 40
1.0
 41
0.18
 42
0.0625
 43
0.38
 44
0.18
 45
0.0
 46
0.0
 47
0.0
 48
0.0
140
0.18
141
0.09
142
0.0
143
25.399999999999999
144
1.0
145
0.0
146
1.0
147
0.09
 71
     0
 72
     0
 73
     1
 74
     1
 75
     0
 76
     0
 77
     0
 78
     0
170
     0
171
     2
172
     0
173
     0
174
     0
175
     0
176
     0
177
     0
178
     0
  0
DIMSTYLE
  2
ANNOTATIVE
 70
     0
  3

  4

  5

  6

  7

 40
1.0
 41
0.18
 42
0.0625
 43
0.38
 44
0.18
 45
0.0
 46
0.0
 47
0.0
 48
0.0
140
0.18
141
0.09
142
0.0
143
25.399999999999999
144
1.0
145
0.0
146
1.0
147
0.09
 71
     0
 72
     0
 73
     1
 74
     1
 75
     0
 76
     0
 77
     0
 78
     0
170
     0
171
     2
172
     0
173
     0
174
     0
175
     0
176
     0
177
     0
178
     0
  0
DIMSTYLE
  2
AM_ANSI
 70
     0
  3

  4
mm
  5

  6

  7

 40
1.0
 41
0.12
 42
0.05
 43
0.5
 44
0.1
 45
0.0
 46
0.0
 47
0.1
 48
0.1
140
0.12
141
0.0
142
0.0
143
25.399999999999999
144
1.0
145
0.0
146
0.71
147
0.06
 71
     0
 72
     0
 73
     1
 74
     1
 75
     0
 76
     0
 77
     0
 78
     7
170
     0
171
     2
172
     0
173
     0
174
     0
175
     0
176
   256
177
   256
178
     2
  0
DIMSTYLE
  2
AM_ANSI$3
 70
     0
  3

  4
mm
  5

  6

  7

 40
1.0
 41
0.12
 42
0.05
 43
0.5
 44
0.1
 45
0.0
 46
0.0
 47
0.1
 48
0.1
140
0.12
141
0.0
142
0.0
143
25.399999999999999
144
1.0
145
0.0
146
0.71
147
0.06
 71
     0
 72
     0
 73
     1
 74
     1
 75
     0
 76
     0
 77
     0
 78
     7
170
     0
171
     2
172
     0
173
     0
174
     0
175
     0
176
   256
177
   256
178
     2
  0
DIMSTYLE
  2
AM_ANSI$4
 70
     0
  3

  4
mm
  5

  6

  7

 40
1.0
 41
0.12
 42
0.05
 43
0.5
 44
0.1
 45
0.0
 46
0.0
 47
0.1
 48
0.1
140
0.12
141
0.0
142
0.0
143
25.399999999999999
144
1.0
145
0.0
146
0.71
147
0.06
 71
     0
 72
     0
 73
     1
 74
     1
 75
     0
 76
     0
 77
     0
 78
     7
170
     0
171
     2
172
     0
173
     0
174
     0
175
     0
176
   256
177
   256
178
     2
  0
DIMSTYLE
  2
AM_ANSI$7
 70
     0
  3

  4
mm
  5

  6

  7

 40
1.0
 41
0.12
 42
0.05
 43
0.5
 44
0.1
 45
0.0
 46
0.0
 47
0.1
 48
0.1
140
0.12
141
0.0
142
0.0
143
25.399999999999999
144
1.0
145
0.0
146
0.71
147
0.06
 71
     0
 72
     0
 73
     1
 74
     1
 75
     0
 76
     0
 77
     0
 78
     7
170
     0
171
     2
172
     0
173
     0
174
     0
175
     0
176
   256
177
   256
178
     2
  0
DIMSTYLE
  2
AM_ANSI$SF
 70
     0
  3

  4
mm
  5

  6

  7

 40
1.0
 41
0.12
 42
0.05
 43
0.5
 44
0.1
 45
0.0
 46
0.0
 47
0.1
 48
0.1
140
0.12
141
0.0
142
0.0
143
25.399999999999999
144
1.0
145
0.0
146
0.71
147
0.06
 71
     0
 72
     0
 73
     1
 74
     1
 75
     1
 76
     1
 77
     0
 78
     7
170
     0
171
     2
172
     0
173
     0
174
     0
175
     0
176
   256
177
   256
178
     2
  0
DIMSTYLE
  2
AM_ANSI$SH
 70
     0
  3

  4
mm
  5

  6
GENAXEH
  7

 40
1.0
 41
0.12
 42
0.05
 43
0.5
 44
0.1
 45
0.0
 46
0.0
 47
0.1
 48
0.1
140
0.12
141
0.0
142
0.0
143
25.399999999999999
144
1.0
145
0.0
146
0.71
147
0.06
 71
     0
 72
     0
 73
     1
 74
     1
 75
     1
 76
     1
 77
     0
 78
     7
170
     0
171
     2
172
     0
173
     1
174
     0
175
     0
176
   256
177
   256
178
     2
  0
ENDTAB
  0
ENDSEC
  0
SECTION
  2
BLOCKS
  0
BLOCK
  8
0
  2
$MODEL_SPACE
 70
     0
 10
0.0
 20
0.0
 30
0.0
  3
$MODEL_SPACE
  1

  0
ENDBLK
  5
FAF
  8
0
  0
BLOCK
 67
     1
  8
0
  2
$PAPER_SPACE
 70
     0
 10
0.0
 20
0.0
 30
0.0
  3
$PAPER_SPACE
  1

  0
ENDBLK
  5
FAB
 67
     1
  8
0
  0
BLOCK
  8
0
  2
NEW_BLOCK
 70
     0
 10
0.0
 20
0.0
 30
0.0
  3
NEW_BLOCK
  1

  0
TEXT
  5
9BE
  8
TEXT
 10
27.285946821803002
 20
25.27142175952417
 30
0.0
 40
40.0
  1
available on request
  7
TITLE3
  0
TEXT
  5
9BF
  8
TEXT
 10
27.285946821803002
 20
93.842850330952714
 30
0.0
 40
40.0
  1
Certified dimensions
  7
TITLE3
  0
TEXT
  5
9C0
  8
TEXT
 10
27.285946821803002
 20
162.4142789023812
 30
0.0
 40
40.0
  1
without notice or obligation.
  7
TITLE3
  0
TEXT
  5
9C1
  8
TEXT
 10
27.285946821803002
 20
230.9857074738097
 30
0.0
 40
40.0
  1
specifications at any time
  7
TITLE3
  0
TEXT
  5
9C2
  8
TEXT
 10
27.285946821803002
 20
299.55713604523839
 30
0.0
 40
40.0
  1
the right to change 
  7
TITLE3
  0
TEXT
  5
9C3
  8
TEXT
 10
27.285946821803002
 20
436.69999318809488
 30
0.0
 40
40.0
  1
NOTE
  7
TITLE3
  0
TEXT
  5
9C4
  8
TEXT
 10
27.285946821803002
 20
368.12856461666678
 30
0.0
 40
40.0
  1
The manufacturer reserves
  7
TITLE3
  0
ENDBLK
  5
9C5
  8
0
  0
BLOCK
  8
0
  2
GENAXEH
 70
     0
 10
0.0
 20
0.0
 30
0.0
  3
GENAXEH
  1

  0
LINE
  5
BE9
  8
0
 10
-1.0
 20
0.0
 30
0.0
 11
1.0
 21
0.0
 31
0.0
  0
ENDBLK
  5
BEB
  8
0
  0
ENDSEC
  0
SECTION
  2
ENTITIES
  0
TEXT
  5
9C6
  8
TEXT
 10
5766.3177364075036
 20
521.29633529900991
 30
0.0
 40
90.0
  1
temperzone ISD 299KBH
 41
1.1208843080147599
  7
SIMPLEX
 72
     5
 11
7630.1882143063331
 21
521.29633529900991
 31
0.0
  0
TEXT
  5
9C7
  8
TEXT
 10
6876.8608030369651
 20
100.7910853460107
 30
0.0
 40
60.0
  1
ISD299KBH
 41
1.1841116043266811
  7
SIMPLEX
 72
     5
 11
7435.0848450766862
 21
100.7910853460107
 31
0.0
  0
LINE
  5
9C8
  8
OUTLINE
  6
CONTINUOUS
 10
5748.2305634051072
 20
1238.9972915405431
 30
0.0
 11
7258.2305634051063
 21
1238.9972915405431
 31
0.0
  0
LINE
  5
9C9
  8
OUTLINE
 10
7258.2305634051063
 20
2094.797291540543
 30
0.0
 11
5748.2305634051072
 21
2094.797291540543
 31
0.0
  0
LINE
  5
9CA
  8
OUTLINE
 10
3865.7110822972099
 20
2094.7972915405421
 30
0.0
 11
3865.7110822972081
 21
1237.797291540536
 31
0.0
  0
LINE
  5
9CB
  8
OUTLINE
 10
3865.7110822972099
 20
2094.7972915405421
 30
0.0
 11
4853.7110822972099
 21
2094.7972915405421
 31
0.0
  0
LINE
  5
9CC
  8
OUTLINE
 10
4853.7110822972099
 20
1237.7972915405469
 30
0.0
 11
4853.7110822972099
 21
2094.7972915405421
 31
0.0
  0
LINE
  5
9CD
  8
OUTLINE
  6
BYBLOCK
 10
7256.7305634051063
 20
4130.5007233605356
 30
0.0
 11
7256.7305634051063
 21
3142.500723360537
 31
0.0
  0
LINE
  5
9CE
  8
OUTLINE
  6
BYBLOCK
 10
5748.730563405109
 20
4130.5007233605356
 30
0.0
 11
7256.7305634051063
 21
4130.5007233605356
 31
0.0
  0
LINE
  5
9CF
  8
OUTLINE
  6
BYBLOCK
 10
7256.7305634051063
 20
3142.500723360537
 30
0.0
 11
5748.730563405109
 21
3142.5007233605352
 31
0.0
  0
LINE
  5
9D0
  8
OUTLINE
  6
BYBLOCK
 10
5748.730563405109
 20
3142.5007233605352
 30
0.0
 11
5748.730563405109
 21
4130.5007233605356
 31
0.0
  0
LINE
  5
9D1
  8
OUTLINE
  6
CONTINUOUS
 10
5748.2305634051072
 20
2094.797291540543
 30
0.0
 11
5748.2305634051072
 21
1238.9972915405431
 31
0.0
  0
LINE
  5
9D3
  8
OUTLINE
  6
CONTINUOUS
 10
7258.2305634051063
 20
2094.797291540543
 30
0.0
 11
7258.2305634051063
 21
1238.9972915405431
 31
0.0
  0
ARC
  5
9D4
  8
OUTLINE
  6
HIDDEN
 10
4182.8479314849874
 20
1666.4640183609499
 30
0.0
 40
271.69999999999999
 50
220.9587062676998
 51
264.54176490587002
  0
ARC
  5
9D5
  8
OUTLINE
  6
HIDDEN
 10
4178.3379314849881
 20
1686.91401836095
 30
0.0
 40
291.69999999999982
 50
265.81101456591512
 51
309.35093597239972
  0
ARC
  5
9D6
  8
OUTLINE
  6
HIDDEN
 10
4100.4071055878903
 20
1620.770323150203
 30
0.0
 40
402.03393573421999
 50
44.0058881880896
 51
81.903831903929685
  0
ARC
  5
9D8
  8
OUTLINE
  6
HIDDEN
 10
4140.5979314849892
 20
1685.4740183609499
 30
0.0
 40
328.69999999999987
 50
356.88787769324477
 51
40.752941617474242
  0
ARC
  5
9D9
  8
OUTLINE
  6
HIDDEN
 10
4158.4379314849866
 20
1696.274018360949
 30
0.0
 40
311.69999999999982
 50
311.09560821251893
 51
354.71872950388882
  0
LINE
  5
9DA
  8
OUTLINE
  6
HIDDEN
 10
3896.917931484988
 20
1608.6940183609499
 30
0.0
 11
3896.917931484988
 21
2011.3940183609509
 31
0.0
  0
ARC
  5
9DB
  8
OUTLINE
  6
HIDDEN
 10
4182.8179314849885
 20
1637.6040183609509
 30
0.0
 40
253.6999999999999
 50
186.54326755184911
 51
216.01153635827581
  0
LINE
  5
9DC
  8
OUTLINE
  6
HIDDEN
 10
3932.2597133220888
 20
1608.6940183609499
 30
0.0
 11
3896.917931484988
 21
1608.6940183609499
 31
0.0
  0
LINE
  5
9DD
  8
OUTLINE
  6
HIDDEN
 10
3896.917931484988
 20
1608.6940183609499
 30
0.0
 11
3896.917931484988
 21
1609.89401836095
 31
0.0
  0
LINE
  5
9DE
  8
OUTLINE
  6
HIDDEN
 10
4157.0275627640722
 20
2018.79721836095
 30
0.0
 11
3896.917931484988
 21
2018.79721836095
 31
0.0
  0
LINE
  5
9DF
  8
OUTLINE
  6
CONTINUOUS
 10
3865.7110822972081
 20
2018.7972597694909
 30
0.0
 11
3803.711091211881
 21
2018.7972597694909
 31
0.0
  0
LINE
  5
9E0
  8
OUTLINE
  6
CONTINUOUS
 10
3865.7110822972081
 20
1606.79725976949
 30
0.0
 11
3803.711091211881
 21
1606.79725976949
 31
0.0
  0
LINE
  5
9E1
  8
OUTLINE
  6
CONTINUOUS
 10
3803.711091211881
 20
2018.7972597694909
 30
0.0
 11
3803.711091211881
 21
1606.79725976949
 31
0.0
  0
LINE
  5
9E2
  8
OUTLINE
  6
CONTINUOUS
 10
6668.7305356467223
 20
4192.500693447565
 30
0.0
 11
6332.7305356467223
 21
4192.5006934475632
 31
0.0
  0
LINE
  5
9E3
  8
OUTLINE
  6
CONTINUOUS
 10
6332.7305356467223
 20
4130.794693447564
 30
0.0
 11
6332.7305356467223
 21
4192.5006934475632
 31
0.0
  0
LINE
  5
9E4
  8
OUTLINE
  6
CONTINUOUS
 10
6668.7305356467223
 20
4130.5007233605356
 30
0.0
 11
6668.7305356467223
 21
4192.500693447565
 31
0.0
  0
LINE
  5
9E5
  8
OUTLINE
  6
CONTINUOUS
 10
5748.2305634051072
 20
1264.308954514094
 30
0.0
 11
5678.4305634051052
 21
1264.308954514094
 31
0.0
  0
LINE
  5
9E6
  8
OUTLINE
  6
CONTINUOUS
 10
5678.4305634051052
 20
1264.308954514094
 30
0.0
 11
5678.4305634051052
 21
1292.308954514094
 31
0.0
  0
LINE
  5
9E7
  8
OUTLINE
  6
CONTINUOUS
 10
5678.4305634051052
 20
1292.308954514094
 30
0.0
 11
5748.2305634051072
 21
1292.308954514094
 31
0.0
  0
LINE
  5
9E8
  8
OUTLINE
  6
CONTINUOUS
 10
5940.7305634051063
 20
2992.4962045022748
 30
0.0
 11
7210.7305634051063
 21
2992.4962045022748
 31
0.0
  0
LINE
  5
9E9
  8
DIM
  6
CONTINUOUS
 10
5746.5305634051083
 20
2133.797291540543
 30
0.0
 11
5746.5305634051083
 21
2331.2572499567368
 31
0.0
  0
LINE
  5
9EA
  8
DIM
  6
CONTINUOUS
 10
7259.9305634051088
 20
2133.797291540543
 30
0.0
 11
7259.9305634051088
 21
2331.2572499567368
 31
0.0
  0
LINE
  5
9EB
  8
DIM
  6
CONTINUOUS
 10
5808.7305634051072
 20
2291.2572499567368
 30
0.0
 11
6350.8054432238623
 21
2291.2572499567368
 31
0.0
  0
LINE
  5
9EC
  8
DIM
  6
CONTINUOUS
 10
7197.7305634051081
 20
2291.2572499567368
 30
0.0
 11
6633.7273060753587
 21
2291.2572499567368
 31
0.0
  0
SOLID
  5
9ED
  8
DIM
  6
CONTINUOUS
 10
5808.7305634051072
 20
2301.2572499567391
 30
0.0
 11
5808.7305634051072
 21
2281.2572499567391
 31
0.0
 12
5748.730563405109
 22
2291.2572499567368
 32
0.0
 13
5748.730563405109
 23
2291.2572499567368
 33
0.0
  0
SOLID
  5
9EE
  8
DIM
  6
CONTINUOUS
 10
7197.7305634051081
 20
2301.2572499567391
 30
0.0
 11
7197.7305634051081
 21
2281.2572499567391
 31
0.0
 12
7257.7305634051072
 22
2291.2572499567368
 32
0.0
 13
7257.7305634051072
 23
2291.2572499567368
 33
0.0
  0
TEXT
  5
9EF
  8
TEXT
 10
6391.4448491193934
 20
2261.2572499567382
 30
0.0
 40
60.0
  1
1510
  7
TITLE3
 72
     1
 11
6485.7305634051072
 21
2291.2572499567368
 31
0.0
 73
     2
  0
LINE
  5
9F0
  8
DIM
  6
CONTINUOUS
 10
3864.011082297206
 20
2133.797291540543
 30
0.0
 11
3864.011082297206
 21
2325.54902609071
 31
0.0
  0
LINE
  5
9F1
  8
DIM
  6
CONTINUOUS
 10
4855.4110822972088
 20
2133.797291540543
 30
0.0
 11
4855.4110822972088
 21
2325.54902609071
 31
0.0
  0
LINE
  5
9F2
  8
DIM
  6
CONTINUOUS
 10
3924.0110822972069
 20
2285.54902609071
 30
0.0
 11
4246.1574218234528
 21
2285.54902609071
 31
0.0
  0
LINE
  5
9F3
  8
DIM
  6
CONTINUOUS
 10
4795.4110822972079
 20
2285.54902609071
 30
0.0
 11
4469.871832864721
 21
2285.54902609071
 31
0.0
  0
SOLID
  5
9F4
  8
DIM
  6
CONTINUOUS
 10
3924.0110822972069
 20
2295.549026090709
 30
0.0
 11
3924.0110822972069
 21
2275.549026090709
 31
0.0
 12
3864.011082297206
 22
2285.54902609071
 32
0.0
 13
3864.011082297206
 23
2285.54902609071
 33
0.0
  0
SOLID
  5
9F5
  8
DIM
  6
CONTINUOUS
 10
4795.4110822972079
 20
2295.549026090709
 30
0.0
 11
4795.4110822972079
 21
2275.549026090709
 31
0.0
 12
4855.4110822972088
 22
2285.54902609071
 32
0.0
 13
4855.4110822972088
 23
2285.54902609071
 33
0.0
  0
TEXT
  5
9F6
  8
TEXT
 10
4279.3682251543514
 20
2255.54902609071
 30
0.0
 40
60.0
  1
988
  7
TITLE3
 72
     1
 11
4356.5110822972083
 21
2285.54902609071
 31
0.0
 73
     2
  0
LINE
  5
9F7
  8
DIM
  6
CONTINUOUS
 10
3864.011082297206
 20
2272.5772101274611
 30
0.0
 11
3864.011082297206
 21
2137.436314716882
 31
0.0
  0
LINE
  5
9F8
  8
DIM
  6
CONTINUOUS
 10
3804.2145912118808
 20
1949.738059769491
 30
0.0
 11
3804.2145912118808
 21
2325.54902609071
 31
0.0
  0
LINE
  5
9F9
  8
DIM
  6
CONTINUOUS
 10
3924.0110822972069
 20
2285.54902609071
 30
0.0
 11
3984.0110822972069
 21
2285.54902609071
 31
0.0
  0
LINE
  5
9FA
  8
DIM
  6
CONTINUOUS
 10
3744.2145912118808
 20
2285.54902609071
 30
0.0
 11
3684.2145912118822
 21
2285.54902609071
 31
0.0
  0
SOLID
  5
9FB
  8
DIM
  6
CONTINUOUS
 10
3924.0110822972069
 20
2295.549026090709
 30
0.0
 11
3924.0110822972069
 21
2275.549026090709
 31
0.0
 12
3864.011082297206
 22
2285.54902609071
 32
0.0
 13
3864.011082297206
 23
2285.54902609071
 33
0.0
  0
SOLID
  5
9FC
  8
DIM
  6
CONTINUOUS
 10
3744.2145912118808
 20
2295.549026090709
 30
0.0
 11
3744.2145912118808
 21
2275.549026090709
 31
0.0
 12
3804.2145912118808
 22
2285.54902609071
 32
0.0
 13
3804.2145912118808
 23
2285.54902609071
 33
0.0
  0
TEXT
  5
9FD
  8
TEXT
 10
3677.3884702466121
 20
2308.582608633767
 30
0.0
 40
60.0
  1
62
  7
TITLE3
 72
     1
 11
3725.9598988180401
 21
2338.582608633767
 31
0.0
 73
     2
  0
LINE
  5
9FE
  8
DIM
  6
CONTINUOUS
 10
4855.4110822972088
 20
2133.797291540543
 30
0.0
 11
4855.4110822972088
 21
2325.54902609071
 31
0.0
  0
LINE
  5
9FF
  8
DIM
  6
CONTINUOUS
 10
5005.411082297207
 20
2106.3972915405402
 30
0.0
 11
5005.411082297207
 21
2325.54902609071
 31
0.0
  0
LINE
  5
A00
  8
DIM
  6
CONTINUOUS
 10
4792.0110822972083
 20
2285.54902609071
 30
0.0
 11
4732.0110822972083
 21
2285.54902609071
 31
0.0
  0
LINE
  5
A01
  8
DIM
  6
CONTINUOUS
 10
5065.4110822972079
 20
2285.54902609071
 30
0.0
 11
5125.4110822972079
 21
2285.54902609071
 31
0.0
  0
SOLID
  5
A02
  8
DIM
  6
CONTINUOUS
 10
4795.4110822972079
 20
2295.549026090709
 30
0.0
 11
4795.4110822972079
 21
2275.549026090709
 31
0.0
 12
4855.4110822972088
 22
2285.54902609071
 32
0.0
 13
4855.4110822972088
 23
2285.54902609071
 33
0.0
  0
SOLID
  5
A03
  8
DIM
  6
CONTINUOUS
 10
5065.4110822972079
 20
2295.549026090709
 30
0.0
 11
5065.4110822972079
 21
2275.549026090709
 31
0.0
 12
5005.411082297207
 22
2285.54902609071
 32
0.0
 13
5005.411082297207
 23
2285.54902609071
 33
0.0
  0
TEXT
  5
A04
  8
TEXT
 10
4852.561062149487
 20
2352.92758028344
 30
0.0
 40
60.0
  1
150
  7
TITLE3
 72
     4
 11
4923.9896335780577
 21
2382.92758028344
 31
0.0
  0
LINE
  5
A05
  8
DIM
  6
CONTINUOUS
 10
5045.4110822972079
 20
2068.7972915405398
 30
0.0
 11
5246.943169718882
 21
2068.7972915405398
 31
0.0
  0
LINE
  5
A06
  8
DIM
  6
CONTINUOUS
 10
5045.4110822972079
 20
1264.797291540543
 30
0.0
 11
5246.943169718882
 21
1264.797291540543
 31
0.0
  0
LINE
  5
A07
  8
DIM
  6
CONTINUOUS
 10
5206.943169718882
 20
2002.997291540539
 30
0.0
 11
5206.943169718882
 21
1848.146574762188
 31
0.0
  0
LINE
  5
A08
  8
DIM
  6
CONTINUOUS
 10
5206.943169718882
 20
1324.797291540543
 30
0.0
 11
5206.943169718882
 21
1624.752057829616
 31
0.0
  0
SOLID
  5
A09
  8
DIM
  6
CONTINUOUS
 10
5196.9431697188811
 20
2008.7972915405401
 30
0.0
 11
5216.9431697188811
 21
2008.7972915405401
 31
0.0
 12
5206.943169718882
 22
2068.7972915405398
 32
0.0
 13
5206.943169718882
 23
2068.7972915405398
 33
0.0
  0
SOLID
  5
A0A
  8
DIM
  6
CONTINUOUS
 10
5196.9431697188811
 20
1324.797291540543
 30
0.0
 11
5216.9431697188811
 21
1324.797291540543
 31
0.0
 12
5206.943169718882
 22
1264.797291540543
 32
0.0
 13
5206.943169718882
 23
1264.797291540543
 33
0.0
  0
TEXT
  5
A0B
  8
TEXT
 10
5236.943169718882
 20
1663.2258629691121
 30
0.0
 40
60.0
  1
804
 50
90.0
  7
TITLE3
 72
     4
 11
5206.943169718882
 21
1741.797291540541
 31
0.0
  0
LINE
  5
A0D
  8
DIM
  6
CONTINUOUS
 10
3764.2145912118799
 20
2018.7972597694909
 30
0.0
 11
3598.9509926915289
 21
2018.7972597694909
 31
0.0
  0
LINE
  5
A0E
  8
DIM
  6
CONTINUOUS
 10
3764.2145912118799
 20
1606.79725976949
 30
0.0
 11
3598.9509926915289
 21
1606.79725976949
 31
0.0
  0
LINE
  5
A0F
  8
DIM
  6
CONTINUOUS
 10
3638.9509926915271
 20
1666.79725976949
 30
0.0
 11
3638.9509926915271
 21
1706.4301876004099
 31
0.0
  0
LINE
  5
A10
  8
DIM
  6
CONTINUOUS
 10
3638.9509926915271
 20
1958.79725976949
 30
0.0
 11
3638.9509926915271
 21
1898.7972597694891
 31
0.0
  0
SOLID
  5
A11
  8
DIM
  6
CONTINUOUS
 10
3628.950992691528
 20
1666.79725976949
 30
0.0
 11
3648.9509926915298
 21
1666.79725976949
 31
0.0
 12
3638.9509926915271
 22
1606.79725976949
 32
0.0
 13
3638.9509926915271
 23
1606.79725976949
 33
0.0
  0
SOLID
  5
A12
  8
DIM
  6
CONTINUOUS
 10
3628.950992691528
 20
1958.79725976949
 30
0.0
 11
3648.9509926915298
 21
1958.79725976949
 31
0.0
 12
3638.9509926915271
 22
2018.7972597694909
 32
0.0
 13
3638.9509926915271
 23
2018.7972597694909
 33
0.0
  0
TEXT
  5
A13
  8
TEXT
 10
3668.9509926915271
 20
1726.6584983760961
 30
0.0
 40
60.0
  1
412
 50
90.0
  7
TITLE3
 72
     1
 11
3638.9509926915271
 21
1798.0870698046681
 31
0.0
 73
     2
  0
LINE
  5
A14
  8
OUTLINE
  6
CONTINUOUS
 10
5680.630563405105
 20
3454.9739486560188
 30
0.0
 11
5748.730563405109
 21
3454.9739486560188
 31
0.0
  0
LINE
  5
A15
  8
OUTLINE
  6
CONTINUOUS
 10
5748.730563405109
 20
3426.9739486560188
 30
0.0
 11
5680.630563405105
 21
3426.9739486560188
 31
0.0
  0
LINE
  5
A16
  8
OUTLINE
  6
CONTINUOUS
 10
5680.630563405105
 20
3426.9739486560188
 30
0.0
 11
5680.630563405105
 21
3454.9739486560188
 31
0.0
  0
LINE
  5
A17
  8
DIM
  6
CONTINUOUS
 10
6332.7305356467223
 20
4230.7946934475649
 30
0.0
 11
6332.7305356467223
 21
4370.0014289689634
 31
0.0
  0
LINE
  5
A18
  8
DIM
  6
CONTINUOUS
 10
6668.7305356467223
 20
4230.7946934475649
 30
0.0
 11
6668.7305356467223
 21
4370.0014289689634
 31
0.0
  0
LINE
  5
A19
  8
DIM
  6
CONTINUOUS
 10
6392.7305356467223
 20
4330.0014289689634
 30
0.0
 11
6453.0876785038636
 21
4330.0014289689634
 31
0.0
  0
LINE
  5
A1A
  8
DIM
  6
CONTINUOUS
 10
6608.7305356467223
 20
4330.0014289689634
 30
0.0
 11
6548.3733927895773
 21
4330.0014289689634
 31
0.0
  0
SOLID
  5
A1B
  8
DIM
  6
CONTINUOUS
 10
6392.7305356467223
 20
4340.0014289689634
 30
0.0
 11
6392.7305356467223
 21
4320.0014289689634
 31
0.0
 12
6332.7305356467223
 22
4330.0014289689634
 32
0.0
 13
6332.7305356467223
 23
4330.0014289689634
 33
0.0
  0
SOLID
  5
A1C
  8
DIM
  6
CONTINUOUS
 10
6608.7305356467223
 20
4340.0014289689634
 30
0.0
 11
6608.7305356467223
 21
4320.0014289689634
 31
0.0
 12
6668.7305356467223
 22
4330.0014289689634
 32
0.0
 13
6668.7305356467223
 23
4330.0014289689634
 33
0.0
  0
TEXT
  5
A1D
  8
TEXT
 10
6427.846038948167
 20
4345.0832724967049
 30
0.0
 40
60.0
  1
336
  7
TITLE3
 72
     1
 11
6503.5603246624514
 21
4375.0832724967049
 31
0.0
 73
     2
  0
LINE
  5
A1E
  8
DIM
  6
CONTINUOUS
 10
5749.930563405107
 20
4170.4962045022758
 30
0.0
 11
5749.930563405107
 21
4370.0014289689634
 31
0.0
  0
LINE
  5
A1F
  8
DIM
  6
CONTINUOUS
 10
6272.7305356467223
 20
4330.0014289689634
 30
0.0
 11
6163.5684636459218
 21
4330.0014289689607
 31
0.0
  0
LINE
  5
A20
  8
DIM
  6
CONTINUOUS
 10
5809.930563405107
 20
4330.0014289689634
 30
0.0
 11
5975.9507923830579
 21
4330.0014289689634
 31
0.0
  0
SOLID
  5
A21
  8
DIM
  6
CONTINUOUS
 10
6272.7305356467223
 20
4340.0014289689634
 30
0.0
 11
6272.7305356467223
 21
4320.0014289689634
 31
0.0
 12
6332.7305356467223
 22
4330.0014289689634
 32
0.0
 13
6332.7305356467223
 23
4330.0014289689634
 33
0.0
  0
SOLID
  5
A22
  8
DIM
  6
CONTINUOUS
 10
5809.930563405107
 20
4340.0014289689634
 30
0.0
 11
5809.930563405107
 21
4320.0014289689634
 31
0.0
 12
5749.930563405107
 22
4330.0014289689634
 32
0.0
 13
5749.930563405107
 23
4330.0014289689634
 33
0.0
  0
TEXT
  5
A23
  8
TEXT
 10
5985.9507923830588
 20
4300.0014289689643
 30
0.0
 40
60.0
  1
583
  7
TITLE3
 72
     1
 11
6063.0936495259157
 21
4330.0014289689634
 31
0.0
 73
     2
  0
LINE
  5
A24
  8
DIM
  6
CONTINUOUS
 10
7256.5305634051074
 20
4170.5007233605347
 30
0.0
 11
7256.5305634051074
 21
4369.7121750661709
 31
0.0
  0
LINE
  5
A25
  8
DIM
  6
CONTINUOUS
 10
6728.7305356467232
 20
4329.707656207911
 30
0.0
 11
6841.7358157715171
 21
4329.707656207911
 31
0.0
  0
LINE
  5
A26
  8
DIM
  6
CONTINUOUS
 10
7196.5305634051083
 20
4329.707656207911
 30
0.0
 11
7044.2320364269081
 21
4329.707656207911
 31
0.0
  0
SOLID
  5
A27
  8
DIM
  6
CONTINUOUS
 10
6728.7305356467232
 20
4339.707656207911
 30
0.0
 11
6728.7305356467232
 21
4319.707656207911
 31
0.0
 12
6668.7305356467223
 22
4329.707656207911
 32
0.0
 13
6668.7305356467223
 23
4329.707656207911
 33
0.0
  0
SOLID
  5
A28
  8
DIM
  6
CONTINUOUS
 10
7196.5305634051083
 20
4339.712175066169
 30
0.0
 11
7196.5305634051083
 21
4319.7121750661709
 31
0.0
 12
7256.5305634051074
 22
4329.7121750661709
 32
0.0
 13
7256.5305634051074
 23
4329.7121750661709
 33
0.0
  0
TEXT
  5
A29
  8
TEXT
 10
6875.6276348701631
 20
4300.7841697347612
 30
0.0
 40
60.0
  1
589
  7
TITLE3
 72
     1
 11
6951.3419205844484
 21
4330.7841697347612
 31
0.0
 73
     2
  0
LINE
  5
A2A
  8
OUTLINE
 10
5005.411082297207
 20
1264.797291540543
 30
0.0
 11
5005.411082297207
 21
2068.7972915405398
 31
0.0
  0
LINE
  5
A2B
  8
OUTLINE
  6
CONTINUOUS
 10
5005.411082297207
 20
1264.797291540543
 30
0.0
 11
4853.7110822972063
 21
1264.7972915405419
 31
0.0
  0
LINE
  5
A2C
  8
OUTLINE
  6
CONTINUOUS
 10
5005.411082297207
 20
2068.7972915405398
 30
0.0
 11
4853.7110822972099
 21
2068.7972915405421
 31
0.0
  0
LINE
  5
A2D
  8
OUTLINE
  6
CONTINUOUS
 10
7212.7305634051072
 20
2068.7972915405198
 30
0.0
 11
5864.7305634051072
 21
2068.7972915405549
 31
0.0
  0
LINE
  5
A2E
  8
OUTLINE
  6
CONTINUOUS
 10
7212.7305634051072
 20
1264.797291540548
 30
0.0
 11
5864.7305634051072
 21
1264.7972915405389
 31
0.0
  0
LINE
  5
A2F
  8
OUTLINE
 10
5975.2305634051081
 20
1188.997291540536
 30
0.0
 11
6079.230563405109
 21
1188.997291540536
 31
0.0
  0
LINE
  5
A30
  8
OUTLINE
 10
5975.2305634051081
 20
1238.9972915405431
 30
0.0
 11
5975.2305634051081
 21
1188.997291540536
 31
0.0
  0
LINE
  5
A31
  8
OUTLINE
 10
6079.230563405109
 20
1188.997291540536
 30
0.0
 11
6079.2305634051099
 21
1238.9972915405431
 31
0.0
  0
TEXT
  5
A32
  8
TEXT
  6
CONTINUOUS
 10
5900.2128682219591
 20
220.0
 30
0.0
 40
60.0
  1
07-04-09
 41
0.6787878787878828
  7
TITLE3
 72
     5
 11
6220.2128682219609
 21
220.0
 31
0.0
  0
LINE
  5
A33
  8
OUTLINE
  6
CONTINUOUS
 10
5748.5645751485317
 20
3477.3105129695409
 30
0.0
 11
5580.3297341586913
 21
4069.6832410440561
 31
0.0
  0
ARC
  5
A34
  8
OUTLINE
  6
CONTINUOUS
 10
5749.930563405107
 20
3472.5007233605361
 30
0.0
 40
620.79900185801046
 50
91.396355806712805
 51
105.85463470220191
  0
LINE
  5
A35
  8
OUTLINE
 10
3847.0110822972078
 20
1188.797291540536
 30
0.0
 11
4866.0110822972101
 21
1188.797291540536
 31
0.0
  0
LINE
  5
A36
  8
OUTLINE
 10
3865.7110822972081
 20
1237.797291540536
 30
0.0
 11
4853.7110822972099
 21
1237.7972915405469
 31
0.0
  0
LINE
  5
A37
  8
OUTLINE
  6
CONTINUOUS
 10
3847.0110822972078
 20
1188.797291540536
 30
0.0
 11
3847.0110822972078
 21
1216.997291540536
 31
0.0
  0
LINE
  5
A38
  8
OUTLINE
 10
7029.2305634051072
 20
1238.9972915405431
 30
0.0
 11
7029.2305634051072
 21
1188.997291540536
 31
0.0
  0
LINE
  5
A39
  8
OUTLINE
 10
6925.2305634051072
 20
1188.997291540536
 30
0.0
 11
6925.2305634051072
 21
1238.9972915405431
 31
0.0
  0
LINE
  5
A3A
  8
OUTLINE
 10
7029.2305634051072
 20
1188.997291540536
 30
0.0
 11
6925.2305634051072
 21
1188.997291540536
 31
0.0
  0
LINE
  5
A3B
  8
DIM
  6
CONTINUOUS
 10
4866.0110822972092
 20
1148.997291540536
 30
0.0
 11
4866.0110822972092
 21
1032.11318342254
 31
0.0
  0
LINE
  5
A3C
  8
DIM
  6
CONTINUOUS
 10
3858.0110822972078
 20
1148.997291540536
 30
0.0
 11
3858.0110822972078
 21
888.64210788075832
 31
0.0
  0
LINE
  5
A3D
  8
DIM
  6
CONTINUOUS
 10
3918.0110822972078
 20
928.64210788075809
 30
0.0
 11
4095.9396537257771
 21
928.64210788075809
 31
0.0
  0
LINE
  5
A3E
  8
DIM
  6
CONTINUOUS
 10
4795.0110822972083
 20
928.64210788075809
 30
0.0
 11
4617.0825108686367
 21
928.64210788075809
 31
0.0
  0
SOLID
  5
A3F
  8
DIM
  6
CONTINUOUS
 10
3920.0110822972092
 20
938.64210788075832
 30
0.0
 11
3920.0110822972092
 21
918.64210788075809
 31
0.0
 12
3860.0110822972092
 22
928.64210788075809
 32
0.0
 13
3860.0110822972092
 23
928.64210788075809
 33
0.0
  0
SOLID
  5
A40
  8
DIM
  6
CONTINUOUS
 10
4795.0110822972083
 20
938.64210788075832
 30
0.0
 11
4795.0110822972083
 21
918.64210788075809
 31
0.0
 12
4855.0110822972101
 22
928.64210788075809
 32
0.0
 13
4855.0110822972101
 23
928.64210788075809
 33
0.0
  0
TEXT
  5
A41
  8
TEXT
 10
4137.939653725779
 20
898.6421078807582
 30
0.0
 40
60.0
  1
997 CTRS
  7
TITLE3
  0
LINE
  5
A42
  8
DIM
  6
CONTINUOUS
 10
3847.0110822972078
 20
1148.997291540536
 30
0.0
 11
3847.0110822972078
 21
888.64210788075832
 31
0.0
  0
LINE
  5
A43
  8
DIM
  6
CONTINUOUS
 10
3920.0110822972092
 20
928.64210788075809
 30
0.0
 11
3988.0110822972092
 21
928.64210788075809
 31
0.0
  0
LINE
  5
A44
  8
DIM
  6
CONTINUOUS
 10
3787.0110822972092
 20
928.64210788075809
 30
0.0
 11
3727.0110822972092
 21
928.64210788075809
 31
0.0
  0
TEXT
  5
A45
  8
TEXT
 10
3638.1948086195489
 20
894.42327066316955
 30
0.0
 40
60.0
  1
11
  7
TITLE3
  0
SOLID
  5
A46
  8
DIM
  6
CONTINUOUS
 10
3918.0110822972078
 20
938.64210788075832
 30
0.0
 11
3918.0110822972078
 21
918.64210788075809
 31
0.0
 12
3858.0110822972078
 22
928.64210788075809
 32
0.0
 13
3858.0110822972078
 23
928.64210788075809
 33
0.0
  0
SOLID
  5
A47
  8
DIM
  6
CONTINUOUS
 10
3787.0110822972092
 20
938.64210788075832
 30
0.0
 11
3787.0110822972092
 21
918.64210788075809
 31
0.0
 12
3847.0110822972078
 22
928.64210788075809
 32
0.0
 13
3847.0110822972078
 23
928.64210788075809
 33
0.0
  0
LINE
  5
A48
  8
DIM
  6
CONTINUOUS
 10
4855.0110822972101
 20
1148.997291540536
 30
0.0
 11
4855.0110822972101
 21
888.64210788075832
 31
0.0
  0
LINE
  5
A49
  8
DIM
  6
CONTINUOUS
 10
4866.0110822972092
 20
1148.997291540536
 30
0.0
 11
4866.0110822972092
 21
888.64210788075832
 31
0.0
  0
LINE
  5
A4A
  8
DIM
  6
CONTINUOUS
 10
4795.0110822972083
 20
928.64210788075809
 30
0.0
 11
4735.0110822972083
 21
928.64210788075809
 31
0.0
  0
LINE
  5
A4B
  8
DIM
  6
CONTINUOUS
 10
4926.0110822972083
 20
928.64210788075809
 30
0.0
 11
4986.0110822972083
 21
928.64210788075809
 31
0.0
  0
TEXT
  5
A4C
  8
TEXT
 10
5004.3837084737997
 20
894.27939641984972
 30
0.0
 40
60.0
  1
11
  7
TITLE3
  0
SOLID
  5
A4D
  8
DIM
  6
CONTINUOUS
 10
4795.0110822972083
 20
938.64210788075832
 30
0.0
 11
4795.0110822972083
 21
918.64210788075809
 31
0.0
 12
4855.0110822972101
 22
928.64210788075809
 32
0.0
 13
4855.0110822972101
 23
928.64210788075809
 33
0.0
  0
SOLID
  5
A4E
  8
DIM
  6
CONTINUOUS
 10
4926.0110822972083
 20
938.64210788075832
 30
0.0
 11
4926.0110822972083
 21
918.64210788075809
 31
0.0
 12
4866.0110822972092
 22
928.64210788075809
 32
0.0
 13
4866.0110822972092
 23
928.64210788075809
 33
0.0
  0
LINE
  5
A4F
  8
DIM
  6
CONTINUOUS
 10
3809.0110822972092
 20
1188.797291540536
 30
0.0
 11
3447.4944803011899
 21
1188.797291540536
 31
0.0
  0
LINE
  5
A50
  8
DIM
  6
CONTINUOUS
 10
3824.0110822972069
 20
2094.7972915405421
 30
0.0
 11
3447.4944803011899
 21
2094.7972915405421
 31
0.0
  0
LINE
  5
A51
  8
DIM
  6
CONTINUOUS
 10
3487.494480301189
 20
1248.797291540536
 30
0.0
 11
3487.494480301189
 21
1558.6167455668001
 31
0.0
  0
LINE
  5
A52
  8
DIM
  6
CONTINUOUS
 10
3487.494480301189
 20
2033.797291540543
 30
0.0
 11
3487.494480301189
 21
1827.3685717271451
 31
0.0
  0
SOLID
  5
A53
  8
DIM
  6
CONTINUOUS
 10
3477.4944803011899
 20
1248.797291540536
 30
0.0
 11
3497.4944803011899
 21
1248.797291540536
 31
0.0
 12
3487.494480301189
 22
1188.797291540536
 32
0.0
 13
3487.494480301189
 23
1188.797291540536
 33
0.0
  0
SOLID
  5
A54
  8
DIM
  6
CONTINUOUS
 10
3477.4944803011899
 20
2033.797291540543
 30
0.0
 11
3497.4944803011899
 21
2033.797291540543
 31
0.0
 12
3487.494480301189
 22
2093.7972915405421
 32
0.0
 13
3487.494480301189
 23
2093.7972915405421
 33
0.0
  0
TEXT
  5
A55
  8
TEXT
 10
3517.494480301189
 20
1591.39729154054
 30
0.0
 40
60.0
  1
906
 50
90.0
  7
TITLE3
  0
LINE
  5
A58
  8
DIM
  6
CONTINUOUS
 10
3787.4110822972102
 20
1238.9972915405431
 30
0.0
 11
3598.9509926915289
 21
1238.9972915405431
 31
0.0
  0
LINE
  5
A59
  8
DIM
  6
CONTINUOUS
 10
3638.9509926915271
 20
1298.9972915405431
 30
0.0
 11
3638.9509926915271
 21
1304.9972915405431
 31
0.0
  0
LINE
  5
A5A
  8
DIM
  6
CONTINUOUS
 10
3638.9509926915271
 20
1546.79725976949
 30
0.0
 11
3638.9509926915271
 21
1486.79725976949
 31
0.0
  0
SOLID
  5
A5B
  8
DIM
  6
CONTINUOUS
 10
3628.950992691528
 20
1298.9972915405431
 30
0.0
 11
3648.9509926915298
 21
1298.9972915405431
 31
0.0
 12
3638.9509926915271
 22
1238.9972915405431
 32
0.0
 13
3638.9509926915271
 23
1238.9972915405431
 33
0.0
  0
SOLID
  5
A5C
  8
DIM
  6
CONTINUOUS
 10
3628.950992691528
 20
1546.79725976949
 30
0.0
 11
3648.9509926915289
 21
1546.79725976949
 31
0.0
 12
3638.9509926915271
 22
1606.7972597694909
 32
0.0
 13
3638.9509926915271
 23
1606.7972597694909
 33
0.0
  0
TEXT
  5
A5D
  8
TEXT
 10
3668.9509926915271
 20
1320.72481851216
 30
0.0
 40
60.0
  1
369
 50
90.0
  7
TITLE3
  0
LINE
  5
A5F
  8
DIM
  6
CONTINUOUS
 10
3638.9509926915271
 20
1958.79725976949
 30
0.0
 11
3638.9509926915271
 21
1898.7972597694891
 31
0.0
  0
LINE
  5
A60
  8
DIM
  6
CONTINUOUS
 10
3638.9509926915271
 20
2154.797291540543
 30
0.0
 11
3638.9509926915271
 21
2214.797291540543
 31
0.0
  0
SOLID
  5
A61
  8
DIM
  6
CONTINUOUS
 10
3628.950992691528
 20
1958.79725976949
 30
0.0
 11
3648.9509926915298
 21
1958.79725976949
 31
0.0
 12
3638.9509926915271
 22
2018.7972597694909
 32
0.0
 13
3638.9509926915271
 23
2018.7972597694909
 33
0.0
  0
SOLID
  5
A62
  8
DIM
  6
CONTINUOUS
 10
3628.950992691528
 20
2154.797291540543
 30
0.0
 11
3648.9509926915298
 21
2154.797291540543
 31
0.0
 12
3638.9509926915271
 22
2094.7972915405421
 32
0.0
 13
3638.9509926915271
 23
2094.7972915405421
 33
0.0
  0
LINE
  5
A63
  8
DIM
  6
CONTINUOUS
 10
6027.2305634051072
 20
1148.997291540536
 30
0.0
 11
6027.2305634051072
 21
983.16271145598057
 31
0.0
  0
LINE
  5
A64
  8
DIM
  6
CONTINUOUS
 10
6977.2305634051072
 20
1148.997291540536
 30
0.0
 11
6977.2305634051072
 21
983.16271145598057
 31
0.0
  0
LINE
  5
A65
  8
DIM
  6
CONTINUOUS
 10
6087.2305634051072
 20
1023.162711455981
 30
0.0
 11
6205.3019919765347
 21
1023.162711455981
 31
0.0
  0
LINE
  5
A66
  8
DIM
  6
CONTINUOUS
 10
6917.2305634051072
 20
1023.162711455981
 30
0.0
 11
6764.1591348336788
 21
1023.162711455981
 31
0.0
  0
SOLID
  5
A67
  8
DIM
  6
CONTINUOUS
 10
6087.2305634051072
 20
1033.162711455981
 30
0.0
 11
6087.2305634051072
 21
1013.16271145598
 31
0.0
 12
6027.2305634051072
 22
1023.162711455981
 32
0.0
 13
6027.2305634051072
 23
1023.162711455981
 33
0.0
  0
SOLID
  5
A68
  8
DIM
  6
CONTINUOUS
 10
6917.2305634051072
 20
1033.162711455981
 30
0.0
 11
6917.2305634051072
 21
1013.16271145598
 31
0.0
 12
6977.2305634051072
 22
1023.162711455981
 32
0.0
 13
6977.2305634051072
 23
1023.162711455981
 33
0.0
  0
LINE
  5
A69
  8
DIM
  6
CONTINUOUS
 10
6027.2305634051072
 20
1148.997291540536
 30
0.0
 11
6027.2305634051072
 21
983.16271145598057
 31
0.0
  0
LINE
  5
A6A
  8
DIM
  6
CONTINUOUS
 10
5748.2305634051072
 20
1200.5972915405421
 30
0.0
 11
5748.2305634051072
 21
983.16271145598057
 31
0.0
  0
LINE
  5
A6B
  8
DIM
  6
CONTINUOUS
 10
6087.2305634051072
 20
1023.162711455981
 30
0.0
 11
6147.2305634051072
 21
1023.162711455981
 31
0.0
  0
LINE
  5
A6C
  8
DIM
  6
CONTINUOUS
 10
5688.2305634051072
 20
1023.162711455981
 30
0.0
 11
5628.2305634051072
 21
1023.162711455981
 31
0.0
  0
SOLID
  5
A6D
  8
DIM
  6
CONTINUOUS
 10
6087.2305634051072
 20
1033.162711455981
 30
0.0
 11
6087.2305634051072
 21
1013.16271145598
 31
0.0
 12
6027.2305634051072
 22
1023.162711455981
 32
0.0
 13
6027.2305634051072
 23
1023.162711455981
 33
0.0
  0
SOLID
  5
A6E
  8
DIM
  6
CONTINUOUS
 10
5688.2305634051072
 20
1033.162711455981
 30
0.0
 11
5688.2305634051072
 21
1013.16271145598
 31
0.0
 12
5748.2305634051072
 22
1023.162711455981
 32
0.0
 13
5748.2305634051072
 23
1023.162711455981
 33
0.0
  0
TEXT
  5
A6F
  8
TEXT
 10
5794.167887293529
 20
993.16271145598114
 30
0.0
 40
60.0
  1
279
  7
TITLE3
  0
LINE
  5
A70
  8
DIM
  6
CONTINUOUS
 10
6977.2305634051072
 20
1148.997291540536
 30
0.0
 11
6977.2305634051072
 21
983.16271145598057
 31
0.0
  0
LINE
  5
A71
  8
DIM
  6
CONTINUOUS
 10
7258.2305634051063
 20
1200.597291540543
 30
0.0
 11
7258.2305634051063
 21
983.16271145598057
 31
0.0
  0
LINE
  5
A72
  8
DIM
  6
CONTINUOUS
 10
6917.2305634051072
 20
1023.162711455981
 30
0.0
 11
6892.2305634051072
 21
1023.162711455981
 31
0.0
  0
LINE
  5
A73
  8
DIM
  6
CONTINUOUS
 10
7318.2305634051081
 20
1023.162711455981
 30
0.0
 11
7378.2305634051072
 21
1023.162711455981
 31
0.0
  0
SOLID
  5
A74
  8
DIM
  6
CONTINUOUS
 10
6917.2305634051072
 20
1033.162711455981
 30
0.0
 11
6917.2305634051072
 21
1013.16271145598
 31
0.0
 12
6977.2305634051072
 22
1023.162711455981
 32
0.0
 13
6977.2305634051072
 23
1023.162711455981
 33
0.0
  0
SOLID
  5
A75
  8
DIM
  6
CONTINUOUS
 10
7318.2305634051081
 20
1033.162711455981
 30
0.0
 11
7318.2305634051081
 21
1013.16271145598
 31
0.0
 12
7258.2305634051063
 22
1023.162711455981
 32
0.0
 13
7258.2305634051063
 23
1023.162711455981
 33
0.0
  0
TEXT
  5
A76
  8
TEXT
 10
7055.98770626225
 20
993.16271145598114
 30
0.0
 40
60.0
  1
281
  7
TITLE3
  0
LINE
  5
A77
  8
OUTLINE
  6
CONTINUOUS
 10
5940.7305634051063
 20
2992.4962045022748
 30
0.0
 11
5940.7305634051063
 21
3142.5007233605352
 31
0.0
  0
LINE
  5
A78
  8
OUTLINE
  6
CONTINUOUS
 10
7210.7305634051063
 20
2992.4962045022748
 30
0.0
 11
7210.7305634051063
 21
3142.5007233605352
 31
0.0
  0
LINE
  5
A79
  8
OUTLINE
  6
CONTINUOUS
 10
5864.7305634051072
 20
2068.7972915405549
 30
0.0
 11
5864.7305634051072
 21
1264.7972915405389
 31
0.0
  0
LINE
  5
A7A
  8
OUTLINE
  6
CONTINUOUS
 10
7212.7305634051072
 20
2068.7972915405198
 30
0.0
 11
7212.7305634051072
 21
1264.797291540548
 31
0.0
  0
LINE
  5
A7B
  8
DIM
  6
CONTINUOUS
 10
7210.7305634051063
 20
2952.4962045022748
 30
0.0
 11
7210.7305634051063
 21
2700.895965012538
 31
0.0
  0
LINE
  5
A7C
  8
DIM
  6
CONTINUOUS
 10
5940.7305634051063
 20
2952.4962045022762
 30
0.0
 11
5940.7305634051063
 21
2700.895965012538
 31
0.0
  0
LINE
  5
A7D
  8
DIM
  6
CONTINUOUS
 10
7152.7305634051072
 20
2740.895965012538
 30
0.0
 11
6667.7305634051072
 21
2740.895965012538
 31
0.0
  0
LINE
  5
A7E
  8
DIM
  6
CONTINUOUS
 10
6000.7305634051072
 20
2740.895965012538
 30
0.0
 11
6374.7305634051072
 21
2740.895965012538
 31
0.0
  0
SOLID
  5
A80
  8
DIM
  6
CONTINUOUS
 10
6000.7305634051072
 20
2750.895965012538
 30
0.0
 11
6000.7305634051072
 21
2730.895965012538
 31
0.0
 12
5940.7305634051063
 22
2740.895965012538
 32
0.0
 13
5940.7305634051063
 23
2740.895965012538
 33
0.0
  0
TEXT
  5
A81
  8
TEXT
 10
6418.2305634051072
 20
2710.895965012538
 30
0.0
 40
60.0
  1
1270
  7
TITLE3
  0
LINE
  5
A82
  8
DIM
  6
CONTINUOUS
 10
5940.7305634051063
 20
2802.5342563787731
 30
0.0
 11
5940.7305634051063
 21
2700.895965012538
 31
0.0
  0
LINE
  5
A83
  8
DIM
  6
CONTINUOUS
 10
5748.730563405109
 20
3103.7007233605359
 30
0.0
 11
5748.730563405109
 21
2700.895965012538
 31
0.0
  0
LINE
  5
A84
  8
DIM
  6
CONTINUOUS
 10
6000.7305634051072
 20
2740.895965012538
 30
0.0
 11
6030.7305634051072
 21
2740.895965012538
 31
0.0
  0
LINE
  5
A85
  8
DIM
  6
CONTINUOUS
 10
5688.7305634051072
 20
2740.895965012538
 30
0.0
 11
5628.7305634051072
 21
2740.895965012538
 31
0.0
  0
TEXT
  5
A86
  8
TEXT
 10
5445.5281113731571
 20
2701.4241989312741
 30
0.0
 40
60.0
  1
192
  7
TITLE3
  0
SOLID
  5
A87
  8
DIM
  6
CONTINUOUS
 10
6000.7305634051072
 20
2750.895965012538
 30
0.0
 11
6000.7305634051072
 21
2730.895965012538
 31
0.0
 12
5940.7305634051063
 22
2740.895965012538
 32
0.0
 13
5940.7305634051063
 23
2740.895965012538
 33
0.0
  0
SOLID
  5
A88
  8
DIM
  6
CONTINUOUS
 10
5688.7305634051072
 20
2750.895965012538
 30
0.0
 11
5688.7305634051072
 21
2730.895965012538
 31
0.0
 12
5748.730563405109
 22
2740.895965012538
 32
0.0
 13
5748.730563405109
 23
2740.895965012538
 33
0.0
  0
LINE
  5
A8A
  8
DIM
  6
CONTINUOUS
 10
7257.7305634051072
 20
3103.7007233605359
 30
0.0
 11
7257.7305634051072
 21
2700.895965012538
 31
0.0
  0
LINE
  5
A8B
  8
DIM
  6
CONTINUOUS
 10
7152.7305634051072
 20
2740.895965012538
 30
0.0
 11
7122.7305634051063
 21
2740.895965012538
 31
0.0
  0
LINE
  5
A8C
  8
DIM
  6
CONTINUOUS
 10
7317.7305634051081
 20
2740.895965012538
 30
0.0
 11
7377.7305634051063
 21
2740.895965012538
 31
0.0
  0
TEXT
  5
A8D
  8
TEXT
 10
7331.1590635902694
 20
2772.5831932560518
 30
0.0
 40
60.0
  1
47
  7
TITLE3
  0
SOLID
  5
A8E
  8
DIM
  6
CONTINUOUS
 10
7150.7305634051081
 20
2750.895965012538
 30
0.0
 11
7150.7305634051081
 21
2730.895965012538
 31
0.0
 12
7210.7305634051063
 22
2740.895965012538
 32
0.0
 13
7210.7305634051063
 23
2740.895965012538
 33
0.0
  0
SOLID
  5
A8F
  8
DIM
  6
CONTINUOUS
 10
7317.7305634051081
 20
2750.895965012538
 30
0.0
 11
7317.7305634051081
 21
2730.895965012538
 31
0.0
 12
7257.7305634051072
 22
2740.895965012538
 32
0.0
 13
7257.7305634051072
 23
2740.895965012538
 33
0.0
  0
LINE
  5
A90
  8
DIM
  6
CONTINUOUS
 10
2979.5409520954991
 20
1894.300182850224
 30
0.0
 11
3103.7862214719462
 21
1948.473059461704
 31
0.0
  0
LINE
  5
A91
  8
DIM
  6
CONTINUOUS
 10
2979.5409520954991
 20
1894.300182850224
 30
0.0
 11
3103.7862214719462
 21
1840.127306238744
 31
0.0
  0
LINE
  5
A92
  8
DIM
  6
CONTINUOUS
 10
3103.7862214719462
 20
1948.473059461704
 30
0.0
 11
3103.7862214719462
 21
1910.1006019427421
 31
0.0
  0
LINE
  5
A93
  8
DIM
  6
CONTINUOUS
 10
3103.7862214719462
 20
1910.1006019427421
 30
0.0
 11
3316.1326985372189
 21
1928.158220974909
 31
0.0
  0
LINE
  5
A94
  8
DIM
  6
CONTINUOUS
 10
3103.7862214719462
 20
1878.4997637577069
 30
0.0
 11
3316.1326985372189
 21
1860.442144725539
 31
0.0
  0
TEXT
  5
A95
  8
TEXT
  6
CONTINUOUS
 10
3155.1976115961479
 20
1765.688069611798
 30
0.0
 40
60.0
  1
FLOW
  7
TITLE3
  0
LINE
  5
A96
  8
DIM
  6
CONTINUOUS
 10
3103.7862214719462
 20
1840.127306238744
 30
0.0
 11
3103.7862214719462
 21
1878.4997637577069
 31
0.0
  0
LINE
  5
A97
  8
DIM
  6
CONTINUOUS
 10
3316.1326985372189
 20
1928.158220974909
 30
0.0
 11
3316.1326985372189
 21
1860.442144725539
 31
0.0
  0
TEXT
  5
A98
  8
TEXT
  6
CONTINUOUS
 10
3155.1976115961479
 20
1968.673754841705
 30
0.0
 40
60.0
  1
AIR
  7
TITLE3
  0
LINE
  5
A99
  8
OUTLINE
  6
HIDDEN
 10
6078.230563405109
 20
3127.500723360537
 30
0.0
 11
5974.2305634051072
 21
3127.500723360537
 31
0.0
  0
LINE
  5
A9A
  8
OUTLINE
  6
CONTINUOUS
 10
5974.2305634051072
 20
3127.5007233605361
 30
0.0
 11
5974.2305634051072
 21
3142.5007233605352
 31
0.0
  0
ARC
  5
A9B
  8
OUTLINE
  6
CONTINUOUS
 10
6026.2305634051072
 20
3138.5007233605379
 30
0.0
 40
6.5800000000000001
 50
142.56198890676811
 51
37.438011093231687
  0
LINE
  5
A9C
  8
OUTLINE
  6
CONTINUOUS
 10
6078.2305634051072
 20
3127.500723360537
 30
0.0
 11
6078.2305634051072
 21
3142.5007233605352
 31
0.0
  0
LINE
  5
A9D
  8
OUTLINE
  6
HIDDEN
 10
6925.2305634051072
 20
3127.500723360537
 30
0.0
 11
7029.2305634051072
 21
3127.500723360537
 31
0.0
  0
LINE
  5
A9E
  8
OUTLINE
  6
CONTINUOUS
 10
6927.2305634051081
 20
3127.500723360537
 30
0.0
 11
6927.230563405109
 21
3142.5007233605352
 31
0.0
  0
LINE
  5
A9F
  8
OUTLINE
  6
CONTINUOUS
 10
6925.2305634051072
 20
3127.500723360537
 30
0.0
 11
6925.2305634051072
 21
3142.5007233605352
 31
0.0
  0
ARC
  5
AA0
  8
OUTLINE
  6
CONTINUOUS
 10
6977.2305634051072
 20
3138.5007233605379
 30
0.0
 40
6.5800000000000001
 50
142.56198890676811
 51
37.43801109323168
  0
LINE
  5
AA1
  8
OUTLINE
  6
CONTINUOUS
 10
7027.2305634051063
 20
3127.500723360537
 30
0.0
 11
7027.2305634051081
 21
3142.5007233605352
 31
0.0
  0
LINE
  5
AA2
  8
OUTLINE
  6
CONTINUOUS
 10
7029.2305634051072
 20
3127.5007233605361
 30
0.0
 11
7029.2305634051072
 21
3142.5007233605352
 31
0.0
  0
LINE
  5
AA3
  8
OUTLINE
  6
CONTINUOUS
 10
6078.2305634051072
 20
4145.5007233605356
 30
0.0
 11
5974.2305634051072
 21
4145.5007233605356
 31
0.0
  0
LINE
  5
AA4
  8
OUTLINE
  6
CONTINUOUS
 10
5974.2305634051072
 20
4130.5007233605374
 30
0.0
 11
5974.2305634051072
 21
4145.5007233605374
 31
0.0
  0
ARC
  5
AA5
  8
OUTLINE
  6
CONTINUOUS
 10
6026.2305634051072
 20
4134.5007233605347
 30
0.0
 40
6.5800000000000001
 50
322.56198890676831
 51
217.43801109323149
  0
LINE
  5
AA6
  8
OUTLINE
  6
CONTINUOUS
 10
6078.2305634051072
 20
4130.5007233605374
 30
0.0
 11
6078.2305634051072
 21
4145.5007233605356
 31
0.0
  0
LINE
  5
AA7
  8
OUTLINE
  6
CONTINUOUS
 10
6925.2305634051072
 20
4145.5007233605356
 30
0.0
 11
7029.2305634051072
 21
4145.5007233605356
 31
0.0
  0
LINE
  5
AA8
  8
OUTLINE
  6
CONTINUOUS
 10
6925.2305634051072
 20
4130.5007233605374
 30
0.0
 11
6925.2305634051072
 21
4145.5007233605356
 31
0.0
  0
ARC
  5
AA9
  8
OUTLINE
  6
CONTINUOUS
 10
6977.2305634051072
 20
4134.5007233605347
 30
0.0
 40
6.5800000000000001
 50
322.56198890676831
 51
217.43801109323149
  0
LINE
  5
AAA
  8
OUTLINE
  6
CONTINUOUS
 10
7029.2305634051072
 20
4130.5007233605374
 30
0.0
 11
7029.2305634051072
 21
4145.5007233605374
 31
0.0
  0
LINE
  5
AAB
  8
OUTLINE
  6
CONTINUOUS
 10
4866.0110822972101
 20
1188.797291540536
 30
0.0
 11
4866.0110822972092
 21
1216.997291540536
 31
0.0
  0
LINE
  5
AAC
  8
OUTLINE
  6
CONTINUOUS
 10
4866.0110822972092
 20
1216.997291540536
 30
0.0
 11
4843.1310822971982
 21
1237.797291540548
 31
0.0
  0
LINE
  5
AAD
  8
OUTLINE
  6
CONTINUOUS
 10
3847.0110822972078
 20
1216.997291540536
 30
0.0
 11
3869.8910822972098
 21
1237.797291540536
 31
0.0
  0
TEXT
  5
AAE
  8
TEXT
 10
6244.3019919765338
 20
994.60398205015304
 30
0.0
 40
60.0
  1
950 CTRS
  7
TITLE3
  0
TEXT
  5
AAF
  8
TEXT
 10
3599.4610703306262
 20
2109.4771894969281
 30
0.0
 40
60.0
  1
76
 50
90.0
  7
TITLE3
  0
TEXT
  5
AB0
  8
OVERLAY-A3
 10
5693.3829551863719
 20
221.6624277202018
 30
0.0
 40
48.0
  1
Date
  7
SIMPLEX
  0
TEXT
  5
AB1
  8
OVERLAY-A3
 10
7492.2223847472042
 20
259.00660404682242
 30
0.0
 40
48.0
  1
Revision
 41
0.7812095035934775
  7
SIMPLEX
 72
     5
 11
7702.9257480021297
 21
259.00660404682242
 31
0.0
  0
LINE
  5
AB2
  8
OVERLAY-A3
 10
7468.9826999803199
 20
41.684985696634271
 30
0.0
 11
7468.982699980319
 21
336.53731141709318
 31
0.0
  0
LINE
  5
AB3
  8
OVERLAY-A3
 10
5638.7030589142951
 20
650.85253011596399
 30
0.0
 11
5638.7030589142951
 21
41.684985696634271
 31
0.0
  0
LINE
  5
AB4
  8
OVERLAY-A3
 10
6833.8273560261878
 20
41.684985696634271
 30
0.0
 11
6833.8273560261878
 21
336.53731141709318
 31
0.0
  0
LINE
  5
AB5
  8
OVERLAY-A3
 10
6833.8273560261869
 20
186.62519853892741
 30
0.0
 11
5638.7030589142951
 21
186.62519853892741
 31
0.0
  0
LINE
  5
AB6
  8
OVERLAY-A3
 10
7723.1509304756837
 20
336.53731141709318
 30
0.0
 11
5638.7030589142951
 21
336.53731141709318
 31
0.0
  0
LINE
  5
AB7
  8
OVERLAY-A3
 10
5638.7030589142951
 20
41.684985696634271
 30
0.0
 11
7722.5559161189822
 21
41.684985696634271
 31
0.0
  0
LINE
  5
AB8
  8
OVERLAY-A3
 10
7722.5559161189822
 20
41.684985696634271
 30
0.0
 11
7722.5559161189822
 21
650.85253011596399
 31
0.0
  0
LINE
  5
AB9
  8
OVERLAY-A3
 10
7722.5559161189822
 20
650.85253011596399
 30
0.0
 11
5638.7030589142951
 21
650.85253011596399
 31
0.0
  0
TEXT
  5
ABA
  8
OVERLAY-A3
 10
5688.9664382062192
 20
95.844976130715395
 30
0.0
 40
40.0
  1
Scale
 41
1.3701747965659721
  7
SIMPLEX
 72
     5
 11
5889.9254083692276
 21
95.844976130715395
 31
0.0
  0
TEXT
  5
ABB
  8
OVERLAY-A3
 10
6949.7182472015938
 20
257.78686301341941
 30
0.0
 40
40.0
  1
Drawing No.
  7
SIMPLEX
 72
     2
 11
7298.2896757730232
 21
257.78686301341941
 31
0.0
  0
LINE
  5
ABC
  8
OVERLAY-A3
 10
2882.2683065116498
 20
0.0
 30
0.0
 11
7780.000000000312
 21
0.0
 31
0.0
  0
LINE
  5
ABD
  8
OVERLAY-A3
 10
7780.000000000312
 20
0.0
 30
0.0
 11
7780.000000000312
 21
5320.0000000002146
 31
0.0
  0
LINE
  5
ABE
  8
OVERLAY-A3
 10
7780.000000000312
 20
5320.0000000002146
 30
0.0
 11
2882.2683065116498
 21
5320.0000000002146
 31
0.0
  0
LINE
  5
ABF
  8
OVERLAY-A3
 10
2882.2683065116498
 20
5320.0000000002146
 30
0.0
 11
2882.2683065116498
 21
0.0
 31
0.0
  0
LINE
  5
AC1
  8
DIM
  6
CONTINUOUS
 10
6566.7595116283264
 20
3871.993624338666
 30
0.0
 11
6584.8171306604936
 21
3659.6471472733929
 31
0.0
  0
LINE
  5
AC2
  8
DIM
  6
CONTINUOUS
 10
6535.1586734432913
 20
3871.993624338666
 30
0.0
 11
6517.101054411125
 21
3659.6471472733929
 31
0.0
  0
LINE
  5
AC3
  8
DIM
  6
CONTINUOUS
 10
6550.9590925358107
 20
3996.238893715114
 30
0.0
 11
6605.13196914729
 21
3871.993624338666
 31
0.0
  0
LINE
  5
AC4
  8
DIM
  6
CONTINUOUS
 10
6550.9590925358107
 20
3996.238893715114
 30
0.0
 11
6496.7862159243296
 21
3871.993624338666
 31
0.0
  0
LINE
  5
AC5
  8
DIM
  6
CONTINUOUS
 10
6496.7862159243296
 20
3871.993624338666
 30
0.0
 11
6535.1586734432913
 21
3871.993624338666
 31
0.0
  0
LINE
  5
AC6
  8
DIM
  6
CONTINUOUS
 10
6605.13196914729
 20
3871.993624338666
 30
0.0
 11
6566.7595116283264
 21
3871.993624338666
 31
0.0
  0
LINE
  5
AC7
  8
DIM
  6
CONTINUOUS
 10
6584.8171306604936
 20
3659.6471472733929
 30
0.0
 11
6517.101054411125
 21
3659.6471472733929
 31
0.0
  0
LINE
  5
AC8
  8
CLEAR
  6
PHANTOM
 10
4718.730563405109
 20
2992.4962045022748
 30
0.0
 11
4718.7305634051081
 21
4127.5007233605356
 31
0.0
  0
LINE
  5
AC9
  8
CLEAR
 10
4718.7305634051081
 20
4127.5007233605356
 30
0.0
 11
5669.6648053987292
 21
4127.5007233605356
 31
0.0
  0
LINE
  5
ACA
  8
CLEAR
 10
5799.6076433001062
 20
2992.4962045022748
 30
0.0
 11
4718.730563405109
 21
2992.4962045022748
 31
0.0
  0
TEXT
  5
ACB
  8
TEXT
 10
4806.752507699588
 20
3064.7933642217822
 30
0.0
 40
60.0
  1
1000 min CLEARANCE
 50
90.0
  7
TITLE3
  0
TEXT
  5
ACC
  8
TEXT
 10
6099.080350599017
 20
3394.6306012330601
 30
0.0
 40
135.0
  1
ISD299KBH
  7
TITLE3
  0
INSERT
  5
ACD
  8
TEXT
  2
NEW_BLOCK
 10
2978.1576174405632
 20
73.632002208962149
 30
0.0
  0
ENDSEC
  0
EOF
