  0
SECTION
  2
HEADER
  9
$ACADVER
  1
AC1009
  9
$INSBASE
 10
0.0
 20
0.0
 30
0.0
  9
$EXTMIN
 10
1660.0346922296451
 20
-0.1775210976584276
 30
-0.0000000349181948
  9
$EXTMAX
 10
4862.7968106196367
 20
2908.8163625533539
 30
0.0000000814935747
  9
$LIMMIN
 10
0.0
 20
0.0
  9
$LIMMAX
 10
3890.0
 20
2660.0
  9
$ORTHOMODE
 70
     1
  9
$REGENMODE
 70
     1
  9
$FILLMODE
 70
     1
  9
$QTEXTMODE
 70
     0
  9
$MIRRTEXT
 70
     0
  9
$DRAGMODE
 70
     2
  9
$LTSCALE
 40
100.0
  9
$OSMODE
 70
     0
  9
$ATTMODE
 70
     1
  9
$TEXTSIZE
 40
30.0
  9
$TRACEWID
 40
0.05
  9
$TEXTSTYLE
  7
TITLE3
  9
$CLAYER
  8
OUTLINE
  9
$CELTYPE
  6
BYLAYER
  9
$CECOLOR
 62
   256
  9
$DIMSCALE
 40
1.0
  9
$DIMASZ
 40
0.12
  9
$DIMEXO
 40
0.05
  9
$DIMDLI
 40
0.5
  9
$DIMRND
 40
0.0
  9
$DIMDLE
 40
0.0
  9
$DIMEXE
 40
0.1
  9
$DIMTP
 40
0.1
  9
$DIMTM
 40
0.1
  9
$DIMTXT
 40
0.12
  9
$DIMCEN
 40
0.0
  9
$DIMTSZ
 40
0.0
  9
$DIMTOL
 70
     0
  9
$DIMLIM
 70
     0
  9
$DIMTIH
 70
     1
  9
$DIMTOH
 70
     1
  9
$DIMSE1
 70
     0
  9
$DIMSE2
 70
     0
  9
$DIMTAD
 70
     0
  9
$DIMZIN
 70
     7
  9
$DIMBLK
  1

  9
$DIMASO
 70
     0
  9
$DIMSHO
 70
     0
  9
$DIMPOST
  1

  9
$DIMAPOST
  1
mm
  9
$DIMALT
 70
     0
  9
$DIMALTD
 70
     2
  9
$DIMALTF
 40
25.399999999999999
  9
$DIMLFAC
 40
1.0
  9
$DIMTOFL
 70
     0
  9
$DIMTVP
 40
0.0
  9
$DIMTIX
 70
     0
  9
$DIMSOXD
 70
     0
  9
$DIMSAH
 70
     0
  9
$DIMBLK1
  1

  9
$DIMBLK2
  1

  9
$DIMSTYLE
  2
AM_ANSI
  9
$DIMCLRD
 70
   256
  9
$DIMCLRE
 70
   256
  9
$DIMCLRT
 70
     2
  9
$DIMTFAC
 40
0.71
  9
$DIMGAP
 40
0.06
  9
$LUNITS
 70
     2
  9
$LUPREC
 70
     2
  9
$SKETCHINC
 40
0.1
  9
$FILLETRAD
 40
0.0
  9
$AUNITS
 70
     0
  9
$AUPREC
 70
     2
  9
$MENU
  1
\acad12\support\cnc
  9
$ELEVATION
 40
0.0
  9
$PELEVATION
 40
0.0
  9
$THICKNESS
 40
0.0
  9
$LIMCHECK
 70
     0
  9
$BLIPMODE
 70
     0
  9
$CHAMFERA
 40
40.0
  9
$CHAMFERB
 40
40.0
  9
$SKPOLY
 70
     0
  9
$TDCREATE
 40
2451227.5696063661
  9
$TDUPDATE
 40
2454699.499514109
  9
$TDINDWG
 40
0.5041277199000001
  9
$TDUSRTIMER
 40
0.5041266319
  9
$USRTIMER
 70
     1
  9
$ANGBASE
 50
0.0
  9
$ANGDIR
 70
     0
  9
$PDMODE
 70
     2
  9
$PDSIZE
 40
10.0
  9
$PLINEWID
 40
0.0
  9
$COORDS
 70
     1
  9
$SPLFRAME
 70
     0
  9
$SPLINETYPE
 70
     6
  9
$SPLINESEGS
 70
     8
  9
$ATTDIA
 70
     1
  9
$ATTREQ
 70
     1
  9
$HANDLING
 70
     1
  9
$HANDSEED
  5
104E
  9
$SURFTAB1
 70
     6
  9
$SURFTAB2
 70
     6
  9
$SURFTYPE
 70
     6
  9
$SURFU
 70
     6
  9
$SURFV
 70
     6
  9
$UCSNAME
  2

  9
$UCSORG
 10
0.0
 20
0.0
 30
0.0
  9
$UCSXDIR
 10
1.0
 20
0.0
 30
0.0
  9
$UCSYDIR
 10
0.0
 20
1.0
 30
0.0
  9
$PUCSNAME
  2

  9
$PUCSORG
 10
0.0
 20
0.0
 30
0.0
  9
$PUCSXDIR
 10
1.0
 20
0.0
 30
0.0
  9
$PUCSYDIR
 10
0.0
 20
1.0
 30
0.0
  9
$USERI1
 70
     0
  9
$USERI2
 70
     0
  9
$USERI3
 70
     0
  9
$USERI4
 70
     0
  9
$USERI5
 70
     0
  9
$USERR1
 40
0.0
  9
$USERR2
 40
0.0
  9
$USERR3
 40
0.0
  9
$USERR4
 40
0.0
  9
$USERR5
 40
0.0
  9
$WORLDVIEW
 70
     1
  9
$SHADEDGE
 70
     3
  9
$SHADEDIF
 70
    70
  9
$TILEMODE
 70
     1
  9
$MAXACTVP
 70
    16
  9
$PLIMCHECK
 70
     0
  9
$PEXTMIN
 10
1.0499999523162831
 20
0.7999999523162842
 30
0.0
  9
$PEXTMAX
 10
9.4499995708465594
 20
7.1999995708465558
 30
0.0
  9
$PLIMMIN
 10
-0.2500002402958907
 20
-0.2499999962453767
  9
$PLIMMAX
 10
10.74999951940822
 20
8.2499997634587334
  9
$UNITMODE
 70
     0
  9
$VISRETAIN
 70
     0
  9
$PLINEGEN
 70
     0
  9
$PSLTSCALE
 70
     0
  0
ENDSEC
  0
SECTION
  2
TABLES
  0
TABLE
  2
VPORT
 70
     1
  0
VPORT
  2
*ACTIVE
 70
     0
 10
0.0
 20
0.0
 11
1.0
 21
1.0
 12
3261.4157514246408
 22
1454.319420727848
 13
0.0
 23
0.0
 14
25.0
 24
25.0
 15
100.0
 25
100.0
 16
0.0
 26
0.0
 36
1.0
 17
0.0
 27
0.0
 37
0.0
 40
2930.976205189937
 41
1.5308953341740219
 42
50.0
 43
0.0
 44
0.0
 50
0.0
 51
0.0
 71
     0
 72
   100
 73
     1
 74
     0
 75
     0
 76
     0
 77
     0
 78
     2
  0
ENDTAB
  0
TABLE
  2
LTYPE
 70
    17
  0
LTYPE
  2
CONTINUOUS
 70
     0
  3
Solid line
 72
    65
 73
     0
 40
0.0
  0
LTYPE
  2
HIDDEN
 70
     0
  3
__ __ __ __ __ __ __ __ __ __ __ __ __ __ __ __
 72
    65
 73
     2
 40
0.375
 49
0.25
 49
-0.125
  0
LTYPE
  2
PHANTOM
 70
     0
  3
Phantom ______  __  __  ______  __  __  ______
 72
    65
 73
     6
 40
2.5
 49
1.25
 49
-0.25
 49
0.25
 49
-0.25
 49
0.25
 49
-0.25
  0
LTYPE
  2
PHANTOM2
 70
     0
  3
Phantom (.5x) ___ _ _ ___ _ _ ___ _ _ ___ _ _
 72
    65
 73
     6
 40
1.25
 49
0.625
 49
-0.125
 49
0.125
 49
-0.125
 49
0.125
 49
-0.125
  0
LTYPE
  2
CENTER
 70
     0
  3
Center ____ _ ____ _ ____ _ ____ _ ____ _ ____
 72
    65
 73
     4
 40
2.0
 49
1.25
 49
-0.25
 49
0.25
 49
-0.25
  0
LTYPE
  2
AM_ISO02W050
 70
     0
  3
__ __ __ __ __ __ __ __ __ __ __ __ __ __ __
 72
    65
 73
     2
 40
7.5
 49
6.0
 49
-1.5
  0
LTYPE
  2
AM_ISO08W050
 70
     0
  3
____ . ____ . ____ . ____ . ____ . ____ . ____
 72
    65
 73
     4
 40
18.0
 49
12.0
 49
-1.5
 49
3.0
 49
-1.5
  0
LTYPE
  2
AM_ISO09W050
 70
     0
  3
_____ . . _____ . . _____ . . ____ .. ____
 72
    65
 73
     6
 40
22.5
 49
12.0
 49
-1.5
 49
3.0
 49
-1.5
 49
3.0
 49
-1.5
  0
LTYPE
  2
AMCONSTR
 70
     0
  3
_______________________
 72
    65
 73
     2
 40
9999.0
 49
9999.0
 49
0.0
  0
LTYPE
  2
AM_ISO08W050X2
 70
     0
  3
__ . __ . __ . __ . __ . __
 72
    65
 73
     4
 40
9.0
 49
6.0
 49
-0.75
 49
1.5
 49
-0.75
  0
LTYPE
  2
AM_ISO02W050X2
 70
     0
  3
 _ _ _ _ _ _ _ _ _ _ _ _
 72
    65
 73
     2
 40
3.75
 49
3.0
 49
-0.75
  0
LTYPE
  2
AMZIGZAG
 70
     0
  3
/\/-/\/-/\/-/\/-/\/-/\/
 72
    65
 73
     2
 40
11.0001
 49
0.0001
 49
-11.0
  0
LTYPE
  2
CENTER2
 70
     0
  3
Center (.5x) ___ _ ___ _ ___ _ ___ _ ___ _ ___
 72
    65
 73
     4
 40
1.125
 49
0.75
 49
-0.125
 49
0.125
 49
-0.125
  0
LTYPE
  2
HIDDEN2
 70
     0
  3
Hidden (.5x) _ _ _ _ _ _ _ _ _ _ _ _ _ _ _ _ _
 72
    65
 73
     2
 40
0.1875
 49
0.125
 49
-0.0625
  0
LTYPE
  2
AMZIGZAG2
 70
     0
  3
/\/-/\/-/\/-/\/-/\/-/\/
 72
    65
 73
     2
 40
0.4401
 49
0.0001
 49
-0.4400000000000002
  0
LTYPE
  2
ACANSTGB
 70
     0
  3
__ . . __ . .
 72
    65
 73
     6
 40
0.35433070866
 49
0.15748031496
 49
-0.03937007874
 49
0.03937007874
 49
-0.03937007874
 49
0.03937007874
 49
-0.03937007874
  0
LTYPE
  2
ACANSTGL
 70
     0
  3
_ _ _ _ _
 72
    65
 73
     2
 40
0.11811023622
 49
0.07874015748
 49
-0.03937007874
  0
ENDTAB
  0
TABLE
  2
LAYER
 70
     6
  0
LAYER
  2
0
 70
     0
 62
     7
  6
CONTINUOUS
  0
LAYER
  2
OUTLINE
 70
     0
 62
     7
  6
CONTINUOUS
  0
LAYER
  2
TEXT
 70
     0
 62
   100
  6
CONTINUOUS
  0
LAYER
  2
DIM
 70
     0
 62
     7
  6
CONTINUOUS
  0
LAYER
  2
OVERLAY-A3
 70
     0
 62
     7
  6
CONTINUOUS
  0
LAYER
  2
CLEAR
 70
     0
 62
     1
  6
PHANTOM
  0
ENDTAB
  0
TABLE
  2
STYLE
 70
     8
  0
STYLE
  2
STANDARD
 70
     0
 40
0.0
 41
1.0
 50
0.0
 71
     0
 42
0.2
  3
txt
  4

  0
STYLE
  2
ANNOTATIVE
 70
     0
 40
0.0
 41
1.0
 50
0.0
 71
     0
 42
0.2
  3
txt
  4

  0
STYLE
  2
TITLE3
 70
     0
 40
30.0
 41
1.0
 50
0.0
 71
     0
 42
30.0
  3
SIMPLEX
  4

  0
STYLE
  2
SIMPLEX
 70
     0
 40
40.0
 41
1.0
 50
0.0
 71
     0
 42
25.0
  3
SIMPLEX
  4

  0
STYLE
  2
TITLE5
 70
     0
 40
5.0
 41
1.0
 50
0.0
 71
     0
 42
5.0
  3
SIMPLEX.shx
  4

  0
STYLE
  2

 70
     1
 40
0.0
 41
1.0
 50
0.0
 71
     0
 42
30.0
  3
genltshp.shx
  4

  0
STYLE
  2
ACANSTS
 70
     0
 40
1.0
 41
1.0
 50
0.0
 71
     0
 42
30.0
  3
romans.shx
  4

  0
STYLE
  2
ACANSGDT
 70
     0
 40
0.0
 41
1.0
 50
0.0
 71
     0
 42
30.0
  3
amgdt.shx
  4

  0
ENDTAB
  0
TABLE
  2
VIEW
 70
     0
  0
ENDTAB
  0
TABLE
  2
UCS
 70
     0
  0
ENDTAB
  0
TABLE
  2
APPID
 70
    15
  0
APPID
  2
ACAD
 70
     0
  0
APPID
  2
ACADANNOTATIVE
 70
     0
  0
APPID
  2
ACAD_MLEADERVER
 70
     0
  0
APPID
  2
ACAD_EXEMPT_FROM_CAD_STANDARDS
 70
     0
  0
APPID
  2
ACAD_PSEXT
 70
     0
  0
APPID
  2
MCAD_NO_VIS
 70
     0
  0
APPID
  2
ACAD_TEMP_GRAPHIC
 70
     0
  0
APPID
  2
AD_DRAW
 70
     0
  0
APPID
  2
ACATTRIBSERVICES
 70
     0
  0
APPID
  2
DESIGNERASSEMBLIES
 70
     0
  0
APPID
  2
ACADM_DIM_EDIT
 70
     0
  0
APPID
  2
AMDT_DM_ADJ
 70
     0
  0
APPID
  2
GENIUS_GENSCREG_15
 70
     0
  0
APPID
  2
GENIUS_GENOBJ-N-SDF_13
 70
     0
  0
APPID
  2
GENIUS_GENODEF_13
 70
     0
  0
ENDTAB
  0
TABLE
  2
DIMSTYLE
 70
     8
  0
DIMSTYLE
  2
STANDARD
 70
     0
  3

  4

  5

  6

  7

 40
1.0
 41
0.18
 42
0.0625
 43
0.38
 44
0.18
 45
0.0
 46
0.0
 47
0.0
 48
0.0
140
0.18
141
0.09
142
0.0
143
25.399999999999999
144
1.0
145
0.0
146
1.0
147
0.09
 71
     0
 72
     0
 73
     1
 74
     1
 75
     0
 76
     0
 77
     0
 78
     0
170
     0
171
     2
172
     0
173
     0
174
     0
175
     0
176
     0
177
     0
178
     0
  0
DIMSTYLE
  2
ANNOTATIVE
 70
     0
  3

  4

  5

  6

  7

 40
1.0
 41
0.18
 42
0.0625
 43
0.38
 44
0.18
 45
0.0
 46
0.0
 47
0.0
 48
0.0
140
0.18
141
0.09
142
0.0
143
25.399999999999999
144
1.0
145
0.0
146
1.0
147
0.09
 71
     0
 72
     0
 73
     1
 74
     1
 75
     0
 76
     0
 77
     0
 78
     0
170
     0
171
     2
172
     0
173
     0
174
     0
175
     0
176
     0
177
     0
178
     0
  0
DIMSTYLE
  2
AM_ANSI
 70
     0
  3

  4
mm
  5

  6

  7

 40
1.0
 41
0.12
 42
0.05
 43
0.5
 44
0.1
 45
0.0
 46
0.0
 47
0.1
 48
0.1
140
0.12
141
0.0
142
0.0
143
25.399999999999999
144
1.0
145
0.0
146
0.71
147
0.06
 71
     0
 72
     0
 73
     1
 74
     1
 75
     0
 76
     0
 77
     0
 78
     7
170
     0
171
     2
172
     0
173
     0
174
     0
175
     0
176
   256
177
   256
178
     2
  0
DIMSTYLE
  2
AM_ANSI$3
 70
     0
  3

  4
mm
  5

  6

  7

 40
1.0
 41
0.12
 42
0.05
 43
0.5
 44
0.1
 45
0.0
 46
0.0
 47
0.1
 48
0.1
140
0.12
141
0.0
142
0.0
143
25.399999999999999
144
1.0
145
0.0
146
0.71
147
0.06
 71
     0
 72
     0
 73
     1
 74
     1
 75
     0
 76
     0
 77
     0
 78
     7
170
     0
171
     2
172
     0
173
     0
174
     0
175
     0
176
   256
177
   256
178
     2
  0
DIMSTYLE
  2
AM_ANSI$4
 70
     0
  3

  4
mm
  5

  6

  7

 40
1.0
 41
0.12
 42
0.05
 43
0.5
 44
0.1
 45
0.0
 46
0.0
 47
0.1
 48
0.1
140
0.12
141
0.0
142
0.0
143
25.399999999999999
144
1.0
145
0.0
146
0.71
147
0.06
 71
     0
 72
     0
 73
     1
 74
     1
 75
     0
 76
     0
 77
     0
 78
     7
170
     0
171
     2
172
     0
173
     0
174
     0
175
     0
176
   256
177
   256
178
     2
  0
DIMSTYLE
  2
AM_ANSI$7
 70
     0
  3

  4
mm
  5

  6

  7

 40
1.0
 41
0.12
 42
0.05
 43
0.5
 44
0.1
 45
0.0
 46
0.0
 47
0.1
 48
0.1
140
0.12
141
0.0
142
0.0
143
25.399999999999999
144
1.0
145
0.0
146
0.71
147
0.06
 71
     0
 72
     0
 73
     1
 74
     1
 75
     0
 76
     0
 77
     0
 78
     7
170
     0
171
     2
172
     0
173
     0
174
     0
175
     0
176
   256
177
   256
178
     2
  0
DIMSTYLE
  2
AM_ANSI$SF
 70
     0
  3

  4
mm
  5

  6

  7

 40
1.0
 41
0.12
 42
0.05
 43
0.5
 44
0.1
 45
0.0
 46
0.0
 47
0.1
 48
0.1
140
0.12
141
0.0
142
0.0
143
25.399999999999999
144
1.0
145
0.0
146
0.71
147
0.06
 71
     0
 72
     0
 73
     1
 74
     1
 75
     1
 76
     1
 77
     0
 78
     7
170
     0
171
     2
172
     0
173
     0
174
     0
175
     0
176
   256
177
   256
178
     2
  0
DIMSTYLE
  2
AM_ANSI$SH
 70
     0
  3

  4
mm
  5

  6
GENAXEH
  7

 40
1.0
 41
0.12
 42
0.05
 43
0.5
 44
0.1
 45
0.0
 46
0.0
 47
0.1
 48
0.1
140
0.12
141
0.0
142
0.0
143
25.399999999999999
144
1.0
145
0.0
146
0.71
147
0.06
 71
     0
 72
     0
 73
     1
 74
     1
 75
     1
 76
     1
 77
     0
 78
     7
170
     0
171
     2
172
     0
173
     1
174
     0
175
     0
176
   256
177
   256
178
     2
  0
ENDTAB
  0
ENDSEC
  0
SECTION
  2
BLOCKS
  0
BLOCK
  8
0
  2
$MODEL_SPACE
 70
     0
 10
0.0
 20
0.0
 30
0.0
  3
$MODEL_SPACE
  1

  0
ENDBLK
  5
F68
  8
0
  0
BLOCK
 67
     1
  8
0
  2
$PAPER_SPACE
 70
     0
 10
0.0
 20
0.0
 30
0.0
  3
$PAPER_SPACE
  1

  0
ENDBLK
  5
F64
 67
     1
  8
0
  0
BLOCK
  8
0
  2
NEW_BLOCK
 70
     0
 10
0.0
 20
0.0
 30
0.0
  3
NEW_BLOCK
  1

  0
TEXT
  5
BA1
  8
TEXT
 10
27.285946821803002
 20
25.27142175952417
 30
0.0
 40
40.0
  1
available on request
  7
TITLE3
  0
TEXT
  5
BA2
  8
TEXT
 10
27.285946821803002
 20
93.842850330952714
 30
0.0
 40
40.0
  1
Certified dimensions
  7
TITLE3
  0
TEXT
  5
BA3
  8
TEXT
 10
27.285946821803002
 20
162.4142789023812
 30
0.0
 40
40.0
  1
without notice or obligation.
  7
TITLE3
  0
TEXT
  5
BA4
  8
TEXT
 10
27.285946821803002
 20
230.9857074738097
 30
0.0
 40
40.0
  1
specifications at any time
  7
TITLE3
  0
TEXT
  5
BA5
  8
TEXT
 10
27.285946821803002
 20
299.55713604523839
 30
0.0
 40
40.0
  1
the right to change 
  7
TITLE3
  0
TEXT
  5
BA6
  8
TEXT
 10
27.285946821803002
 20
436.69999318809511
 30
0.0
 40
40.0
  1
NOTE
  7
TITLE3
  0
TEXT
  5
BA7
  8
TEXT
 10
27.285946821803002
 20
368.12856461666678
 30
0.0
 40
40.0
  1
The manufacturer reserves
  7
TITLE3
  0
ENDBLK
  5
BA8
  8
0
  0
BLOCK
  8
0
  2
GENAXEH
 70
     0
 10
0.0
 20
0.0
 30
0.0
  3
GENAXEH
  1

  0
LINE
  5
EBC
  8
0
 10
-1.0
 20
0.0
 30
0.0
 11
1.0
 21
0.0
 31
0.0
  0
ENDBLK
  5
EBE
  8
0
  0
ENDSEC
  0
SECTION
  2
ENTITIES
  0
LINE
  5
BA9
  8
OUTLINE
 10
4194.0107221538492
 20
1236.574552901704
 30
0.0
 11
2785.010763627236
 21
1236.574552901704
 31
0.0
  0
LINE
  5
BAA
  8
OUTLINE
 10
4194.0107221538492
 20
538.57455290170469
 30
0.0
 11
2785.010763627236
 21
538.57455290170469
 31
0.0
  0
LINE
  5
BAB
  8
OUTLINE
 10
4226.40870141716
 20
1236.576073694491
 30
0.0
 11
2752.608742890548
 21
1236.576073694491
 31
0.0
  0
LINE
  5
BAC
  8
OUTLINE
 10
4215.2087014171602
 20
538.57607369449215
 30
0.0
 11
2763.8087428905451
 21
538.57607369449204
 31
0.0
  0
LINE
  5
BAD
  8
OUTLINE
 10
3948.0087014171572
 20
1160.5760736944919
 30
0.0
 11
2974.0087014171572
 21
1160.5760736944901
 31
0.0
  0
LINE
  5
BAE
  8
OUTLINE
 10
3948.0087014171581
 20
860.57607369449238
 30
0.0
 11
2974.0087014171572
 21
860.57607369449215
 31
0.0
  0
LINE
  5
BB0
  8
OUTLINE
 10
4219.5087014171568
 20
2450.9735927723791
 30
0.0
 11
2782.508742890544
 21
2450.9735927723791
 31
0.0
  0
LINE
  5
BB2
  8
OUTLINE
 10
3948.0087014171572
 20
1794.3735927723781
 30
0.0
 11
2974.0087014171572
 21
1794.373592772379
 31
0.0
  0
LINE
  5
BB4
  8
OUTLINE
 10
1831.0089426905749
 20
1236.576073694491
 30
0.0
 11
2431.0089426905752
 21
1236.576073694491
 31
0.0
  0
LINE
  5
BB5
  8
OUTLINE
 10
2431.0089426905752
 20
538.57607369449204
 30
0.0
 11
1831.008942690574
 21
538.57607369449204
 31
0.0
  0
ARC
  5
BB6
  8
OUTLINE
  6
HIDDEN
 10
2228.5740988325429
 20
927.96925194616995
 30
0.0
 40
221.88999999999999
 50
186.51936645901071
 51
229.86778508980299
  0
LINE
  5
BB7
  8
OUTLINE
 10
2431.0089426905752
 20
1235.3760736944901
 30
0.0
 11
2431.0089426905752
 21
538.57607369449204
 31
0.0
  0
ARC
  5
BB8
  8
OUTLINE
  6
HIDDEN
 10
2218.6189426905748
 20
887.25525841431772
 30
0.0
 40
173.71630280363141
 50
321.7840949830121
 51
352.2322314357956
  0
ARC
  5
BB9
  8
OUTLINE
  6
HIDDEN
 10
2205.3910206292171
 20
898.77607369448924
 30
0.0
 40
191.23833976769521
 50
276.5238608340415
 51
321.52386083405941
  0
ARC
  5
BBA
  8
OUTLINE
  6
HIDDEN
 10
2218.5082821012911
 20
911.19136209860665
 30
0.0
 40
202.5983525488445
 50
228.98586955896249
 51
272.43586955890788
  0
CIRCLE
  5
BBB
  8
OUTLINE
  6
HIDDEN
 10
2227.1189426905748
 20
907.77607369448924
 30
0.0
 40
96.25
  0
LINE
  5
BBC
  8
OUTLINE
  6
HIDDEN
 10
2230.0089426905761
 20
1153.776073694489
 30
0.0
 11
2403.6089426905751
 21
1153.776073694489
 31
0.0
  0
LINE
  5
BBD
  8
OUTLINE
  6
HIDDEN
 10
2403.6089426905751
 20
1152.760647082602
 30
0.0
 11
2403.6089426905751
 21
863.77607369448958
 31
0.0
  0
LINE
  5
BBE
  8
OUTLINE
 10
2488.0089426905752
 20
1160.5760736944901
 30
0.0
 11
2488.0089426905752
 21
860.5760736944917
 31
0.0
  0
LINE
  5
BBF
  8
OUTLINE
 10
2431.0089426905752
 20
1236.576073694491
 30
0.0
 11
2431.0089426905752
 21
870.37455290170533
 31
0.0
  0
LINE
  5
BC0
  8
OUTLINE
  6
HIDDEN
 10
2390.7412298722629
 20
863.77607369448958
 30
0.0
 11
2403.6089426905751
 21
863.77607369448958
 31
0.0
  0
LINE
  5
BC1
  8
OUTLINE
 10
2431.0089426905761
 20
860.5760736944917
 30
0.0
 11
2488.0089426905752
 21
860.5760736944917
 31
0.0
  0
LINE
  5
BC2
  8
OUTLINE
 10
2432.208942690575
 20
870.37455290170442
 30
0.0
 11
2432.208942690575
 21
900.37455290170521
 31
0.0
  0
LINE
  5
BC3
  8
OUTLINE
 10
2431.0089426905752
 20
870.37455290170533
 30
0.0
 11
2432.208942690575
 21
870.37455290170442
 31
0.0
  0
LINE
  5
BC4
  8
OUTLINE
 10
2432.208942690575
 20
1160.5760736944901
 30
0.0
 11
2488.0089426905752
 21
1160.5760736944901
 31
0.0
  0
ARC
  5
BC6
  8
OUTLINE
  6
HIDDEN
 10
2244.545111839549
 20
917.75193899642807
 30
0.0
 40
236.90000000000001
 50
140.05364795515109
 51
183.62442552808139
  0
ARC
  5
BC7
  8
OUTLINE
  6
HIDDEN
 10
2251.0172149105751
 20
903.65679715161355
 30
0.0
 40
251.0
 50
94.801175959448656
 51
138.53537405503519
  0
LINE
  5
BC8
  8
OUTLINE
 10
3948.0087014171581
 20
860.57607369449238
 30
0.0
 11
3948.0087014171572
 21
1160.5760736944919
 31
0.0
  0
LINE
  5
BC9
  8
OUTLINE
 10
1774.008942690574
 20
1185.576073694491
 30
0.0
 11
1774.0089426905761
 21
603.57607369449079
 31
0.0
  0
LINE
  5
BCA
  8
OUTLINE
 10
1831.008942690574
 20
538.57607369449204
 30
0.0
 11
1831.0089426905749
 21
1236.576073694491
 31
0.0
  0
LINE
  5
BCC
  8
OUTLINE
 10
1774.008942690574
 20
760.77887041459735
 30
0.0
 11
1774.008942690574
 21
761.97887041459774
 31
0.0
  0
LINE
  5
BCD
  8
OUTLINE
 10
1824.0089426905749
 20
1185.576073694491
 30
0.0
 11
1774.008942690574
 21
1185.576073694491
 31
0.0
  0
LINE
  5
BCF
  8
OUTLINE
 10
1774.008942690574
 20
1180.576073694491
 30
0.0
 11
1774.008942690574
 21
1179.376073694491
 31
0.0
  0
LINE
  5
BD0
  8
OUTLINE
 10
4226.40870141716
 20
1228.376073694491
 30
0.0
 11
4226.40870141716
 21
1236.576073694491
 31
0.0
  0
LINE
  5
BD2
  8
OUTLINE
 10
4216.7087014171557
 20
1861.7735927723791
 30
0.0
 11
4216.7087014171584
 21
2450.9735927723791
 31
0.0
  0
LINE
  5
BD5
  8
OUTLINE
 10
2974.0087014171572
 20
860.57607369449215
 30
0.0
 11
2974.0087014171572
 21
1160.5760736944901
 31
0.0
  0
LINE
  5
BD6
  8
OUTLINE
 10
2752.608742890548
 20
1228.376073694491
 30
0.0
 11
2752.608742890548
 21
1236.576073694491
 31
0.0
  0
LINE
  5
BD7
  8
OUTLINE
 10
2786.5087428905449
 20
1861.7735927723791
 30
0.0
 11
2786.5087428905449
 21
2450.9735927723791
 31
0.0
  0
LINE
  5
BDB
  8
OUTLINE
  6
CONTINUOUS
 10
4244.7087221538532
 20
2425.97359277238
 30
0.0
 11
4216.7087014171584
 21
2425.97359277238
 31
0.0
  0
LINE
  5
BDC
  8
OUTLINE
  6
CONTINUOUS
 10
4244.7087221538532
 20
2399.9735927723791
 30
0.0
 11
4216.7087014171584
 21
2399.9735927723791
 31
0.0
  0
LINE
  5
BDD
  8
OUTLINE
  6
HIDDEN
 10
4244.7087221538532
 20
2399.9735927723791
 30
0.0
 11
4244.7087221538532
 21
2425.97359277238
 31
0.0
  0
LINE
  5
BDE
  8
DIM
 10
2488.0089426905752
 20
1220.374552901704
 30
0.0
 11
2488.0089426905752
 21
1371.148235393126
 31
0.0
  0
LINE
  5
BDF
  8
DIM
 10
1774.008942690574
 20
1193.89607369449
 30
0.0
 11
1774.008942690574
 21
1371.148235393126
 31
0.0
  0
LINE
  5
BE0
  8
DIM
 10
2458.0089426905752
 20
1351.148235393126
 30
0.0
 11
2201.8656277646078
 21
1351.148235393126
 31
0.0
  0
LINE
  5
BE1
  8
DIM
 10
1794.808942690574
 20
1351.148235393126
 30
0.0
 11
2053.6306893190999
 21
1351.148235393126
 31
0.0
  0
SOLID
  5
BE2
  8
DIM
 10
2458.0089426905752
 20
1356.148235393126
 30
0.0
 11
2458.0089426905752
 21
1346.148235393126
 31
0.0
 12
2488.0089426905752
 22
1351.148235393126
 32
0.0
 13
2488.0089426905752
 23
1351.148235393126
 33
0.0
  0
SOLID
  5
BE3
  8
DIM
 10
1794.808942690574
 20
1356.148235393126
 30
0.0
 11
1794.808942690574
 21
1346.148235393126
 31
0.0
 12
1774.008942690574
 22
1351.148235393126
 32
0.0
 13
1774.008942690574
 23
1351.148235393126
 33
0.0
  0
TEXT
  5
BE4
  8
DIM
 10
2094.5803712620041
 20
1336.148235393126
 30
0.0
 40
30.0
  1
714
  7
TITLE3
 72
     4
 11
2131.0089426905752
 21
1351.148235393126
 31
0.0
  0
LINE
  5
BE5
  8
DIM
 10
4320.2087014171584
 20
1209.3344991234951
 30
0.0
 11
4320.2087014171584
 21
1362.9611589196079
 31
0.0
  0
LINE
  5
BE6
  8
DIM
 10
2752.608742890548
 20
1256.5760736944919
 30
0.0
 11
2752.608742890548
 21
1362.9611589196079
 31
0.0
  0
LINE
  5
BE7
  8
DIM
 10
4290.2087014171584
 20
1342.961158919607
 30
0.0
 11
3743.8067221538508
 21
1342.961158919607
 31
0.0
  0
LINE
  5
BE8
  8
DIM
 10
2782.608742890543
 20
1342.961158919607
 30
0.0
 11
3383.8067221538522
 21
1342.961158919607
 31
0.0
  0
SOLID
  5
BE9
  8
DIM
 10
4290.2087014171584
 20
1347.9611589196061
 30
0.0
 11
4290.2087014171584
 21
1337.9611589196079
 31
0.0
 12
4320.2087014171584
 22
1342.961158919607
 32
0.0
 13
4320.2087014171584
 23
1342.961158919607
 33
0.0
  0
SOLID
  5
BEA
  8
DIM
 10
2782.608742890543
 20
1347.9611589196061
 30
0.0
 11
2782.608742890543
 21
1337.9611589196079
 31
0.0
 12
2752.608742890548
 22
1342.961158919607
 32
0.0
 13
2752.608742890548
 23
1342.961158919607
 33
0.0
  0
TEXT
  5
BEB
  8
DIM
 10
3513.8067221538508
 20
1327.961158919607
 30
0.0
 40
30.0
  1
1623
  7
TITLE3
 72
     1
 11
3563.8067221538508
 21
1342.961158919607
 31
0.0
 73
     2
  0
LINE
  5
BEC
  8
DIM
 10
2458.5525890001231
 20
1236.576073694491
 30
0.0
 11
2630.8315302142119
 21
1236.576073694491
 31
0.0
  0
LINE
  5
BED
  8
DIM
 10
2610.8315302142119
 20
1206.5760736944919
 30
0.0
 11
2610.8315302142119
 21
1012.539826384383
 31
0.0
  0
LINE
  5
BEE
  8
DIM
 10
2610.8315302142119
 20
568.57607369449204
 30
0.0
 11
2610.8315302142119
 21
887.58297470780042
 31
0.0
  0
SOLID
  5
BEF
  8
DIM
 10
2615.8315302142109
 20
1206.5760736944919
 30
0.0
 11
2605.8315302142109
 21
1206.5760736944919
 31
0.0
 12
2610.8315302142119
 22
1236.576073694491
 32
0.0
 13
2610.8315302142119
 23
1236.576073694491
 33
0.0
  0
SOLID
  5
BF0
  8
DIM
 10
2615.8315302142109
 20
568.57607369449204
 30
0.0
 11
2605.8315302142109
 21
568.57607369449204
 31
0.0
 12
2610.8315302142119
 22
538.57607369449204
 32
0.0
 13
2610.8315302142119
 23
538.57607369449204
 33
0.0
  0
TEXT
  5
BF1
  8
DIM
 10
2625.8315302142119
 20
910.59035940877754
 30
0.0
 40
30.0
  1
574
 50
90.0
  7
TITLE3
 72
     1
 11
2610.8315302142119
 21
949.87607369449199
 31
0.0
 73
     2
  0
LINE
  5
BF2
  8
OUTLINE
 10
4243.208722153855
 20
591.3271085506176
 30
0.0
 11
4243.208722153855
 21
563.3271085506176
 31
0.0
  0
LINE
  5
BF3
  8
OUTLINE
 10
4243.208722153855
 20
591.3271085506176
 30
0.0
 11
4215.2087014171611
 21
591.3271085506176
 31
0.0
  0
LINE
  5
BF4
  8
OUTLINE
 10
4243.208722153855
 20
563.3271085506176
 30
0.0
 11
4215.2087014171611
 21
563.3271085506176
 31
0.0
  0
LINE
  5
BF6
  8
OUTLINE
 10
2762.6067221538569
 20
1115.9775944872781
 30
0.0
 11
2762.6067221538569
 21
543.07759448727847
 31
0.0
  0
LINE
  5
BF7
  8
OUTLINE
 10
4219.5087014171568
 20
1796.7735927723791
 30
0.0
 11
4219.5087014171568
 21
1861.7735927723791
 31
0.0
  0
LINE
  5
BF8
  8
OUTLINE
 10
4174.508701417155
 20
1796.7735927723791
 30
0.0
 11
4174.508701417155
 21
1861.7735927723791
 31
0.0
  0
LINE
  5
BF9
  8
OUTLINE
 10
4174.508701417155
 20
1796.7735927723791
 30
0.0
 11
4219.5087014171568
 21
1796.7735927723791
 31
0.0
  0
CIRCLE
  5
BFA
  8
OUTLINE
 10
4197.0087014171559
 20
1816.7735927723791
 30
0.0
 40
9.0
  0
LINE
  5
BFB
  8
OUTLINE
 10
4219.5087014171568
 20
1861.7735927723791
 30
0.0
 11
2782.508742890544
 21
1861.7735927723791
 31
0.0
  0
LINE
  5
BFC
  8
OUTLINE
 10
2827.508742890544
 20
1796.7735927723791
 30
0.0
 11
2827.508742890544
 21
1861.7735927723791
 31
0.0
  0
LINE
  5
BFD
  8
OUTLINE
 10
2782.508742890544
 20
1796.7735927723791
 30
0.0
 11
2782.508742890544
 21
1861.7735927723791
 31
0.0
  0
LINE
  5
BFE
  8
OUTLINE
 10
2827.508742890544
 20
1796.7735927723791
 30
0.0
 11
2782.508742890544
 21
1796.7735927723791
 31
0.0
  0
CIRCLE
  5
BFF
  8
OUTLINE
 10
2805.008742890544
 20
1816.7735927723791
 30
0.0
 40
9.0
  0
LINE
  5
C00
  8
OUTLINE
 10
4174.508701417155
 20
2514.7735927723779
 30
0.0
 11
4174.508701417155
 21
2450.9735927723791
 31
0.0
  0
LINE
  5
C01
  8
OUTLINE
 10
4219.5087014171568
 20
2514.7735927723779
 30
0.0
 11
4219.5087014171568
 21
2450.9735927723791
 31
0.0
  0
LINE
  5
C02
  8
OUTLINE
 10
4174.508701417155
 20
2514.7735927723779
 30
0.0
 11
4219.5087014171568
 21
2514.7735927723779
 31
0.0
  0
CIRCLE
  5
C03
  8
OUTLINE
 10
4197.0087014171559
 20
2494.7735927723779
 30
0.0
 40
9.0
  0
LINE
  5
C04
  8
OUTLINE
 10
2782.508742890544
 20
2514.7735927723788
 30
0.0
 11
2782.508742890544
 21
2450.9735927723791
 31
0.0
  0
LINE
  5
C05
  8
OUTLINE
 10
2827.508742890544
 20
2514.7735927723788
 30
0.0
 11
2827.508742890544
 21
2450.9735927723791
 31
0.0
  0
LINE
  5
C06
  8
OUTLINE
 10
2827.508742890544
 20
2514.7735927723788
 30
0.0
 11
2782.508742890544
 21
2514.7735927723788
 31
0.0
  0
CIRCLE
  5
C07
  8
OUTLINE
 10
2805.008742890544
 20
2494.7735927723788
 30
0.0
 40
9.0
  0
LINE
  5
C08
  8
OUTLINE
 10
1824.0089426905749
 20
1185.9760736944891
 30
0.0
 11
1831.0089426905749
 21
1185.9760736944891
 31
0.0
  0
LINE
  5
C09
  8
OUTLINE
 10
1775.208942690575
 20
1115.9760736944911
 30
0.0
 11
1831.008942690574
 21
1115.9760736944911
 31
0.0
  0
LINE
  5
C0A
  8
OUTLINE
 10
1775.208942690575
 20
1122.97607369449
 30
0.0
 11
1775.208942690575
 21
1115.9760736944911
 31
0.0
  0
LINE
  5
C0B
  8
OUTLINE
 10
1777.208942690575
 20
1107.9760736944911
 30
0.0
 11
1804.0089426905749
 21
1107.9760736944911
 31
0.0
  0
LINE
  5
C0C
  8
OUTLINE
 10
1777.208942690575
 20
1115.9760736944911
 30
0.0
 11
1777.208942690575
 21
1107.9760736944911
 31
0.0
  0
LINE
  5
C0D
  8
OUTLINE
 10
1804.0089426905749
 20
1115.976073694492
 30
0.0
 11
1804.0089426905749
 21
1107.9760736944911
 31
0.0
  0
LINE
  5
C0E
  8
OUTLINE
 10
1824.0089426905749
 20
1185.9760736944891
 30
0.0
 11
1824.008942690574
 21
1122.97607369449
 31
0.0
  0
LINE
  5
C0F
  8
OUTLINE
 10
1775.208942690575
 20
1122.97607369449
 30
0.0
 11
1824.008942690574
 21
1122.97607369449
 31
0.0
  0
LINE
  5
C10
  8
OUTLINE
 10
2438.0089426905761
 20
1185.9760736944891
 30
0.0
 11
2438.0089426905761
 21
1122.97607369449
 31
0.0
  0
LINE
  5
C11
  8
OUTLINE
 10
2486.8089426905758
 20
1122.97607369449
 30
0.0
 11
2438.0089426905761
 21
1122.97607369449
 31
0.0
  0
LINE
  5
C12
  8
OUTLINE
 10
2486.8089426905758
 20
1115.9760736944911
 30
0.0
 11
2431.0089426905752
 21
1115.9760736944911
 31
0.0
  0
LINE
  5
C13
  8
OUTLINE
 10
2484.8089426905749
 20
1107.9760736944911
 30
0.0
 11
2458.0089426905752
 21
1107.9760736944911
 31
0.0
  0
LINE
  5
C14
  8
OUTLINE
 10
2458.0089426905752
 20
1115.976073694492
 30
0.0
 11
2458.0089426905752
 21
1107.9760736944911
 31
0.0
  0
LINE
  5
C15
  8
OUTLINE
 10
2486.8089426905758
 20
1122.97607369449
 30
0.0
 11
2486.8089426905758
 21
1115.9760736944911
 31
0.0
  0
LINE
  5
C16
  8
OUTLINE
 10
2484.8089426905749
 20
1115.9760736944911
 30
0.0
 11
2484.8089426905749
 21
1107.9760736944911
 31
0.0
  0
LINE
  5
C17
  8
OUTLINE
 10
2438.0089426905761
 20
1185.9760736944891
 30
0.0
 11
2431.0089426905752
 21
1185.9760736944891
 31
0.0
  0
LINE
  5
C18
  8
DIM
 10
4197.0087014171559
 20
1796.7735927723791
 30
0.0
 11
4197.0087014171559
 21
1638.601186888003
 31
0.0
  0
LINE
  5
C19
  8
DIM
 10
2805.008742890544
 20
1796.7735927723791
 30
0.0
 11
2805.008742890544
 21
1638.601186888003
 31
0.0
  0
LINE
  5
C1A
  8
DIM
 10
4167.0087014171577
 20
1658.6011868880021
 30
0.0
 11
3939.5296043199041
 21
1658.6011868880021
 31
0.0
  0
LINE
  5
C1B
  8
DIM
 10
2835.0087428905431
 20
1658.6011868880021
 30
0.0
 11
3278.8067221538508
 21
1658.6011868880021
 31
0.0
  0
SOLID
  5
C1C
  8
DIM
 10
4167.0087014171577
 20
1663.6011868880021
 30
0.0
 11
4167.0087014171577
 21
1653.601186888003
 31
0.0
 12
4197.0087014171559
 22
1658.6011868880021
 32
0.0
 13
4197.0087014171559
 23
1658.6011868880021
 33
0.0
  0
SOLID
  5
C1D
  8
DIM
 10
2835.0087428905431
 20
1663.6011868880021
 30
0.0
 11
2835.0087428905431
 21
1653.601186888003
 31
0.0
 12
2805.008742890544
 22
1658.6011868880021
 32
0.0
 13
2805.008742890544
 23
1658.6011868880021
 33
0.0
  0
TEXT
  5
C1E
  8
DIM
 10
3326.314478508225
 20
1643.6011868880021
 30
0.0
 40
30.0
  1
1392 MOUNTING CENTRES
  7
TITLE3
 72
     4
 11
3617.0287642225112
 21
1658.6011868880021
 31
0.0
  0
LINE
  5
C1F
  8
DIM
 10
2619.9638087085509
 20
1891.7735927723791
 30
0.0
 11
2619.9638087085509
 21
2066.887878486662
 31
0.0
  0
TEXT
  5
C20
  8
DIM
 10
2536.2854210699638
 20
1896.921890132397
 30
0.0
 40
30.0
  1
678 HANGER CENTRES
 50
90.0
  7
TITLE3
 72
     1
 11
2521.2854210699638
 21
2153.3504615609681
 31
0.0
 73
     2
  0
LINE
  5
C21
  8
DIM
 10
2762.0087428905449
 20
1861.7735927723791
 30
0.0
 11
2599.9638087085509
 21
1861.7735927723791
 31
0.0
  0
LINE
  5
C22
  8
DIM
 10
2522.6698946399788
 20
1846.7735927723791
 30
0.0
 11
2522.6698946399788
 21
1884.1450213438061
 31
0.0
  0
SOLID
  5
C23
  8
DIM
 10
2527.6698946399788
 20
1846.7735927723791
 30
0.0
 11
2517.6698946399802
 21
1846.7735927723791
 31
0.0
 12
2522.6698946399788
 22
1816.7735927723791
 32
0.0
 13
2522.6698946399788
 23
1816.7735927723791
 33
0.0
  0
SOLID
  5
C24
  8
DIM
 10
2624.9638087085518
 20
1891.7735927723791
 30
0.0
 11
2614.9638087085509
 21
1891.7735927723791
 31
0.0
 12
2619.9638087085509
 22
1861.7735927723791
 32
0.0
 13
2619.9638087085509
 23
1861.7735927723791
 33
0.0
  0
TEXT
  5
C25
  8
DIM
 10
2634.9638087085509
 20
2112.60216420095
 30
0.0
 40
30.0
  1
600
 50
90.0
  7
TITLE3
 72
     4
 11
2619.9638087085509
 21
2151.173592772378
 31
0.0
  0
LINE
  5
C26
  8
DIM
 10
2762.0087428905449
 20
2450.9735927723791
 30
0.0
 11
2599.9638087085509
 21
2450.9735927723791
 31
0.0
  0
LINE
  5
C27
  8
DIM
 10
2619.9638087085509
 20
2420.9735927723791
 30
0.0
 11
2619.9638087085509
 21
2245.8593070580928
 31
0.0
  0
SOLID
  5
C28
  8
DIM
 10
2624.9638087085518
 20
2420.9735927723791
 30
0.0
 11
2614.9638087085509
 21
2420.9735927723791
 31
0.0
 12
2619.9638087085509
 22
2450.9735927723791
 32
0.0
 13
2619.9638087085509
 23
2450.9735927723791
 33
0.0
  0
LINE
  5
C29
  8
DIM
 10
2522.6698946399788
 20
2464.7735927723802
 30
0.0
 11
2522.6698946399788
 21
2427.4021642009511
 31
0.0
  0
SOLID
  5
C2A
  8
DIM
 10
2527.6698946399788
 20
2464.7735927723802
 30
0.0
 11
2517.6698946399802
 21
2464.7735927723802
 31
0.0
 12
2522.6698946399788
 22
2494.7735927723788
 32
0.0
 13
2522.6698946399788
 23
2494.7735927723788
 33
0.0
  0
LINE
  5
C2D
  8
DIM
 10
2791.3596596920988
 20
1816.7735927723791
 30
0.0
 11
2502.6698946399811
 21
1816.7735927723791
 31
0.0
  0
LINE
  5
C2E
  8
DIM
 10
2793.0817156219441
 20
2494.7735927723788
 30
0.0
 11
2502.6698946399811
 21
2494.7735927723788
 31
0.0
  0
LINE
  5
C31
  8
OUTLINE
 10
4215.2087014171584
 20
1236.576073694491
 30
0.0
 11
4215.2087014171602
 21
538.57607369449215
 31
0.0
  0
LINE
  5
C32
  8
OUTLINE
 10
2762.6067221538569
 20
1236.576130111481
 30
0.0
 11
2762.6067221538528
 21
538.57759448727927
 31
0.0
  0
TEXT
  5
C33
  8
TEXT
 10
3738.477354904167
 20
331.83937465895161
 30
0.0
 40
56.25
  1
temperzone ISD 330
  7
TITLE5
 72
     1
 11
4175.0844977613096
 21
331.83937465895161
 31
0.0
  0
TEXT
  5
C34
  8
TEXT
 10
4287.5
 20
87.5
 30
0.0
 40
37.5
  1
ISD330
 41
1.9708737864077659
  7
TITLE3
 72
     5
 11
4650.0
 21
87.5
 31
0.0
  0
TEXT
  5
C35
  8
TEXT
 10
3687.6594397060949
 20
137.5
 30
0.0
 40
37.5
  1
16.11.07
 41
0.9180327868852415
  7
TITLE3
 72
     5
 11
3887.659439706094
 21
137.5
 31
0.0
  0
TEXT
  5
C36
  8
OVERLAY-A3
 10
3558.3907440588541
 20
138.53901732512591
 30
0.0
 40
30.0
  1
Date
  7
SIMPLEX
  0
TEXT
  5
C37
  8
OVERLAY-A3
 10
4682.6389904670023
 20
161.879127529264
 30
0.0
 40
30.0
  1
Revision
 41
0.7812095035934897
  7
SIMPLEX
 72
     5
 11
4814.3285925013333
 21
161.879127529264
 31
0.0
  0
LINE
  5
C38
  8
OVERLAY-A3
 10
4668.1141874877012
 20
26.053116060396409
 30
0.0
 11
4668.1141874877012
 21
210.33581963568329
 31
0.0
  0
LINE
  5
C39
  8
OVERLAY-A3
 10
3524.189411821435
 20
417.0489795327772
 30
0.0
 11
3524.189411821435
 21
26.053116060396409
 31
0.0
  0
LINE
  5
C3A
  8
OVERLAY-A3
 10
4271.1420975163674
 20
26.053116060396409
 30
0.0
 11
4271.1420975163674
 21
210.33581963568329
 31
0.0
  0
LINE
  5
C3B
  8
OVERLAY-A3
 10
4271.1420975163674
 20
116.6407490868297
 30
0.0
 11
3524.189411821435
 21
116.6407490868297
 31
0.0
  0
LINE
  5
C3C
  8
OVERLAY-A3
 10
4826.9693315473032
 20
210.33581963568329
 30
0.0
 11
3524.189411821435
 21
210.33581963568329
 31
0.0
  0
LINE
  5
C3D
  8
OVERLAY-A3
 10
3524.189411821435
 20
26.053116060396409
 30
0.0
 11
4826.5974475743642
 21
26.053116060396409
 31
0.0
  0
LINE
  5
C3E
  8
OVERLAY-A3
 10
4826.5974475743642
 20
26.053116060396409
 30
0.0
 11
4826.5974475743642
 21
417.0489795327772
 31
0.0
  0
LINE
  5
C3F
  8
OVERLAY-A3
 10
4826.5974475743642
 20
417.0489795327772
 30
0.0
 11
3524.189411821435
 21
417.0489795327772
 31
0.0
  0
TEXT
  5
C40
  8
OVERLAY-A3
 10
3555.6040238788869
 20
59.903110081697122
 30
0.0
 40
25.0
  1
Scale
 41
1.3701747965659881
  7
SIMPLEX
 72
     5
 11
3681.2033802307692
 21
59.903110081697122
 31
0.0
  0
TEXT
  5
C41
  8
OVERLAY-A3
 10
4343.5739045009959
 20
161.1167893833869
 30
0.0
 40
25.0
  1
Drawing No.
  7
SIMPLEX
 72
     2
 11
4561.4310473581399
 21
161.1167893833869
 31
0.0
  0
LINE
  5
C42
  8
OVERLAY-A3
 10
1660.1889435864341
 20
0.0
 30
0.0
 11
4862.5
 21
0.0
 31
0.0
  0
LINE
  5
C43
  8
OVERLAY-A3
 10
4862.5
 20
0.0
 30
0.0
 11
4862.5
 21
2908.638814366057
 31
0.0
  0
LINE
  5
C44
  8
OVERLAY-A3
 10
4862.5
 20
2908.638814366057
 30
0.0
 11
1660.1889435864341
 21
2908.638814366057
 31
0.0
  0
LINE
  5
C45
  8
OVERLAY-A3
 10
1660.1889435864341
 20
2908.638814366057
 30
0.0
 11
1660.1889435864341
 21
0.0
 31
0.0
  0
TEXT
  5
C46
  8
TEXT
 10
3748.5565704042451
 20
58.012369697124093
 30
0.0
 40
30.0
  1
1:10
  7
TITLE3
  0
LINE
  5
C47
  8
DIM
 10
2480.3229418793708
 20
538.57607369449204
 30
0.0
 11
2630.8315302142119
 21
538.57607369449204
 31
0.0
  0
LINE
  5
C48
  8
CLEAR
 10
4821.608701417159
 20
1861.7735927723791
 30
0.0
 11
4821.608701417159
 21
2450.9735927723791
 31
0.0
  0
LINE
  5
C49
  8
CLEAR
 10
4821.608701417159
 20
2450.9735927723791
 30
0.0
 11
4262.3731813829709
 21
2450.9735927723791
 31
0.0
  0
LINE
  5
C4A
  8
CLEAR
 10
4821.608701417159
 20
1861.7735927723791
 30
0.0
 11
4246.2940532373523
 21
1861.7735927723791
 31
0.0
  0
TEXT
  5
C4B
  8
TEXT
 10
3373.5788449371598
 20
2127.3391655567711
 30
0.0
 40
84.375
  1
ISD330
  7
TITLE5
 72
     1
 11
3580.4984877943029
 21
2127.3391655567711
 31
0.0
  0
LINE
  5
C4C
  8
DIM
 10
3478.33528525885
 20
1747.3035161386131
 30
0.0
 11
3478.33528525885
 21
1802.2894188461589
 31
0.0
  0
LINE
  5
C4D
  8
DIM
 10
3456.6812576627849
 20
1747.3035161386131
 30
0.0
 11
3456.6812576627849
 21
1802.2894188461589
 31
0.0
  0
LINE
  5
C4E
  8
DIM
 10
3456.6812576627849
 20
1802.2894188461589
 30
0.0
 11
3478.33528525885
 21
1802.2894188461589
 31
0.0
  0
LINE
  5
C4F
  8
DIM
 10
3496.0842678124809
 20
1747.3035161386131
 30
0.0
 11
3478.33528525885
 21
1747.3035161386131
 31
0.0
  0
LINE
  5
C50
  8
DIM
 10
3467.5082714608161
 20
1700.2994346462949
 30
0.0
 11
3496.0842678124809
 21
1747.3035161386131
 31
0.0
  0
LINE
  5
C51
  8
DIM
 10
3467.5082714608161
 20
1700.2994346462949
 30
0.0
 11
3438.932275109154
 21
1747.3035161386131
 31
0.0
  0
LINE
  5
C52
  8
DIM
 10
3438.932275109154
 20
1747.3035161386131
 30
0.0
 11
3456.6812576627849
 21
1747.3035161386131
 31
0.0
  0
LINE
  5
C53
  8
DIM
 10
3454.3696820216278
 20
2559.6504510610962
 30
0.0
 11
3482.945678373293
 21
2606.6545325534139
 31
0.0
  0
LINE
  5
C54
  8
DIM
 10
3482.945678373293
 20
2606.6545325534139
 30
0.0
 11
3465.1966958196622
 21
2606.6545325534139
 31
0.0
  0
LINE
  5
C55
  8
DIM
 10
3465.1966958196622
 20
2606.6545325534139
 30
0.0
 11
3465.1966958196622
 21
2661.6404352609611
 31
0.0
  0
LINE
  5
C56
  8
DIM
 10
3443.5426682235961
 20
2606.6545325534139
 30
0.0
 11
3443.5426682235961
 21
2661.6404352609611
 31
0.0
  0
LINE
  5
C57
  8
DIM
 10
3443.5426682235961
 20
2661.6404352609611
 30
0.0
 11
3465.1966958196622
 21
2661.6404352609611
 31
0.0
  0
LINE
  5
C58
  8
DIM
 10
3425.7936856699639
 20
2606.6545325534139
 30
0.0
 11
3443.5426682235961
 21
2606.6545325534139
 31
0.0
  0
LINE
  5
C59
  8
DIM
 10
3454.3696820216278
 20
2559.6504510610962
 30
0.0
 11
3425.7936856699639
 21
2606.6545325534139
 31
0.0
  0
LINE
  5
C5A
  8
DIM
 10
2552.7961932354251
 20
1056.69671423112
 30
0.0
 11
2497.8102905278788
 21
1056.69671423112
 31
0.0
  0
LINE
  5
C5B
  8
DIM
 10
2552.7961932354251
 20
1078.350741827184
 30
0.0
 11
2497.8102905278788
 21
1078.350741827184
 31
0.0
  0
LINE
  5
C5C
  8
DIM
 10
2497.8102905278788
 20
1056.69671423112
 30
0.0
 11
2497.8102905278788
 21
1078.350741827184
 31
0.0
  0
LINE
  5
C5D
  8
DIM
 10
2552.7961932354251
 20
1096.099724380817
 30
0.0
 11
2552.7961932354251
 21
1078.350741827184
 31
0.0
  0
LINE
  5
C5E
  8
DIM
 10
2599.8002747277428
 20
1067.5237280291531
 30
0.0
 11
2552.7961932354251
 21
1096.099724380817
 31
0.0
  0
LINE
  5
C5F
  8
DIM
 10
2599.8002747277428
 20
1067.5237280291531
 30
0.0
 11
2552.7961932354251
 21
1038.947731677488
 31
0.0
  0
LINE
  5
C60
  8
DIM
 10
2552.7961932354251
 20
1038.947731677488
 30
0.0
 11
2552.7961932354251
 21
1056.69671423112
 31
0.0
  0
TEXT
  5
C61
  8
TEXT
 10
4802.0646723687241
 20
1930.998198750525
 30
0.0
 40
30.0
  1
500 min CLEARANCE
 50
90.0
  7
TITLE3
  0
INSERT
  5
C62
  8
TEXT
  2
NEW_BLOCK
 10
1720.4148687632839
 20
33.644011142307818
 30
0.0
 41
0.75
 42
0.75
 43
0.75
  0
LINE
  5
CCF
  8
OUTLINE
 10
4111.5087014171559
 20
2450.9735927723791
 30
0.0
 11
4111.5087014171559
 21
2507.9735927723791
 31
0.0
  0
LINE
  5
CD0
  8
OUTLINE
 10
4111.5087014171559
 20
2507.9735927723791
 30
0.0
 11
2843.5087014171572
 21
2507.9735927723791
 31
0.0
  0
LINE
  5
CD1
  8
OUTLINE
 10
2843.5087014171572
 20
2507.9735927723791
 30
0.0
 11
2843.5087014171572
 21
2450.9735927723791
 31
0.0
  0
LINE
  5
CD5
  8
OUTLINE
 10
3948.0087014171572
 20
1794.3735927723781
 30
0.0
 11
3948.0087014171572
 21
1861.7735927723791
 31
0.0
  0
LINE
  5
CD6
  8
OUTLINE
 10
2974.0087014171572
 20
1794.3735927723781
 30
0.0
 11
2974.0087014171572
 21
1861.7735927723791
 31
0.0
  0
POLYLINE
  5
CDE
  8
OUTLINE
 66
     1
 10
0.0
 20
0.0
 30
0.0
 70
     1
  0
VERTEX
  5
D8C
  8
OUTLINE
 10
4215.2087014171584
 20
623.89797754792357
 30
0.0
  0
VERTEX
  5
D8D
  8
OUTLINE
 10
4320.2087014171584
 20
623.89797754792357
 30
0.0
  0
VERTEX
  5
D8E
  8
OUTLINE
 10
4320.2087014171584
 20
1194.897977547924
 30
0.0
  0
VERTEX
  5
D8F
  8
OUTLINE
 10
4215.2087014171584
 20
1194.897977547924
 30
0.0
  0
SEQEND
  5
D90
  8
OUTLINE
  0
LINE
  5
CE0
  8
OUTLINE
 10
4216.7087014171584
 20
2026.043304280435
 30
0.0
 11
4321.7087014171602
 21
2026.043304280435
 31
0.0
  0
LINE
  5
CE1
  8
OUTLINE
 10
4321.7087014171602
 20
2026.043304280435
 30
0.0
 11
4321.7087014171602
 21
2295.0433042804352
 31
0.0
  0
LINE
  5
CE2
  8
OUTLINE
 10
4321.7087014171602
 20
2295.0433042804352
 30
0.0
 11
4216.7087014171584
 21
2295.0433042804352
 31
0.0
  0
LINE
  5
D55
  8
OUTLINE
 10
1831.008942690574
 20
603.57607369449079
 30
0.0
 11
1774.0089426905761
 21
603.57607369449079
 31
0.0
  0
VIEWPORT
  5
D70
 67
     1
  8
0
 10
5.2499996395561652
 20
3.9999998836066761
 30
0.0
 40
15.91535696818293
 41
8.9929997457669462
 68
     1
 69
     1
1001
ACAD
1000
MVIEW
1002
{
1070
    16
1010
0.0
1020
0.0
1030
0.0
1010
0.0
1020
0.0
1030
1.0
1040
0.0
1040
8.9929997457669462
1040
5.2499996395561652
1040
3.9999998836066761
1040
50.0
1040
0.0
1040
0.0
1070
     0
1070
   100
1070
     1
1070
     1
1070
     0
1070
     0
1070
     0
1070
     0
1040
0.0
1040
0.0
1040
0.0
1040
10.0
1040
10.0
1040
10.0
1040
10.0
1070
     0
1002
{
1002
}
1002
}
1001
GENIUS_GENOBJ-N-SDF_13
1002
{
1000
OWNER
1000
GEN
1002
}
1001
GENIUS_GENODEF_13
1002
{
1000
HIER
1070
     0
1002
}
1002
{
1000
MANEDIT
1070
     0
1002
}
1002
{
1000
NOSEL
1070
     0
1002
}
1002
{
1000
BEHIND
1070
     0
1002
}
1002
{
1000
OTHER
1070
     0
1002
}
1002
{
1000
REACTOR
1002
}
1001
GENIUS_GENSCREG_15
1000
PF
1040
1.0
1000
DF
1040
1.0
1000
MIN
1011
-2.7076788445352991
1021
0.0
1031
0.0
1021
-0.4964999892767957
1031
0.0
1000
MAX
1011
13.20767812364763
1021
0.0
1031
0.0
1021
8.4964997564901505
1031
0.0
1000
FLAGS
1070
     4
  0
VIEWPORT
  5
D73
 67
     1
  8
OUTLINE
 10
5.24999976158142
 20
3.9999997615814191
 30
0.0
 40
8.3999996185302752
 41
6.3999996185302734
 68
     2
 69
     2
1001
ACAD
1000
MVIEW
1002
{
1070
    16
1010
0.0
1020
0.0
1030
0.0
1010
0.0
1020
0.0
1030
1.0
1040
0.0
1040
2932.4973450311322
1040
3261.3162163587608
1040
1454.3194139552311
1040
50.0
1040
0.0
1040
0.0
1070
     0
1070
   100
1070
     1
1070
     1
1070
     0
1070
     0
1070
     0
1070
     0
1040
0.0
1040
0.0
1040
0.0
1040
10.0
1040
10.0
1040
10.0
1040
10.0
1070
     0
1002
{
1002
}
1002
}
1001
GENIUS_GENOBJ-N-SDF_13
1002
{
1000
OWNER
1000
GEN
1002
}
1001
GENIUS_GENODEF_13
1002
{
1000
HIER
1070
     0
1002
}
1002
{
1000
MANEDIT
1070
     0
1002
}
1002
{
1000
NOSEL
1070
     0
1002
}
1002
{
1000
BEHIND
1070
     0
1002
}
1002
{
1000
OTHER
1070
     0
1002
}
1002
{
1000
REACTOR
1002
}
1001
GENIUS_GENSCREG_15
1000
PF
1040
0.0
1000
DF
1040
0.0
1000
MIN
1011
1.049999952316282
1021
0.0
1031
0.0
1021
0.7999999523162824
1031
0.0
1000
MAX
1011
9.4499995708465576
1021
0.0
1031
0.0
1021
7.199999570846555
1031
0.0
1000
FLAGS
1070
     4
  0
ENDSEC
  0
EOF
