  0
SECTION
  2
HEADER
  9
$ACADVER
  1
AC1009
  9
$INSBASE
 10
0.0
 20
0.0
 30
0.0
  9
$EXTMIN
 10
860.55329375036854
 20
-0.0814303935103453
 30
-0.0015258207003583
  9
$EXTMAX
 10
3890.118722436313
 20
2668.596165781059
 30
0.0000000349246037
  9
$LIMMIN
 10
0.0
 20
0.0
  9
$LIMMAX
 10
3890.0
 20
2660.0
  9
$ORTHOMODE
 70
     1
  9
$REGENMODE
 70
     1
  9
$FILLMODE
 70
     1
  9
$QTEXTMODE
 70
     0
  9
$MIRRTEXT
 70
     0
  9
$DRAGMODE
 70
     2
  9
$LTSCALE
 40
100.0
  9
$OSMODE
 70
     0
  9
$ATTMODE
 70
     1
  9
$TEXTSIZE
 40
25.0
  9
$TRACEWID
 40
0.05
  9
$TEXTSTYLE
  7
TITLE3
  9
$CLAYER
  8
0
  9
$CELTYPE
  6
BYLAYER
  9
$CECOLOR
 62
   256
  9
$DIMSCALE
 40
1.0
  9
$DIMASZ
 40
0.12
  9
$DIMEXO
 40
0.05
  9
$DIMDLI
 40
0.5
  9
$DIMRND
 40
0.0
  9
$DIMDLE
 40
0.0
  9
$DIMEXE
 40
0.1
  9
$DIMTP
 40
0.1
  9
$DIMTM
 40
0.1
  9
$DIMTXT
 40
0.12
  9
$DIMCEN
 40
0.0
  9
$DIMTSZ
 40
0.0
  9
$DIMTOL
 70
     0
  9
$DIMLIM
 70
     0
  9
$DIMTIH
 70
     1
  9
$DIMTOH
 70
     1
  9
$DIMSE1
 70
     0
  9
$DIMSE2
 70
     0
  9
$DIMTAD
 70
     0
  9
$DIMZIN
 70
     7
  9
$DIMBLK
  1

  9
$DIMASO
 70
     0
  9
$DIMSHO
 70
     0
  9
$DIMPOST
  1

  9
$DIMAPOST
  1
mm
  9
$DIMALT
 70
     0
  9
$DIMALTD
 70
     2
  9
$DIMALTF
 40
25.399999999999999
  9
$DIMLFAC
 40
1.0
  9
$DIMTOFL
 70
     0
  9
$DIMTVP
 40
0.0
  9
$DIMTIX
 70
     0
  9
$DIMSOXD
 70
     0
  9
$DIMSAH
 70
     0
  9
$DIMBLK1
  1

  9
$DIMBLK2
  1

  9
$DIMSTYLE
  2
AM_ANSI
  9
$DIMCLRD
 70
   256
  9
$DIMCLRE
 70
   256
  9
$DIMCLRT
 70
     2
  9
$DIMTFAC
 40
0.71
  9
$DIMGAP
 40
0.06
  9
$LUNITS
 70
     2
  9
$LUPREC
 70
     2
  9
$SKETCHINC
 40
0.1
  9
$FILLETRAD
 40
0.0
  9
$AUNITS
 70
     0
  9
$AUPREC
 70
     2
  9
$MENU
  1
\acad12\support\cnc
  9
$ELEVATION
 40
0.0
  9
$PELEVATION
 40
0.0
  9
$THICKNESS
 40
0.0
  9
$LIMCHECK
 70
     0
  9
$BLIPMODE
 70
     0
  9
$CHAMFERA
 40
0.0
  9
$CHAMFERB
 40
0.0
  9
$SKPOLY
 70
     0
  9
$TDCREATE
 40
2450764.4272488421
  9
$TDUPDATE
 40
2455849.4297729861
  9
$TDINDWG
 40
1.1284408681
  9
$TDUSRTIMER
 40
1.1284348032
  9
$USRTIMER
 70
     1
  9
$ANGBASE
 50
0.0
  9
$ANGDIR
 70
     0
  9
$PDMODE
 70
     2
  9
$PDSIZE
 40
10.0
  9
$PLINEWID
 40
0.0
  9
$COORDS
 70
     1
  9
$SPLFRAME
 70
     0
  9
$SPLINETYPE
 70
     6
  9
$SPLINESEGS
 70
     8
  9
$ATTDIA
 70
     1
  9
$ATTREQ
 70
     1
  9
$HANDLING
 70
     1
  9
$HANDSEED
  5
64CC
  9
$SURFTAB1
 70
     6
  9
$SURFTAB2
 70
     6
  9
$SURFTYPE
 70
     6
  9
$SURFU
 70
     6
  9
$SURFV
 70
     6
  9
$UCSNAME
  2

  9
$UCSORG
 10
0.0
 20
0.0
 30
0.0
  9
$UCSXDIR
 10
1.0
 20
0.0
 30
0.0
  9
$UCSYDIR
 10
0.0
 20
1.0
 30
0.0
  9
$PUCSNAME
  2

  9
$PUCSORG
 10
0.0
 20
0.0
 30
0.0
  9
$PUCSXDIR
 10
1.0
 20
0.0
 30
0.0
  9
$PUCSYDIR
 10
0.0
 20
1.0
 30
0.0
  9
$USERI1
 70
     0
  9
$USERI2
 70
     0
  9
$USERI3
 70
     0
  9
$USERI4
 70
     0
  9
$USERI5
 70
     0
  9
$USERR1
 40
0.0
  9
$USERR2
 40
0.0
  9
$USERR3
 40
0.0
  9
$USERR4
 40
0.0
  9
$USERR5
 40
0.0
  9
$WORLDVIEW
 70
     1
  9
$SHADEDGE
 70
     3
  9
$SHADEDIF
 70
    70
  9
$TILEMODE
 70
     1
  9
$MAXACTVP
 70
    16
  9
$PLIMCHECK
 70
     0
  9
$PEXTMIN
 10
1.0000000000000000E+020
 20
1.0000000000000000E+020
 30
1.0000000000000000E+020
  9
$PEXTMAX
 10
-1.0000000000000000E+020
 20
-1.0000000000000000E+020
 30
-1.0000000000000000E+020
  9
$PLIMMIN
 10
0.0
 20
0.0
  9
$PLIMMAX
 10
12.0
 20
9.0
  9
$UNITMODE
 70
     0
  9
$VISRETAIN
 70
     0
  9
$PLINEGEN
 70
     0
  9
$PSLTSCALE
 70
     0
  0
ENDSEC
  0
SECTION
  2
TABLES
  0
TABLE
  2
VPORT
 70
     1
  0
VPORT
  2
*ACTIVE
 70
     0
 10
0.0
 20
0.0
 11
1.0
 21
1.0
 12
0.0396454601298046
 22
162.4172010194811
 13
0.0
 23
0.0
 14
25.0
 24
25.0
 15
100.0
 25
100.0
 16
0.0
 26
0.0
 36
1.0
 17
2375.2963626332112
 27
1171.840166674293
 37
0.0
 40
2685.0834010690851
 41
1.630769230769231
 42
50.0
 43
0.0
 44
0.0
 50
0.0
 51
0.0
 71
     0
 72
   100
 73
     1
 74
     0
 75
     0
 76
     0
 77
     0
 78
     0
  0
ENDTAB
  0
TABLE
  2
LTYPE
 70
    21
  0
LTYPE
  2
CONTINUOUS
 70
     0
  3
Solid line
 72
    65
 73
     0
 40
0.0
  0
LTYPE
  2
PHANTOM
 70
     0
  3
Phantom ______  __  __  ______  __  __  ______
 72
    65
 73
     6
 40
2.5
 49
1.25
 49
-0.25
 49
0.25
 49
-0.25
 49
0.25
 49
-0.25
  0
LTYPE
  2
HIDDEN
 70
     0
  3
__ __ __ __ __ __ __ __ __ __ __ __ __ __ __ __
 72
    65
 73
     2
 40
0.375
 49
0.25
 49
-0.125
  0
LTYPE
  2
PHANTOM2
 70
     0
  3
Phantom (.5x) ___ _ _ ___ _ _ ___ _ _ ___ _ _
 72
    65
 73
     6
 40
1.25
 49
0.625
 49
-0.125
 49
0.125
 49
-0.125
 49
0.125
 49
-0.125
  0
LTYPE
  2
CENTER
 70
     0
  3
Center ____ _ ____ _ ____ _ ____ _ ____ _ ____
 72
    65
 73
     4
 40
2.0
 49
1.25
 49
-0.25
 49
0.25
 49
-0.25
  0
LTYPE
  2
AMCONSTR
 70
     0
  3
_______________________
 72
    65
 73
     2
 40
9999.0
 49
9999.0
 49
0.0
  0
LTYPE
  2
CENTER2
 70
     0
  3
Center (.5x) ___ _ ___ _ ___ _ ___ _ ___ _ ___
 72
    65
 73
     4
 40
1.125
 49
0.75
 49
-0.125
 49
0.125
 49
-0.125
  0
LTYPE
  2
HIDDEN2
 70
     0
  3
Hidden (.5x) _ _ _ _ _ _ _ _ _ _ _ _ _ _ _ _ _
 72
    65
 73
     2
 40
0.1875
 49
0.125
 49
-0.0625
  0
LTYPE
  2
AMZIGZAG2
 70
     0
  3
/\/-/\/-/\/-/\/-/\/-/\/
 72
    65
 73
     2
 40
0.4401
 49
0.0001
 49
-0.4400000000000003
  0
LTYPE
  2
ACANSTGB
 70
     0
  3
__ . . __ . .
 72
    65
 73
     6
 40
0.35433070866
 49
0.15748031496
 49
-0.03937007874
 49
0.03937007874
 49
-0.03937007874
 49
0.03937007874
 49
-0.03937007874
  0
LTYPE
  2
ACANSTGL
 70
     0
  3
_ _ _ _ _
 72
    65
 73
     2
 40
0.11811023622
 49
0.07874015748
 49
-0.03937007874
  0
LTYPE
  2
ASULTYPE
 70
     0
  3
Solid line
 72
    65
 73
     2
 40
3.0
 49
2.5
 49
0.5
  0
LTYPE
  2
ASVLTYPE
 70
     0
  3
__ __ __ __ __ __ __ __ __ __ __ __ __ __ __ __ __ __ __ __ __
 72
    65
 73
     2
 40
0.75
 49
0.5
 49
-0.25
  0
LTYPE
  2
AM_ISO02W050
 70
     0
  3
__ __ __ __ __ __ __ __ __ __ __ __ __ __ __
 72
    65
 73
     2
 40
7.5
 49
6.0
 49
-1.5
  0
LTYPE
  2
AM_ISO08W050
 70
     0
  3
____ . ____ . ____ . ____ . ____ . ____ . ____
 72
    65
 73
     4
 40
18.0
 49
12.0
 49
-1.5
 49
3.0
 49
-1.5
  0
LTYPE
  2
AM_ISO09W050
 70
     0
  3
_____ . . _____ . . _____ . . ____ .. ____
 72
    65
 73
     6
 40
22.5
 49
12.0
 49
-1.5
 49
3.0
 49
-1.5
 49
3.0
 49
-1.5
  0
LTYPE
  2
AM_ISO08W050X2
 70
     0
  3
__ . __ . __ . __ . __ . __
 72
    65
 73
     4
 40
9.0
 49
6.0
 49
-0.75
 49
1.5
 49
-0.75
  0
LTYPE
  2
AM_ISO02W050X2
 70
     0
  3
 _ _ _ _ _ _ _ _ _ _ _ _
 72
    65
 73
     2
 40
3.75
 49
3.0
 49
-0.75
  0
LTYPE
  2
AMZIGZAG
 70
     0
  3
/\/-/\/-/\/-/\/-/\/-/\/
 72
    65
 73
     2
 40
11.0001
 49
0.0001
 49
-11.0
  0
ENDTAB
  0
TABLE
  2
LAYER
 70
     1
  0
LAYER
  2
0
 70
     0
 62
     7
  6
CONTINUOUS
  0
ENDTAB
  0
TABLE
  2
STYLE
 70
     8
  0
STYLE
  2
STANDARD
 70
     0
 40
0.0
 41
1.0
 50
0.0
 71
     0
 42
0.2
  3
txt
  4

  0
STYLE
  2
ANNOTATIVE
 70
     0
 40
0.0
 41
1.0
 50
0.0
 71
     0
 42
0.2
  3
txt
  4

  0
STYLE
  2
TITLE3
 70
     0
 40
25.0
 41
1.0
 50
0.0
 71
     0
 42
25.0
  3
SIMPLEX.shx
  4

  0
STYLE
  2
SIMPLEX
 70
     0
 40
40.0
 41
1.0
 50
0.0
 71
     0
 42
25.0
  3
SIMPLEX
  4

  0
STYLE
  2
TITLE5
 70
     0
 40
25.0
 41
1.0
 50
0.0
 71
     0
 42
25.0
  3
SIMPLEX
  4

  0
STYLE
  2

 70
     1
 40
0.0
 41
1.0
 50
0.0
 71
     0
 42
25.0
  3
genltshp.shx
  4

  0
STYLE
  2
ACANSTS
 70
     0
 40
1.0
 41
1.0
 50
0.0
 71
     0
 42
25.0
  3
romans.shx
  4

  0
STYLE
  2
ACANSGDT
 70
     0
 40
0.0
 41
1.0
 50
0.0
 71
     0
 42
25.0
  3
amgdt.shx
  4

  0
ENDTAB
  0
TABLE
  2
VIEW
 70
     0
  0
ENDTAB
  0
TABLE
  2
UCS
 70
     0
  0
ENDTAB
  0
TABLE
  2
APPID
 70
    31
  0
APPID
  2
ACAD
 70
     0
  0
APPID
  2
ACADANNOTATIVE
 70
     0
  0
APPID
  2
ACAD_MLEADERVER
 70
     0
  0
APPID
  2
ACAD_EXEMPT_FROM_CAD_STANDARDS
 70
     0
  0
APPID
  2
ACAECLAYERSTANDARD
 70
     0
  0
APPID
  2
ACAD_DSTYLE_DIMTEXT_FILL
 70
     0
  0
APPID
  2
ACAD_DSTYLE_DIMEXT_LENGTH
 70
     0
  0
APPID
  2
ACAD_DSTYLE_DIMEXT_ENABLED
 70
     0
  0
APPID
  2
ACAD_DSTYLE_DIM_LINETYPE
 70
     0
  0
APPID
  2
ACAD_DSTYLE_DIM_EXT1_LINETYPE
 70
     0
  0
APPID
  2
ACAD_DSTYLE_DIM_EXT2_LINETYPE
 70
     0
  0
APPID
  2
ACAD_DSTYLE_DIMJOGGED_JOGA
 70
     0
  0
APPID
  2
ACAD_DSTYLE_DIMARC_LENGTH_
 70
     0
  0
APPID
  2
ACAD_PSEXT
 70
     0
  0
APPID
  2
CONTENTBLOCKICON
 70
     0
  0
APPID
  2
GENIUS_GENDIM_13
 70
     0
  0
APPID
  2
GENIUS_GENDTOL_13
 70
     0
  0
APPID
  2
GENIUS_GE3DTOL_13
 70
     0
  0
APPID
  2
MCAD_NO_VIS
 70
     0
  0
APPID
  2
ACAD_TEMP_GRAPHIC
 70
     0
  0
APPID
  2
AD_DRAW
 70
     0
  0
APPID
  2
ACATTRIBSERVICES
 70
     0
  0
APPID
  2
ASURF_PCURVE_APPNAME
 70
     0
  0
APPID
  2
AMG_3D2D_5_0
 70
     0
  0
APPID
  2
DESIGNERASSEMBLIES
 70
     0
  0
APPID
  2
ACADM_DIM_EDIT
 70
     0
  0
APPID
  2
AMDT_DM_ADJ
 70
     0
  0
APPID
  2
AMG_3D2D_5_00
 70
     0
  0
APPID
  2
AMG_3D2D_5_01
 70
     0
  0
APPID
  2
ACAD_DSTYLE_DIMBREAK
 70
     0
  0
APPID
  2
ACAD_DSTYLE_DIMJAG
 70
     0
  0
ENDTAB
  0
TABLE
  2
DIMSTYLE
 70
    10
  0
DIMSTYLE
  2
STANDARD
 70
     0
  3

  4

  5

  6

  7

 40
1.0
 41
0.18
 42
0.0625
 43
0.38
 44
0.18
 45
0.0
 46
0.0
 47
0.0
 48
0.0
140
0.18
141
0.09
142
0.0
143
25.399999999999999
144
1.0
145
0.0
146
1.0
147
0.09
 71
     0
 72
     0
 73
     1
 74
     1
 75
     0
 76
     0
 77
     0
 78
     0
170
     0
171
     2
172
     0
173
     0
174
     0
175
     0
176
     0
177
     0
178
     0
  0
DIMSTYLE
  2
ANNOTATIVE
 70
     0
  3

  4

  5

  6

  7

 40
1.0
 41
0.18
 42
0.0625
 43
0.38
 44
0.18
 45
0.0
 46
0.0
 47
0.0
 48
0.0
140
0.18
141
0.09
142
0.0
143
25.399999999999999
144
1.0
145
0.0
146
1.0
147
0.09
 71
     0
 72
     0
 73
     1
 74
     1
 75
     0
 76
     0
 77
     0
 78
     0
170
     0
171
     2
172
     0
173
     0
174
     0
175
     0
176
     0
177
     0
178
     0
  0
DIMSTYLE
  2
COPY_OF_STANDARD
 70
     0
  3

  4

  5

  6

  7

 40
1.0
 41
30.0
 42
20.0
 43
0.38
 44
20.0
 45
0.0
 46
0.0
 47
0.0
 48
0.0
140
25.0
141
0.09
142
0.0
143
25.399999999999999
144
1.0
145
0.0
146
1.0
147
20.0
 71
     0
 72
     0
 73
     0
 74
     0
 75
     0
 76
     0
 77
     0
 78
     0
170
     0
171
     2
172
     0
173
     0
174
     0
175
     0
176
     7
177
     7
178
     7
  0
DIMSTYLE
  2
AM_ANSI
 70
     0
  3

  4
mm
  5

  6

  7

 40
1.0
 41
0.12
 42
0.05
 43
0.5
 44
0.1
 45
0.0
 46
0.0
 47
0.1
 48
0.1
140
0.12
141
0.0
142
0.0
143
25.399999999999999
144
1.0
145
0.0
146
0.71
147
0.06
 71
     0
 72
     0
 73
     1
 74
     1
 75
     0
 76
     0
 77
     0
 78
     7
170
     0
171
     2
172
     0
173
     0
174
     0
175
     0
176
   256
177
   256
178
     2
  0
DIMSTYLE
  2
AM_ANSI$3
 70
     0
  3

  4
mm
  5

  6

  7

 40
1.0
 41
0.12
 42
0.05
 43
0.5
 44
0.1
 45
0.0
 46
0.0
 47
0.1
 48
0.1
140
0.12
141
0.0
142
0.0
143
25.399999999999999
144
1.0
145
0.0
146
0.71
147
0.06
 71
     0
 72
     0
 73
     1
 74
     1
 75
     0
 76
     0
 77
     0
 78
     7
170
     0
171
     2
172
     0
173
     0
174
     0
175
     0
176
   256
177
   256
178
     2
  0
DIMSTYLE
  2
AM_ANSI$4
 70
     0
  3

  4
mm
  5

  6

  7

 40
1.0
 41
0.12
 42
0.05
 43
0.5
 44
0.1
 45
0.0
 46
0.0
 47
0.1
 48
0.1
140
0.12
141
0.0
142
0.0
143
25.399999999999999
144
1.0
145
0.0
146
0.71
147
0.06
 71
     0
 72
     0
 73
     1
 74
     1
 75
     0
 76
     0
 77
     0
 78
     7
170
     0
171
     2
172
     0
173
     0
174
     0
175
     0
176
   256
177
   256
178
     2
  0
DIMSTYLE
  2
AM_ANSI$7
 70
     0
  3

  4
mm
  5

  6

  7

 40
1.0
 41
0.12
 42
0.05
 43
0.5
 44
0.1
 45
0.0
 46
0.0
 47
0.1
 48
0.1
140
0.12
141
0.0
142
0.0
143
25.399999999999999
144
1.0
145
0.0
146
0.71
147
0.06
 71
     0
 72
     0
 73
     1
 74
     1
 75
     0
 76
     0
 77
     0
 78
     7
170
     0
171
     2
172
     0
173
     0
174
     0
175
     0
176
   256
177
   256
178
     2
  0
DIMSTYLE
  2
AM_ANSI$SF
 70
     0
  3

  4
mm
  5

  6

  7

 40
1.0
 41
0.12
 42
0.05
 43
0.5
 44
0.1
 45
0.0
 46
0.0
 47
0.1
 48
0.1
140
0.12
141
0.0
142
0.0
143
25.399999999999999
144
1.0
145
0.0
146
0.71
147
0.06
 71
     0
 72
     0
 73
     1
 74
     1
 75
     1
 76
     1
 77
     0
 78
     7
170
     0
171
     2
172
     0
173
     0
174
     0
175
     0
176
   256
177
   256
178
     2
  0
DIMSTYLE
  2
AM_ANSI$SH
 70
     0
  3

  4
mm
  5

  6

  7

 40
1.0
 41
0.12
 42
0.05
 43
0.5
 44
0.1
 45
0.0
 46
0.0
 47
0.1
 48
0.1
140
0.12
141
0.0
142
0.0
143
25.399999999999999
144
1.0
145
0.0
146
0.71
147
0.06
 71
     0
 72
     0
 73
     1
 74
     1
 75
     1
 76
     1
 77
     0
 78
     7
170
     0
171
     2
172
     0
173
     1
174
     0
175
     0
176
   256
177
   256
178
     2
  0
ENDTAB
  0
ENDSEC
  0
SECTION
  2
BLOCKS
  0
BLOCK
  8
0
  2
$MODEL_SPACE
 70
     0
 10
0.0
 20
0.0
 30
0.0
  3
$MODEL_SPACE
  1

  0
ENDBLK
  5
5EED
  8
0
  0
BLOCK
 67
     1
  8
0
  2
$PAPER_SPACE
 70
     0
 10
0.0
 20
0.0
 30
0.0
  3
$PAPER_SPACE
  1

  0
ENDBLK
  5
5EE9
 67
     1
  8
0
  0
BLOCK
  8
0
  2
GENAXEH
 70
     0
 10
0.0
 20
0.0
 30
0.0
  3
GENAXEH
  1

  0
LINE
  5
4286
  8
0
 10
-1.0
 20
0.0
 30
0.0
 11
1.0
 21
0.0
 31
0.0
  0
ENDBLK
  5
4288
  8
0
  0
BLOCK
  8
0
  2
*U3
 70
     1
 10
0.0
 20
0.0
 30
0.0
  3
*U3
  1

  0
TEXT
  5
452A
  8
0
 62
     7
 10
1568.3019457088981
 20
1155.630025377591
 30
0.0
 40
25.0
  1
1222 CTRS
  0
ENDBLK
  5
452C
  8
0
  0
BLOCK
  8
0
  2
*U4
 70
     1
 10
0.0
 20
0.0
 30
0.0
  3
*U4
  1

  0
TEXT
  5
452E
  8
0
 62
     7
 10
1310.3686123755649
 20
1236.3138397338359
 30
0.0
 40
25.0
  1
1282 (SPRING MTG CTRS - OPTION)
  0
ENDBLK
  5
4530
  8
0
  0
BLOCK
  8
0
  2
*U5
 70
     1
 10
0.0
 20
0.0
 30
0.0
  3
*U5
  1

  0
TEXT
  5
4532
  8
0
 62
     7
 10
1634.968612375566
 20
571.70117995546525
 30
0.0
 40
25.0
  1
1189
  0
ENDBLK
  5
4534
  8
0
  0
BLOCK
  8
0
  2
*U6
 70
     1
 10
0.0
 20
0.0
 30
0.0
  3
*U6
  1

  0
TEXT
  5
4536
  8
0
 62
     7
 10
1691.3852790422329
 20
502.66155073560799
 30
0.0
 40
25.0
  1
1306
  0
ENDBLK
  5
4538
  8
0
  0
BLOCK
  8
0
  2
*U7
 70
     1
 10
0.0
 20
0.0
 30
0.0
  3
*U7
  1

  0
TEXT
  5
453A
  8
0
 62
     7
 10
1618.301945708894
 20
1418.2321199048511
 30
0.0
 40
25.0
  1
861
  0
ENDBLK
  5
453C
  8
0
  0
BLOCK
  8
0
  2
*U8
 70
     1
 10
0.0
 20
0.0
 30
0.0
  3
*U8
  1

  0
TEXT
  5
453E
  8
0
 62
     7
 10
1607.88527904223
 20
2202.0702044592249
 30
0.0
 40
25.0
  1
1047
  0
ENDBLK
  5
4540
  8
0
  0
BLOCK
  8
0
  2
*U9
 70
     1
 10
0.0
 20
0.0
 30
0.0
  3
*U9
  1

  0
TEXT
  5
4856
  8
0
 10
-0.000000000001819
 20
0.0000018156206067
 30
0.0
 40
50.0
  1
ISD223K
  7
TITLE3
  0
ENDBLK
  5
4858
  8
0
  0
BLOCK
  8
0
  2
*U10
 70
     1
 10
0.0
 20
0.0
 30
0.0
  3
*U10
  1

  0
TEXT
  5
485A
  8
0
 10
1530.326037674597
 20
745.32926781310175
 30
0.0
 40
50.0
  1
ISD182K
  7
TITLE3
  0
ENDBLK
  5
485C
  8
0
  0
BLOCK
  8
0
  2
*U11
 70
     1
 10
0.0
 20
0.0
 30
0.0
  3
*U11
  1

  0
TEXT
  5
485E
  8
0
 10
1530.326037674597
 20
1801.865284972396
 30
0.0
 40
50.0
  1
ISD182K
  7
TITLE3
  0
ENDBLK
  5
4860
  8
0
  0
BLOCK
  8
0
  2
*U12
 70
     1
 10
0.0
 20
0.0
 30
0.0
  3
*U12
  1

  0
TEXT
  5
4862
  8
0
 10
3216.9092599178962
 20
838.84239564126415
 30
0.0
 40
50.0
  1
ISD182K
  7
TITLE3
  0
ENDBLK
  5
4864
  8
0
  0
ENDSEC
  0
SECTION
  2
ENTITIES
  0
LINE
  5
30F6
  8
0
 62
     7
 10
3890.000000000156
 20
0.0
 30
0.0
 11
860.69435074341663
 21
0.0
 31
0.0
  0
LINE
  5
30F7
  8
0
 62
     7
 10
860.69435074341663
 20
0.0
 30
0.0
 11
860.69435074341663
 21
2668.5147229613071
 31
0.0
  0
LINE
  5
30F8
  8
0
 62
     7
 10
860.69435074341663
 20
2668.5147229613081
 30
0.0
 11
3890.000000000156
 21
2668.5147229613081
 31
0.0
  0
LINE
  5
30F9
  8
0
 62
     7
 10
3890.000000000156
 20
2668.5147229613081
 30
0.0
 11
3890.000000000156
 21
0.0
 31
0.0
  0
TEXT
  5
3AC8
  8
0
 62
     7
 10
918.51797040702866
 20
51.50540564507029
 30
0.0
 40
33.599999999996733
  1
available on request
  7
TITLE3
  0
TEXT
  5
3AC9
  8
0
 62
     7
 10
918.51797040702866
 20
109.10540564506459
 30
0.0
 40
33.599999999996733
  1
Certified dimensions
  7
TITLE3
  0
TEXT
  5
3ACA
  8
0
 62
     7
 10
918.51797040702866
 20
166.70540564505899
 30
0.0
 40
33.599999999996733
  1
without notice or obligation.
  7
TITLE3
  0
TEXT
  5
3ACB
  8
0
 62
     7
 10
918.51797040702866
 20
224.3054056450533
 30
0.0
 40
33.599999999996733
  1
specifications at any time
  7
TITLE3
  0
TEXT
  5
3ACC
  8
0
 62
     7
 10
918.51797040702866
 20
281.90540564504778
 30
0.0
 40
33.599999999996733
  1
the right to change 
  7
TITLE3
  0
TEXT
  5
3ACD
  8
0
 62
     7
 10
918.51797040702866
 20
397.10540564503611
 30
0.0
 40
33.599999999996733
  1
NOTE
  7
TITLE3
  0
TEXT
  5
3ACE
  8
0
 62
     7
 10
918.51797040702866
 20
339.50540564504212
 30
0.0
 40
33.599999999996733
  1
The manufacturer reserves
  7
TITLE3
  0
TEXT
  5
4438
  8
0
 62
     7
 10
2564.0397805119551
 20
346.72214982266092
 30
0.0
 40
62.5
  1
temperzone ISD 86KY
 41
1.2023999541243089
  7
TITLE5
 72
     5
 11
3812.9611614327409
 21
346.72214982266092
 31
0.0
  0
TEXT
  5
4439
  8
0
 62
     7
 10
3315.000000000156
 20
87.5
 30
0.0
 40
37.5
  1
ISD 86KY
 41
1.399999999999999
  7
TITLE3
 72
     5
 11
3677.500000000156
 21
87.5
 31
0.0
  0
TEXT
  5
443A
  8
0
 62
     7
 10
2748.958007352584
 20
137.5
 30
0.0
 40
37.5
  1
14-10-11
 41
0.77241379310345
  7
TITLE3
 72
     5
 11
2948.9580073525849
 21
137.5
 31
0.0
  0
TEXT
  5
443B
  8
0
 62
     7
 10
2583.941228961347
 20
138.53901732512611
 30
0.0
 40
30.0
  1
Date
  7
SIMPLEX
  0
TEXT
  5
443C
  8
0
 62
     7
 10
3710.1389904671569
 20
161.879127529264
 30
0.0
 40
30.0
  1
Revision
 41
0.7812095035934841
  7
SIMPLEX
 72
     5
 11
3841.828592501487
 21
161.879127529264
 31
0.0
  0
LINE
  5
443D
  8
0
 62
     7
 10
3695.614187487854
 20
26.053116060396409
 30
0.0
 11
3695.614187487854
 21
210.3358196356829
 31
0.0
  0
LINE
  5
443E
  8
0
 62
     7
 10
2551.6894118215901
 20
433.29949611692632
 30
0.0
 11
2551.6894118215901
 21
26.053116060396409
 31
0.0
  0
LINE
  5
443F
  8
0
 62
     7
 10
3298.6420975165261
 20
26.053116060396409
 30
0.0
 11
3298.6420975165261
 21
210.3358196356829
 31
0.0
  0
LINE
  5
4440
  8
0
 62
     7
 10
3298.6420975165261
 20
116.6407490868297
 30
0.0
 11
2551.6894118215901
 21
116.6407490868297
 31
0.0
  0
LINE
  5
4441
  8
0
 62
     7
 10
3854.4693315474578
 20
210.3358196356829
 30
0.0
 11
2551.6894118215901
 21
210.3358196356829
 31
0.0
  0
LINE
  5
4442
  8
0
 62
     7
 10
2551.6894118215901
 20
26.053116060396409
 30
0.0
 11
3854.0974475745211
 21
26.053116060396409
 31
0.0
  0
LINE
  5
4443
  8
0
 62
     7
 10
3854.0974475745211
 20
26.053116060396409
 30
0.0
 11
3854.0974475745211
 21
433.29949611692632
 31
0.0
  0
LINE
  5
4444
  8
0
 62
     7
 10
3854.0974475745211
 20
433.29949611692632
 30
0.0
 11
2551.6894118215901
 21
433.29949611692632
 31
0.0
  0
TEXT
  5
4445
  8
0
 62
     7
 10
2583.1040238790438
 20
59.903110081697093
 30
0.0
 40
25.0
  1
Scale
 41
1.3701747965659681
  7
SIMPLEX
 72
     5
 11
2708.7033802309238
 21
59.903110081697093
 31
0.0
  0
TEXT
  5
4446
  8
0
 62
     7
 10
3371.0739045011542
 20
161.1167893833869
 30
0.0
 40
25.0
  1
Drawing No.
  7
SIMPLEX
 72
     2
 11
3588.9310473582959
 21
161.1167893833869
 31
0.0
  0
TEXT
  5
444B
  8
0
 62
     7
 10
2766.9599802419848
 20
58.608558680249381
 30
0.0
 40
37.5
  1
1:10
  7
TITLE3
  0
LINE
  5
5FC3
  8
0
 62
     7
 10
1698.562474516061
 20
2324.206208406431
 30
0.0
 11
1670.029872530675
 21
2292.0329757792429
 31
0.0
  0
LINE
  5
5FC4
  8
0
 62
     7
 10
1659.9798985531479
 20
2341.672009245443
 30
0.0
 11
1680.079846508203
 21
2341.672009245443
 31
0.0
  0
LINE
  5
5FC5
  8
0
 62
     7
 10
1680.079846508203
 20
2341.672009245443
 30
0.0
 11
1680.079846508203
 21
2324.2062084064291
 31
0.0
  0
LINE
  5
5FC6
  8
0
 62
     7
 10
1680.079846508203
 20
2324.2062084064291
 30
0.0
 11
1698.562474516061
 21
2324.206208406431
 31
0.0
  0
LINE
  5
5FC7
  8
0
 62
     7
 10
1641.4972705452919
 20
2324.206208406431
 30
0.0
 11
1670.029872530675
 21
2292.0329757792429
 31
0.0
  0
LINE
  5
5FC8
  8
0
 62
     7
 10
1659.9798985531479
 20
2341.672009245443
 30
0.0
 11
1659.9798985531479
 21
2324.2062084064291
 31
0.0
  0
LINE
  5
5FC9
  8
0
 62
     7
 10
1659.9798985531479
 20
2324.2062084064291
 30
0.0
 11
1641.4972705452919
 21
2324.206208406431
 31
0.0
  0
LINE
  5
5FCA
  8
0
 62
     7
 10
1699.562474516059
 20
1758.8422027783661
 30
0.0
 11
1671.029872530675
 21
1726.6689701511791
 31
0.0
  0
LINE
  5
5FCB
  8
0
 62
     7
 10
1660.979898553147
 20
1776.3080036173769
 30
0.0
 11
1681.079846508203
 21
1776.3080036173769
 31
0.0
  0
LINE
  5
5FCC
  8
0
 62
     7
 10
1681.079846508203
 20
1776.3080036173769
 30
0.0
 11
1681.079846508203
 21
1758.8422027783661
 31
0.0
  0
LINE
  5
5FCD
  8
0
 62
     7
 10
1681.079846508203
 20
1758.8422027783661
 30
0.0
 11
1699.562474516059
 21
1758.8422027783661
 31
0.0
  0
LINE
  5
5FCE
  8
0
 62
     7
 10
1642.4972705452899
 20
1758.8422027783661
 30
0.0
 11
1671.029872530675
 21
1726.6689701511791
 31
0.0
  0
LINE
  5
5FCF
  8
0
 62
     7
 10
1660.979898553147
 20
1776.3080036173769
 30
0.0
 11
1660.979898553147
 21
1758.8422027783661
 31
0.0
  0
LINE
  5
5FD0
  8
0
 62
     7
 10
1660.979898553147
 20
1758.8422027783661
 30
0.0
 11
1642.4972705452899
 21
1758.8422027783661
 31
0.0
  0
TEXT
  5
5FD1
  8
0
 62
     7
 10
2297.6741575999599
 20
1924.5196667207481
 30
0.0
 40
25.0
  1
ELECTRIC
  7
TITLE3
  0
TEXT
  5
5FD2
  8
0
 62
     7
 10
2297.6741575999599
 20
1882.85300005408
 30
0.0
 40
25.0
  1
BOX
  7
TITLE3
  0
SOLID
  5
5FD3
  8
0
 62
     7
 10
2207.918492676607
 20
1891.911272728785
 30
0.0
 11
2178.6514907389951
 21
1883.638268583748
 31
0.0
 12
2203.653356092399
 22
1900.956083943953
 32
0.0
 13
2203.653356092399
 23
1900.956083943953
 33
0.0
  0
LINE
  5
5FD4
  8
0
 62
     7
 10
2205.7859243845028
 20
1896.433678336371
 30
0.0
 11
2247.6741575999608
 21
1916.1863333874139
 31
0.0
  0
LINE
  5
5FD5
  8
0
 62
     7
 10
2247.6741575999608
 20
1916.1863333874139
 30
0.0
 11
2277.6741575999599
 21
1916.1863333874139
 31
0.0
  0
LINE
  5
5FD6
  8
0
 10
1219.9014907389951
 20
2375.6501991520772
 30
0.0
 11
2171.2014907389948
 21
2375.6501991520772
 31
0.0
  0
LINE
  5
5FD7
  8
0
 10
2171.2014907389948
 20
2375.6501991520772
 30
0.0
 11
2171.2014907389948
 21
2122.7001991520769
 31
0.0
  0
LINE
  5
5FD8
  8
0
 10
1199.9514907389951
 20
2122.7001991520769
 30
0.0
 11
2191.1514907389951
 21
2122.7001991520769
 31
0.0
  0
LINE
  5
5FD9
  8
0
 10
1219.9014907389951
 20
2375.6501991520772
 30
0.0
 11
1219.9014907389951
 21
2122.7001991520769
 31
0.0
  0
LINE
  5
5FDA
  8
0
 10
1265.051490738995
 20
2434.6501991520772
 30
0.0
 11
2102.0514907389952
 21
2434.6501991520772
 31
0.0
  0
LINE
  5
5FDB
  8
0
 10
1265.051490738995
 20
2434.6501991520772
 30
0.0
 11
1265.051490738995
 21
2375.6501991520772
 31
0.0
  0
LINE
  5
5FDC
  8
0
 10
2102.0514907389952
 20
2434.6501991520772
 30
0.0
 11
2102.0514907389952
 21
2375.6501991520772
 31
0.0
  0
LINE
  5
5FDD
  8
0
 10
1199.9514907389951
 20
2385.600199152077
 30
0.0
 11
1199.9514907389951
 21
2374.1501991520781
 31
0.0
  0
LINE
  5
5FDE
  8
0
 10
2191.1514907389951
 20
2385.600199152077
 30
0.0
 11
2191.1514907389951
 21
2374.1501991520781
 31
0.0
  0
LINE
  5
5FDF
  8
0
 10
1199.9514907389951
 20
2385.600199152077
 30
0.0
 11
1265.051490738995
 21
2385.600199152077
 31
0.0
  0
LINE
  5
5FE0
  8
0
 10
2102.0514907389952
 20
2385.600199152077
 30
0.0
 11
2191.1514907389951
 21
2385.600199152077
 31
0.0
  0
LINE
  5
5FE1
  8
0
 10
2219.1514907389951
 20
2352.100199152077
 30
0.0
 11
2219.1514907389951
 21
2334.100199152077
 31
0.0
  0
LINE
  5
5FE2
  8
0
 10
2200.7014907389948
 20
2351.100199152077
 30
0.0
 11
2203.1514907389951
 21
2351.100199152077
 31
0.0
  0
LINE
  5
5FE3
  8
0
 10
2171.2014907389948
 20
2335.100199152077
 30
0.0
 11
2203.1514907389951
 21
2335.100199152077
 31
0.0
  0
LINE
  5
5FE4
  8
0
 10
2203.1514907389951
 20
2352.100199152077
 30
0.0
 11
2203.1514907389951
 21
2347.850199152077
 31
0.0
  0
LINE
  5
5FE5
  8
0
 10
2203.1514907389951
 20
2352.100199152077
 30
0.0
 11
2219.1514907389951
 21
2352.100199152077
 31
0.0
  0
LINE
  5
5FE6
  8
0
 10
2203.1514907389951
 20
2334.100199152077
 30
0.0
 11
2219.1514907389951
 21
2334.100199152077
 31
0.0
  0
LINE
  5
5FE7
  8
0
 10
2191.1514907389951
 20
2335.100199152077
 30
0.0
 11
2191.1514907389951
 21
2160.7601991520769
 31
0.0
  0
LINE
  5
5FE8
  8
0
 10
2200.7014907389948
 20
2347.850199152077
 30
0.0
 11
2209.6514907389951
 21
2347.850199152077
 31
0.0
  0
LINE
  5
5FE9
  8
0
 10
2171.2014907389948
 20
2338.350199152077
 30
0.0
 11
2209.6514907389951
 21
2338.350199152077
 31
0.0
  0
LINE
  5
5FEA
  8
0
 10
2209.6514907389951
 20
2348.850199152077
 30
0.0
 11
2209.6514907389951
 21
2337.350199152077
 31
0.0
  0
LINE
  5
5FEB
  8
0
 10
2209.6514907389951
 20
2348.850199152077
 30
0.0
 11
2219.1514907389951
 21
2348.850199152077
 31
0.0
  0
LINE
  5
5FEC
  8
0
 10
2209.6514907389951
 20
2337.350199152077
 30
0.0
 11
2219.1514907389951
 21
2337.350199152077
 31
0.0
  0
LINE
  5
5FED
  8
0
 10
2203.1514907389951
 20
2338.350199152077
 30
0.0
 11
2203.1514907389951
 21
2334.100199152077
 31
0.0
  0
LINE
  5
5FEE
  8
0
 10
2219.1514907389951
 20
2262.1751991520769
 30
0.0
 11
2219.1514907389951
 21
2246.1751991520769
 31
0.0
  0
LINE
  5
5FEF
  8
0
 10
2191.1514907389951
 20
2262.1751991520791
 30
0.0
 11
2219.1514907389951
 21
2262.1751991520791
 31
0.0
  0
LINE
  5
5FF0
  8
0
 10
2191.1514907389951
 20
2246.1751991520791
 30
0.0
 11
2219.1514907389951
 21
2246.1751991520769
 31
0.0
  0
LINE
  5
5FF1
  8
0
 10
2171.2014907389948
 20
2160.7601991520769
 30
0.0
 11
2213.1454907389948
 21
2160.7601991520769
 31
0.0
  0
LINE
  5
5FF2
  8
0
 10
2171.2014907389948
 20
2140.760199152076
 30
0.0
 11
2213.1454907389948
 21
2140.7601991520769
 31
0.0
  0
LINE
  5
5FF3
  8
0
 10
2213.1454907389948
 20
2160.7601991520769
 30
0.0
 11
2213.1454907389948
 21
2140.7601991520769
 31
0.0
  0
LINE
  5
5FF4
  8
0
 10
2191.1514907389951
 20
2140.7601991520769
 30
0.0
 11
2191.1514907389951
 21
2122.7001991520769
 31
0.0
  0
LINE
  5
5FF5
  8
0
 10
2200.7014907389948
 20
2374.1501991520781
 30
0.0
 11
2200.7014907389948
 21
2346.1501991520772
 31
0.0
  0
LINE
  5
5FF6
  8
0
 10
2171.2014907389948
 20
2374.1501991520781
 30
0.0
 11
2200.7014907389948
 21
2374.1501991520781
 31
0.0
  0
LINE
  5
5FF7
  8
0
 10
2171.2014907389948
 20
2346.1501991520772
 30
0.0
 11
2200.7014907389948
 21
2346.1501991520772
 31
0.0
  0
POINT
  5
5FF8
  8
0
 10
2186.231490738995
 20
2360.1501991520772
 30
0.0
  0
LINE
  5
5FF9
  8
0
 10
1219.9014907389951
 20
2374.1501991520781
 30
0.0
 11
1190.4014907389951
 21
2374.1501991520781
 31
0.0
  0
LINE
  5
5FFA
  8
0
 10
1219.9014907389951
 20
2346.1501991520772
 30
0.0
 11
1190.4014907389951
 21
2346.1501991520772
 31
0.0
  0
LINE
  5
5FFB
  8
0
 10
1190.4014907389951
 20
2374.1501991520781
 30
0.0
 11
1190.4014907389951
 21
2346.1501991520772
 31
0.0
  0
POINT
  5
5FFC
  8
0
 10
1204.8714907389949
 20
2360.1501991520772
 30
0.0
 50
180.0
  0
LINE
  5
5FFD
  8
0
 10
1199.9514907389951
 20
2346.1501991520772
 30
0.0
 11
1199.9514907389951
 21
2122.7001991520769
 31
0.0
  0
LINE
  5
5FFE
  8
0
 10
2091.8414907389929
 20
2122.7001991520769
 30
0.0
 11
2091.8414907389952
 21
1697.488199152077
 31
0.0
  0
LINE
  5
5FFF
  8
0
 10
1249.351490738994
 20
1697.488199152077
 30
0.0
 11
2091.8414907389929
 21
1697.488199152077
 31
0.0
  0
LINE
  5
6000
  8
0
 10
1249.351490738994
 20
2122.7001991520769
 30
0.0
 11
1249.351490738994
 21
1697.488199152077
 31
0.0
  0
LINE
  5
6001
  8
0
 10
1255.301490738995
 20
1697.488199152077
 30
0.0
 11
1255.301490738995
 21
1650.6521991520769
 31
0.0
  0
LINE
  5
6002
  8
0
 10
1255.301490738995
 20
1650.6521991520769
 30
0.0
 11
2089.8914907389949
 21
1650.6521991520769
 31
0.0
  0
LINE
  5
6003
  8
0
 10
2089.8914907389949
 20
1697.488199152077
 30
0.0
 11
2089.8914907389949
 21
1650.6521991520769
 31
0.0
  0
LINE
  5
6004
  8
0
 10
2091.8414907389952
 20
1729.938199152077
 30
0.0
 11
2121.3414907389952
 21
1729.938199152077
 31
0.0
  0
LINE
  5
6005
  8
0
 10
2091.8414907389952
 20
1701.938199152077
 30
0.0
 11
2121.3414907389952
 21
1701.938199152077
 31
0.0
  0
LINE
  5
6006
  8
0
 10
2121.3414907389952
 20
1729.938199152077
 30
0.0
 11
2121.3414907389952
 21
1701.938199152077
 31
0.0
  0
POINT
  5
6007
  8
0
 10
2106.9224907389948
 20
1715.938199152077
 30
0.0
  0
LINE
  5
600C
  8
0
 10
2178.6514907389951
 20
2071.4801991520771
 30
0.0
 11
2178.6514907389951
 21
1738.938199152077
 31
0.0
  0
LINE
  5
600D
  8
0
 10
2091.8414907389929
 20
1738.938199152077
 30
0.0
 11
2178.6514907389951
 21
1738.938199152077
 31
0.0
  0
LINE
  5
600E
  8
0
 10
2091.8414907389929
 20
2071.4801991520771
 30
0.0
 11
2178.6514907389951
 21
2071.4801991520771
 31
0.0
  0
LINE
  5
600F
  8
0
 10
3544.1767591226721
 20
1044.162332160872
 30
0.0
 11
3544.1767591226721
 21
649.16233216087187
 31
0.0
  0
LINE
  5
6010
  8
0
 10
3291.22675912267
 20
1044.162332160872
 30
0.0
 11
3291.22675912267
 21
624.16233216087176
 31
0.0
  0
LINE
  5
6011
  8
0
 10
3554.126759122671
 20
624.16233216087187
 30
0.0
 11
3291.22675912267
 21
624.16233216087187
 31
0.0
  0
LINE
  5
6012
  8
0
 10
3544.1767591226721
 20
1044.162332160872
 30
0.0
 11
3542.6767591226721
 21
1044.162332160872
 31
0.0
  0
LINE
  5
6013
  8
0
 10
3554.126759122671
 20
649.16233216087232
 30
0.0
 11
3554.126759122671
 21
624.16233216087187
 31
0.0
  0
LINE
  5
6014
  8
0
 10
3554.126759122671
 20
649.16233216087187
 30
0.0
 11
3331.9867591226698
 21
649.16233216087187
 31
0.0
  0
LINE
  5
6015
  8
0
 10
3603.1767591226708
 20
1026.5423321608721
 30
0.0
 11
3603.1767591226708
 21
671.1623321608721
 31
0.0
  0
LINE
  5
6016
  8
0
 10
3603.1767591226708
 20
671.1623321608721
 30
0.0
 11
3544.1767591226721
 21
671.1623321608721
 31
0.0
  0
LINE
  5
6017
  8
0
 10
3603.1767591226708
 20
1026.5423321608721
 30
0.0
 11
3544.1767591226699
 21
1026.5423321608721
 31
0.0
  0
CIRCLE
  5
6018
  8
0
 10
3422.70175912267
 20
632.99833216087211
 30
0.0
 40
8.0
  0
ARC
  5
6019
  8
0
 10
3319.2867591226709
 20
649.16233216087187
 30
0.0
 40
12.699999999999999
 50
180.0
 51
0.0
  0
LINE
  5
601A
  8
0
 10
3306.586759122672
 20
649.16233216087187
 30
0.0
 11
3291.22675912267
 21
649.16233216087187
 31
0.0
  0
CIRCLE
  5
601B
  8
0
 10
3319.2867591226709
 20
649.82633216087231
 30
0.0
 40
10.0
  0
CIRCLE
  5
601C
  8
0
 10
3511.626759122672
 20
688.392332160872
 30
0.0
 40
9.0
  0
CIRCLE
  5
601D
  8
0
 10
3511.626759122672
 20
738.39233216087189
 30
0.0
 40
5.75
  0
LINE
  5
601E
  8
0
 10
3542.6767591226721
 20
1046.862332160872
 30
0.0
 11
3542.6767591226721
 21
959.76233216087235
 31
0.0
  0
LINE
  5
601F
  8
0
 10
3514.6767591226708
 20
1046.862332160872
 30
0.0
 11
3514.6767591226708
 21
959.76233216087235
 31
0.0
  0
LINE
  5
6020
  8
0
 10
3514.6767591226708
 20
959.76233216087235
 30
0.0
 11
3542.6767591226721
 21
959.76233216087235
 31
0.0
  0
LINE
  5
6021
  8
0
 10
3514.6767591226708
 20
1046.862332160872
 30
0.0
 11
3542.6767591226721
 21
1046.862332160872
 31
0.0
  0
LINE
  5
6022
  8
0
 10
3514.6767591226708
 20
1044.362332160872
 30
0.0
 11
3542.6767591226721
 21
1044.362332160872
 31
0.0
  0
LINE
  5
6023
  8
0
 10
3528.6767591226708
 20
1039.362332160872
 30
0.0
 11
3528.6767591226708
 21
1051.862332160872
 31
0.0
  0
LINE
  5
6024
  8
0
 10
3514.6767591226708
 20
1044.162332160872
 30
0.0
 11
3291.22675912267
 21
1044.162332160872
 31
0.0
  0
CIRCLE
  5
6025
  8
0
 10
3528.6767591226708
 20
968.26233216087235
 30
0.0
 40
7.8499999999999988
  0
CIRCLE
  5
6026
  8
0
 10
3528.6767591226708
 20
1018.262332160872
 30
0.0
 40
6.0
  0
CIRCLE
  5
6027
  8
0
 10
3528.6767591226708
 20
998.26233216087235
 30
0.0
 40
7.8499999999999988
  0
LINE
  5
6028
  8
0
 10
3291.22675912267
 20
635.11233216087226
 30
0.0
 11
2866.014759122671
 21
635.11233216087226
 31
0.0
  0
LINE
  5
6029
  8
0
 10
2866.014759122671
 20
1033.2123321608719
 30
0.0
 11
2866.014759122671
 21
635.11233216087226
 31
0.0
  0
LINE
  5
602A
  8
0
 10
3291.22675912267
 20
1033.2123321608719
 30
0.0
 11
2898.4647591226721
 21
1033.2123321608719
 31
0.0
  0
LINE
  5
602B
  8
0
 10
2866.014759122671
 20
641.06233216087207
 30
0.0
 11
2819.1787591226721
 21
641.06233216087207
 31
0.0
  0
LINE
  5
602C
  8
0
 10
2819.1787591226721
 20
903.05533216087235
 30
0.0
 11
2819.1787591226721
 21
641.06233216087207
 31
0.0
  0
LINE
  5
602D
  8
0
 10
2866.014759122671
 20
903.05533216087235
 30
0.0
 11
2819.1787591226721
 21
903.05533216087235
 31
0.0
  0
LINE
  5
602E
  8
0
 10
2907.4647591226731
 20
1028.477332160872
 30
0.0
 11
2907.464759122669
 21
639.88733216087212
 31
0.0
  0
LINE
  5
602F
  8
0
 10
3240.0067591226712
 20
1028.477332160872
 30
0.0
 11
3240.0067591226712
 21
639.88733216087212
 31
0.0
  0
LINE
  5
6030
  8
0
 10
3240.0067591226712
 20
639.88733216087212
 30
0.0
 11
2907.464759122669
 21
639.88733216087212
 31
0.0
  0
LINE
  5
6031
  8
0
 10
3240.0067591226712
 20
1028.477332160872
 30
0.0
 11
2907.4647591226731
 21
1028.477332160872
 31
0.0
  0
LINE
  5
6032
  8
0
 10
2899.9647591226721
 20
1044.162332160872
 30
0.0
 11
2898.4647591226721
 21
1044.162332160872
 31
0.0
  0
LINE
  5
6033
  8
0
 10
2898.4647591226721
 20
1046.862332160872
 30
0.0
 11
2898.4647591226721
 21
959.76233216087235
 31
0.0
  0
LINE
  5
6034
  8
0
 10
2870.4647591226708
 20
1046.862332160872
 30
0.0
 11
2870.4647591226708
 21
959.76233216087235
 31
0.0
  0
LINE
  5
6035
  8
0
 10
2870.4647591226708
 20
959.76233216087235
 30
0.0
 11
2898.4647591226721
 21
959.76233216087235
 31
0.0
  0
LINE
  5
6036
  8
0
 10
2870.4647591226708
 20
1046.862332160872
 30
0.0
 11
2898.4647591226721
 21
1046.862332160872
 31
0.0
  0
LINE
  5
6037
  8
0
 10
2870.4647591226708
 20
1044.362332160872
 30
0.0
 11
2898.4647591226721
 21
1044.362332160872
 31
0.0
  0
LINE
  5
6038
  8
0
 10
2884.4647591226721
 20
1039.362332160872
 30
0.0
 11
2884.4647591226721
 21
1051.862332160872
 31
0.0
  0
CIRCLE
  5
6039
  8
0
 10
2884.4647591226721
 20
968.26233216087235
 30
0.0
 40
7.8499999999999988
  0
CIRCLE
  5
603A
  8
0
 10
2884.4647591226721
 20
1018.262332160872
 30
0.0
 40
6.0
  0
CIRCLE
  5
603B
  8
0
 10
2884.4647591226721
 20
998.26233216087235
 30
0.0
 40
7.8499999999999988
  0
LINE
  5
603C
  8
0
 10
2870.4647591226708
 20
1033.2123321608719
 30
0.0
 11
2866.014759122671
 21
1033.2123321608719
 31
0.0
  0
LINE
  5
603D
  8
0
 10
2191.1514907389951
 20
624.16233216087187
 30
0.0
 11
1199.9514907389951
 21
624.16233216087187
 31
0.0
  0
LINE
  5
603E
  8
0
 10
2171.2014907389948
 20
1044.162332160872
 30
0.0
 11
2094.3414907389952
 21
1044.162332160872
 31
0.0
  0
LINE
  5
603F
  8
0
 10
2171.2014907389948
 20
1046.862332160872
 30
0.0
 11
2171.2014907389948
 21
1028.477332160872
 31
0.0
  0
LINE
  5
6040
  8
0
 10
1199.9514907389951
 20
649.16233216087187
 30
0.0
 11
1199.9514907389951
 21
624.16233216087187
 31
0.0
  0
LINE
  5
6041
  8
0
 10
2191.1514907389951
 20
639.88733216087212
 30
0.0
 11
2191.1514907389951
 21
624.16233216087187
 31
0.0
  0
LINE
  5
6042
  8
0
 10
1219.9014907389951
 20
1046.862332160872
 30
0.0
 11
1219.9014907389951
 21
624.16233216087187
 31
0.0
  0
LINE
  5
6043
  8
0
 10
1219.9014907389951
 20
649.16233216087187
 30
0.0
 11
1199.9514907389951
 21
649.16233216087187
 31
0.0
  0
LINE
  5
6044
  8
0
 10
2178.6514907389951
 20
680.39233216087155
 30
0.0
 11
2203.1514907389951
 21
680.39233216087155
 31
0.0
  0
LINE
  5
6045
  8
0
 10
2203.1514907389951
 20
679.392332160872
 30
0.0
 11
2219.1514907389951
 21
679.392332160872
 31
0.0
  0
LINE
  5
6046
  8
0
 10
2178.6514907389951
 20
696.392332160872
 30
0.0
 11
2203.1514907389951
 21
696.39233216087212
 31
0.0
  0
LINE
  5
6047
  8
0
 10
2203.1514907389951
 20
697.392332160872
 30
0.0
 11
2219.1514907389951
 21
697.392332160872
 31
0.0
  0
LINE
  5
6048
  8
0
 10
2219.1514907389951
 20
697.392332160872
 30
0.0
 11
2219.1514907389951
 21
679.392332160872
 31
0.0
  0
LINE
  5
6049
  8
0
 10
2203.1514907389951
 20
697.392332160872
 30
0.0
 11
2203.1514907389951
 21
679.392332160872
 31
0.0
  0
LINE
  5
604A
  8
0
 10
2178.6514907389951
 20
733.64233216087177
 30
0.0
 11
2209.6514907389951
 21
733.64233216087246
 31
0.0
  0
LINE
  5
604B
  8
0
 10
2209.6514907389951
 20
732.64233216087166
 30
0.0
 11
2219.1514907389951
 21
732.64233216087166
 31
0.0
  0
LINE
  5
604C
  8
0
 10
2178.6514907389951
 20
743.14233216087166
 30
0.0
 11
2209.6514907389951
 21
743.14233216087246
 31
0.0
  0
LINE
  5
604D
  8
0
 10
2209.6514907389951
 20
744.142332160872
 30
0.0
 11
2219.1514907389951
 21
744.142332160872
 31
0.0
  0
LINE
  5
604E
  8
0
 10
2209.6514907389951
 20
744.142332160872
 30
0.0
 11
2209.6514907389951
 21
732.64233216087166
 31
0.0
  0
LINE
  5
604F
  8
0
 10
2219.1514907389951
 20
744.142332160872
 30
0.0
 11
2219.1514907389951
 21
732.64233216087166
 31
0.0
  0
LINE
  5
6050
  8
0
 10
2191.1514907389951
 20
624.99833216087245
 30
0.0
 11
2219.1514907389951
 21
624.99833216087211
 31
0.0
  0
LINE
  5
6051
  8
0
 10
2213.1454907389948
 20
640.99833216087245
 30
0.0
 11
2219.1514907389951
 21
640.99833216087245
 31
0.0
  0
LINE
  5
6052
  8
0
 10
2219.1514907389951
 20
640.99833216087211
 30
0.0
 11
2219.1514907389951
 21
624.998332160872
 31
0.0
  0
LINE
  5
6053
  8
0
 10
2191.1514907389951
 20
639.16233216087187
 30
0.0
 11
2213.1454907389948
 21
639.1623321608721
 31
0.0
  0
LINE
  5
6054
  8
0
 10
2178.6514907389951
 20
659.1623321608721
 30
0.0
 11
2213.1454907389948
 21
659.1623321608721
 31
0.0
  0
LINE
  5
6055
  8
0
 10
2213.1454907389948
 20
659.1623321608721
 30
0.0
 11
2213.1454907389948
 21
639.1623321608721
 31
0.0
  0
LINE
  5
6056
  8
0
 10
2173.7014907389948
 20
1044.362332160872
 30
0.0
 11
2173.7014907389948
 21
1028.477332160872
 31
0.0
  0
LINE
  5
6057
  8
0
 10
2171.2014907389948
 20
1046.862332160872
 30
0.0
 11
2200.7014907389948
 21
1046.862332160872
 31
0.0
  0
LINE
  5
6058
  8
0
 10
2173.7014907389948
 20
1044.362332160872
 30
0.0
 11
2200.7014907389948
 21
1044.362332160872
 31
0.0
  0
LINE
  5
6059
  8
0
 10
2200.7014907389948
 20
1046.862332160872
 30
0.0
 11
2200.7014907389948
 21
1044.362332160872
 31
0.0
  0
LINE
  5
605A
  8
0
 10
2186.231490738995
 20
1051.862332160872
 30
0.0
 11
2186.231490738995
 21
1039.362332160872
 31
0.0
  0
LINE
  5
605B
  8
0
 10
1217.401490738996
 20
1044.362332160872
 30
0.0
 11
1217.401490738996
 21
959.76233216087235
 31
0.0
  0
LINE
  5
605C
  8
0
 10
1219.9014907389951
 20
1046.862332160872
 30
0.0
 11
1190.4014907389951
 21
1046.862332160872
 31
0.0
  0
LINE
  5
605D
  8
0
 10
1217.401490738996
 20
1044.362332160872
 30
0.0
 11
1190.4014907389951
 21
1044.362332160872
 31
0.0
  0
LINE
  5
605E
  8
0
 10
1219.9014907389951
 20
959.76233216087235
 30
0.0
 11
1217.401490738996
 21
959.76233216087235
 31
0.0
  0
LINE
  5
605F
  8
0
 10
1190.4014907389951
 20
1046.862332160872
 30
0.0
 11
1190.4014907389951
 21
1044.362332160872
 31
0.0
  0
LINE
  5
6060
  8
0
 10
1204.8714907389949
 20
1051.862332160872
 30
0.0
 11
1204.8714907389949
 21
1039.362332160872
 31
0.0
  0
LINE
  5
6061
  8
0
 10
2091.8414907389929
 20
1033.2123321608719
 30
0.0
 11
2091.8414907389952
 21
635.11233216087226
 31
0.0
  0
LINE
  5
6062
  8
0
 10
1249.351490738994
 20
1033.2123321608719
 30
0.0
 11
1249.351490738994
 21
635.11233216087226
 31
0.0
  0
LINE
  5
6063
  8
0
 10
2091.8414907389952
 20
635.11233216087226
 30
0.0
 11
1249.351490738994
 21
635.11233216087226
 31
0.0
  0
LINE
  5
6064
  8
0
 10
2091.8414907389929
 20
1033.2123321608719
 30
0.0
 11
1249.351490738994
 21
1033.2123321608719
 31
0.0
  0
LINE
  5
6065
  8
0
 10
2089.8914907389949
 20
641.06233216087207
 30
0.0
 11
1255.301490738995
 21
641.06233216087207
 31
0.0
  0
LINE
  5
6066
  8
0
 10
2089.8914907389949
 20
903.05533216087235
 30
0.0
 11
1255.301490738995
 21
903.05533216087235
 31
0.0
  0
LINE
  5
6067
  8
0
 10
1255.301490738995
 20
903.05533216087235
 30
0.0
 11
1255.301490738995
 21
641.06233216087207
 31
0.0
  0
LINE
  5
6068
  8
0
 10
2089.8914907389949
 20
903.05533216087235
 30
0.0
 11
2089.8914907389949
 21
641.06233216087207
 31
0.0
  0
LINE
  5
6069
  8
0
 10
2191.1514907389951
 20
639.88733216087212
 30
0.0
 11
2090.8414907389952
 21
639.88733216087212
 31
0.0
  0
LINE
  5
606A
  8
0
 10
2178.6514907389951
 20
1028.477332160872
 30
0.0
 11
2094.3414907389952
 21
1028.477332160872
 31
0.0
  0
LINE
  5
606C
  8
0
 10
2171.2014907389948
 20
639.88733216087212
 30
0.0
 11
2171.2014907389948
 21
624.16233216087187
 31
0.0
  0
LINE
  5
6075
  8
0
 10
2091.8414907389929
 20
1046.862332160872
 30
0.0
 11
2091.8414907389929
 21
959.76233216087235
 31
0.0
  0
LINE
  5
6076
  8
0
 10
2094.3414907389952
 20
1044.362332160872
 30
0.0
 11
2094.3414907389952
 21
959.76233216087223
 31
0.0
  0
LINE
  5
6077
  8
0
 10
2091.8414907389929
 20
1046.862332160872
 30
0.0
 11
2121.3414907389952
 21
1046.862332160872
 31
0.0
  0
LINE
  5
6078
  8
0
 10
2094.3414907389952
 20
1044.362332160872
 30
0.0
 11
2121.3414907389952
 21
1044.362332160872
 31
0.0
  0
LINE
  5
6079
  8
0
 10
2121.3414907389952
 20
1046.862332160872
 30
0.0
 11
2121.3414907389952
 21
1044.362332160872
 31
0.0
  0
LINE
  5
607A
  8
0
 10
2091.8414907389929
 20
959.76233216087235
 30
0.0
 11
2094.3414907389952
 21
959.76233216087223
 31
0.0
  0
LINE
  5
607B
  8
0
 10
2106.9224907389948
 20
1051.862332160872
 30
0.0
 11
2106.9224907389948
 21
1039.362332160872
 31
0.0
  0
LINE
  5
607C
  8
0
 10
2091.8414907389929
 20
1044.162332160872
 30
0.0
 11
1219.9014907389951
 21
1044.162332160872
 31
0.0
  0
ARC
  5
60AA
  8
0
  6
HIDDEN
 62
     7
 10
2193.7014907389948
 20
958.76233216087007
 30
0.0
 40
22.5
 50
180.0
 51
270.0
  0
ARC
  5
60AB
  8
0
  6
HIDDEN
 62
     7
 10
2193.7014907389948
 20
958.76233216087007
 30
0.0
 40
10.0
 50
180.0
 51
270.0
  0
LINE
  5
60AC
  8
0
  6
HIDDEN
 62
     7
 10
2193.7014907389948
 20
948.76233216087007
 30
0.0
 11
2236.2014907389962
 21
948.76233216087007
 31
0.0
  0
LINE
  5
60AD
  8
0
  6
HIDDEN
 62
     7
 10
2200.7014907389948
 20
929.26233216087201
 30
0.0
 11
2235.7014907389948
 21
929.26233216087201
 31
0.0
  0
LINE
  5
60AE
  8
0
  6
HIDDEN
 62
     7
 10
2193.7014907389948
 20
936.26233216087212
 30
0.0
 11
2236.2014907389962
 21
936.26233216087212
 31
0.0
  0
LINE
  5
60AF
  8
0
  6
HIDDEN
 62
     7
 10
2236.2014907389962
 20
936.26233216087212
 30
0.0
 11
2236.2014907389962
 21
948.76233216087007
 31
0.0
  0
LINE
  5
60B0
  8
0
  6
HIDDEN
 62
     7
 10
2235.7014907389948
 20
929.26233216087007
 30
0.0
 11
2235.7014907389948
 21
932.26233216087201
 31
0.0
  0
ARC
  5
60B1
  8
0
  6
HIDDEN
 62
     7
 10
2231.7014907389948
 20
932.26233216087201
 30
0.0
 40
4.0
 50
0.000000000000007
 51
90.0
  0
LINE
  5
60B2
  8
0
  6
HIDDEN
 62
     7
 10
2218.2014907389962
 20
929.26233216087201
 30
0.0
 11
2218.2014907389962
 21
938.93453320645767
 31
0.0
  0
LINE
  5
60B3
  8
0
  6
HIDDEN
 62
     7
 10
2200.7014907389948
 20
929.26233216087007
 30
0.0
 11
2200.7014907389948
 21
932.26233216087201
 31
0.0
  0
ARC
  5
60B4
  8
0
  6
HIDDEN
 62
     7
 10
2204.7014907389948
 20
932.26233216087201
 30
0.0
 40
4.0
 50
90.0
 51
180.0
  0
LINE
  5
60B5
  8
0
  6
HIDDEN
 62
     7
 10
2171.2014907389948
 20
1006.26233216087
 30
0.0
 11
2183.7014907389948
 21
1006.26233216087
 31
0.0
  0
LINE
  5
60B6
  8
0
  6
HIDDEN
 62
     7
 10
2183.7014907389948
 20
958.76233216087007
 30
0.0
 11
2183.7014907389948
 21
1006.26233216087
 31
0.0
  0
LINE
  5
60B7
  8
0
  6
HIDDEN
 62
     7
 10
2171.2014907389948
 20
958.76233216087007
 30
0.0
 11
2171.2014907389948
 21
1006.26233216087
 31
0.0
  0
POINT
  5
60B8
  8
0
  6
HIDDEN
 62
     7
 10
2218.2014907389962
 20
936.26233216087212
 30
0.0
 50
180.0
  0
TEXT
  5
60B9
  8
0
 10
1541.8889644929341
 20
758.7444947434517
 30
0.0
 40
37.5
  1
ISD86KY
  7
TITLE3
  0
TEXT
  5
60BA
  8
0
 10
1531.329026627436
 20
1908.321484178045
 30
0.0
 40
37.5
  1
ISD86KY
  7
TITLE3
  0
TEXT
  5
60BB
  8
0
 10
2968.1958268028538
 20
900.24687402189466
 30
0.0
 40
37.5
  1
ISD86KY
  7
TITLE3
  0
LINE
  5
60BC
  8
0
 62
     7
 10
1265.051490738995
 20
2454.6501991520781
 30
0.0
 11
1265.051490738995
 21
2520.280023042938
 31
0.0
  0
LINE
  5
60BD
  8
0
 62
     7
 10
1295.051490738995
 20
2500.2800230429361
 30
0.0
 11
1639.2045112492569
 21
2500.2800230429361
 31
0.0
  0
SOLID
  5
60BE
  8
0
 62
     7
 10
1295.051490738995
 20
2505.280023042938
 30
0.0
 11
1295.051490738995
 21
2495.280023042937
 31
0.0
 12
1265.051490738995
 22
2500.2800230429361
 32
0.0
 13
1265.051490738995
 23
2500.2800230429361
 33
0.0
  0
LINE
  5
60BF
  8
0
 62
     7
 10
2102.0514907389952
 20
2454.6501991520781
 30
0.0
 11
2102.0514907389952
 21
2520.280023042938
 31
0.0
  0
LINE
  5
60C0
  8
0
 62
     7
 10
2072.0514907389961
 20
2500.2800230429361
 30
0.0
 11
1718.371177915923
 21
2500.2800230429361
 31
0.0
  0
SOLID
  5
60C1
  8
0
 62
     7
 10
2072.0514907389961
 20
2505.280023042938
 30
0.0
 11
2072.0514907389961
 21
2495.280023042937
 31
0.0
 12
2102.0514907389952
 22
2500.2800230429361
 32
0.0
 13
2102.0514907389952
 23
2500.2800230429361
 33
0.0
  0
TEXT
  5
60C2
  8
0
 62
     7
 10
1645.455335194946
 20
2488.180023042938
 30
0.0
 40
25.0
  1
837
  0
LINE
  5
60C3
  8
0
 62
     7
 10
1255.301490738995
 20
1630.6521991520769
 30
0.0
 11
1255.301490738995
 21
1562.0439384885631
 31
0.0
  0
LINE
  5
60C4
  8
0
 62
     7
 10
1285.301490738995
 20
1582.043938488564
 30
0.0
 11
1632.326220667414
 21
1582.043938488564
 31
0.0
  0
SOLID
  5
60C5
  8
0
 62
     7
 10
1285.301490738995
 20
1587.043938488564
 30
0.0
 11
1285.301490738995
 21
1577.0439384885649
 31
0.0
 12
1255.301490738995
 22
1582.043938488564
 32
0.0
 13
1255.301490738995
 23
1582.043938488564
 33
0.0
  0
LINE
  5
60C6
  8
0
 62
     7
 10
2088.8914907389949
 20
1630.6521991520769
 30
0.0
 11
2088.8914907389949
 21
1562.0439384885631
 31
0.0
  0
LINE
  5
60C7
  8
0
 62
     7
 10
2058.891490738994
 20
1582.043938488564
 30
0.0
 11
1711.4928873340809
 21
1582.043938488564
 31
0.0
  0
SOLID
  5
60C8
  8
0
 62
     7
 10
2058.891490738994
 20
1587.043938488564
 30
0.0
 11
2058.891490738994
 21
1577.0439384885649
 31
0.0
 12
2088.8914907389949
 22
1582.043938488564
 32
0.0
 13
2088.8914907389949
 23
1582.043938488564
 33
0.0
  0
TEXT
  5
60C9
  8
0
 62
     7
 10
1638.577044613103
 20
1569.3439384885639
 30
0.0
 40
25.0
  1
835
  0
LINE
  5
60CA
  8
0
 62
     7
 10
2954.6531800335611
 20
742.83141917514513
 30
0.0
 11
2922.479947406373
 21
771.36402116053034
 31
0.0
  0
LINE
  5
60CB
  8
0
 62
     7
 10
2972.1189808725721
 20
781.41399513805663
 30
0.0
 11
2972.1189808725721
 21
761.31404718300109
 31
0.0
  0
LINE
  5
60CC
  8
0
 62
     7
 10
2972.1189808725721
 20
761.31404718300109
 30
0.0
 11
2954.6531800335611
 21
761.31404718300109
 31
0.0
  0
LINE
  5
60CD
  8
0
 62
     7
 10
2954.6531800335611
 20
761.31404718300109
 30
0.0
 11
2954.6531800335611
 21
742.83141917514513
 31
0.0
  0
LINE
  5
60CE
  8
0
 62
     7
 10
2954.6531800335611
 20
799.89662314591351
 30
0.0
 11
2922.479947406373
 21
771.36402116053034
 31
0.0
  0
LINE
  5
60CF
  8
0
 62
     7
 10
2972.1189808725721
 20
781.41399513805663
 30
0.0
 11
2954.6531800335611
 21
781.41399513805663
 31
0.0
  0
LINE
  5
60D0
  8
0
 62
     7
 10
2954.6531800335611
 20
781.41399513805663
 30
0.0
 11
2954.6531800335611
 21
799.89662314591351
 31
0.0
  0
LINE
  5
60D1
  8
0
 62
     7
 10
3509.6601772181812
 20
819.93655950172251
 30
0.0
 11
3477.4869445909958
 21
848.46916148710784
 31
0.0
  0
LINE
  5
60D2
  8
0
 62
     7
 10
3527.1259780571932
 20
858.51913546463379
 30
0.0
 11
3527.1259780571932
 21
838.41918750957848
 31
0.0
  0
LINE
  5
60D3
  8
0
 62
     7
 10
3527.1259780571932
 20
838.41918750957848
 30
0.0
 11
3509.6601772181812
 21
838.41918750957848
 31
0.0
  0
LINE
  5
60D4
  8
0
 62
     7
 10
3509.6601772181812
 20
838.41918750957848
 30
0.0
 11
3509.6601772181812
 21
819.93655950172251
 31
0.0
  0
LINE
  5
60D5
  8
0
 62
     7
 10
3509.6601772181812
 20
877.00176347249078
 30
0.0
 11
3477.4869445909958
 21
848.46916148710784
 31
0.0
  0
LINE
  5
60D6
  8
0
 62
     7
 10
3527.1259780571932
 20
858.51913546463379
 30
0.0
 11
3509.6601772181812
 21
858.51913546463379
 31
0.0
  0
LINE
  5
60D7
  8
0
 62
     7
 10
3509.6601772181812
 20
858.51913546463379
 30
0.0
 11
3509.6601772181812
 21
877.00176347249078
 31
0.0
  0
LINE
  5
60D8
  8
0
 62
     7
 10
2799.1787591226712
 20
903.05533216087235
 30
0.0
 11
2735.6406716234992
 21
903.05533216087235
 31
0.0
  0
LINE
  5
60D9
  8
0
 62
     7
 10
2755.6406716235001
 20
873.05533216087224
 30
0.0
 11
2755.640671623496
 21
812.65912758561763
 31
0.0
  0
SOLID
  5
60DA
  8
0
 62
     7
 10
2750.6406716234992
 20
873.05533216087224
 30
0.0
 11
2760.6406716234992
 21
873.05533216087224
 31
0.0
 12
2755.6406716235001
 22
903.05533216087235
 32
0.0
 13
2755.6406716235001
 23
903.05533216087235
 33
0.0
  0
TEXT
  5
60DB
  8
0
 62
     7
 10
2768.1406716234992
 20
739.74328486464037
 30
0.0
 40
25.0
  1
262
 50
90.0
  0
LINE
  5
60DC
  8
0
 62
     7
 10
2799.1787591226712
 20
641.06233216087207
 30
0.0
 11
2735.6406716234992
 21
641.06233216087207
 31
0.0
  0
LINE
  5
60DD
  8
0
 62
     7
 10
2755.6406716234978
 20
671.06233216087196
 30
0.0
 11
2755.6406716234978
 21
733.49246091895145
 31
0.0
  0
SOLID
  5
60DE
  8
0
 62
     7
 10
2750.6406716234992
 20
671.06233216087196
 30
0.0
 11
2760.6406716234992
 21
671.06233216087196
 31
0.0
 12
2755.6406716234978
 22
641.06233216087207
 32
0.0
 13
2755.6406716234978
 23
641.06233216087207
 33
0.0
  0
LINE
  5
60DF
  8
0
 62
     7
 10
3623.1767591226708
 20
1026.5423321608721
 30
0.0
 11
3689.7825859593008
 21
1026.5423321608721
 31
0.0
  0
LINE
  5
60E0
  8
0
 62
     7
 10
3669.7825859593031
 20
996.54233216087232
 30
0.0
 11
3669.7825859592999
 21
885.79960987752565
 31
0.0
  0
SOLID
  5
60E1
  8
0
 62
     7
 10
3664.7825859592999
 20
996.54233216087232
 30
0.0
 11
3674.7825859593031
 21
996.54233216087232
 31
0.0
 12
3669.7825859593031
 22
1026.5423321608721
 32
0.0
 13
3669.7825859593031
 23
1026.5423321608721
 33
0.0
  0
TEXT
  5
60E2
  8
0
 62
     7
 10
3682.2825859592999
 20
812.88376715654772
 30
0.0
 40
25.0
  1
355
 50
90.0
  0
LINE
  5
60E3
  8
0
 62
     7
 10
3623.1767591226721
 20
671.16233216087312
 30
0.0
 11
3689.7825859593022
 21
671.16233216087312
 31
0.0
  0
LINE
  5
60E4
  8
0
 62
     7
 10
3669.7825859593031
 20
701.16233216087301
 30
0.0
 11
3669.7825859593031
 21
806.6329432108588
 31
0.0
  0
SOLID
  5
60E5
  8
0
 62
     7
 10
3664.7825859593008
 20
701.16233216087301
 30
0.0
 11
3674.7825859593031
 21
701.16233216087301
 31
0.0
 12
3669.7825859593031
 22
671.16233216087312
 32
0.0
 13
3669.7825859593031
 23
671.16233216087312
 33
0.0
  0
LINE
  5
60E6
  8
0
 62
     7
 10
3562.6767591226708
 20
1046.862332160872
 30
0.0
 11
3731.831151877896
 21
1046.862332160872
 31
0.0
  0
LINE
  5
60E7
  8
0
 62
     7
 10
3711.8311518778969
 20
1016.862332160872
 30
0.0
 11
3711.8311518778942
 21
926.08841044381347
 31
0.0
  0
SOLID
  5
60E8
  8
0
 62
     7
 10
3706.831151877896
 20
1016.862332160872
 30
0.0
 11
3716.8311518778969
 21
1016.862332160872
 31
0.0
 12
3711.8311518778969
 22
1046.862332160872
 32
0.0
 13
3711.8311518778969
 23
1046.862332160872
 33
0.0
  0
LINE
  5
60E9
  8
0
 62
     7
 10
3574.126759122672
 20
624.16233216087187
 30
0.0
 11
3731.831151877896
 21
624.16233216087187
 31
0.0
  0
LINE
  5
60EA
  8
0
 62
     7
 10
3711.8311518778969
 20
654.1623321608721
 30
0.0
 11
3711.8311518778969
 21
746.92174377714684
 31
0.0
  0
SOLID
  5
60EB
  8
0
 62
     7
 10
3706.831151877896
 20
654.1623321608721
 30
0.0
 11
3716.8311518778969
 21
654.1623321608721
 31
0.0
 12
3711.8311518778969
 22
624.16233216087187
 32
0.0
 13
3711.8311518778969
 23
624.16233216087187
 33
0.0
  0
TEXT
  5
60EC
  8
0
 62
     7
 10
3724.3311518778978
 20
753.17256772283599
 30
0.0
 40
25.0
  1
423 O/A
 50
90.0
  0
LINE
  5
60ED
  8
0
  6
PHANTOM
 62
     7
 10
2691.1514907389951
 20
1400.6521991520769
 30
0.0
 11
2691.1514907389951
 21
2385.600199152077
 31
0.0
  0
LINE
  5
60EE
  8
0
  6
PHANTOM
 62
     7
 10
2691.1514907389951
 20
2385.600199152077
 30
0.0
 11
2204.7304959263838
 21
2385.600199152077
 31
0.0
  0
TEXT
  5
60EF
  8
0
 62
     7
 10
2732.4412413811901
 20
1690.6826100265141
 30
0.0
 40
25.0
  1
500 mm CLEARENCE
 50
90.0
  7
TITLE3
  0
LINE
  5
60F0
  8
0
  6
PHANTOM
 62
     7
 10
2088.8914907389949
 20
1400.6521991520769
 30
0.0
 11
2691.1514907389951
 21
1400.6521991520769
 31
0.0
  0
LINE
  5
60F1
  8
0
  6
PHANTOM
 62
     7
 10
2088.8914907389949
 20
1400.6521991520769
 30
0.0
 11
2088.8914907389949
 21
1548.4649333011739
 31
0.0
  0
TEXT
  5
60F2
  8
0
 62
     7
 10
2201.108153025797
 20
1358.255303204239
 30
0.0
 40
25.0
  1
250 mm CLEARENCE
  7
TITLE3
  0
LINE
  5
60F3
  8
0
 62
     7
 10
1199.9514907389951
 20
604.1623321608721
 30
0.0
 11
1199.9514907389951
 21
516.25069834741305
 31
0.0
  0
LINE
  5
60F4
  8
0
 62
     7
 10
1229.9514907389951
 20
536.25069834741316
 30
0.0
 11
1668.1548781959809
 21
536.25069834741328
 31
0.0
  0
SOLID
  5
60F5
  8
0
 62
     7
 10
1229.9514907389951
 20
541.25069834741305
 30
0.0
 11
1229.9514907389951
 21
531.25069834741305
 31
0.0
 12
1199.9514907389951
 22
536.25069834741316
 32
0.0
 13
1199.9514907389951
 23
536.25069834741316
 33
0.0
  0
LINE
  5
60F6
  8
0
 62
     7
 10
2219.1514907389951
 20
604.1623321608721
 30
0.0
 11
2219.1514907389951
 21
516.25069834741305
 31
0.0
  0
LINE
  5
60F7
  8
0
 62
     7
 10
2189.1514907389951
 20
536.25069834741316
 30
0.0
 11
1847.3215448626479
 21
536.25069834741328
 31
0.0
  0
SOLID
  5
60F8
  8
0
 62
     7
 10
2189.1514907389951
 20
541.25069834741305
 30
0.0
 11
2189.1514907389951
 21
531.25069834741305
 31
0.0
 12
2219.1514907389951
 22
536.25069834741316
 32
0.0
 13
2219.1514907389951
 23
536.25069834741316
 33
0.0
  0
TEXT
  5
60F9
  8
0
 62
     7
 10
1674.40570214167
 20
523.75069834741225
 30
0.0
 40
25.0
  1
1019 O/A
  0
LINE
  5
60FA
  8
0
 62
     7
 10
2819.1787591226721
 20
621.06233216087196
 30
0.0
 11
2819.1787591226721
 21
516.25069834741305
 31
0.0
  0
LINE
  5
60FB
  8
0
 62
     7
 10
2849.1787591226712
 20
536.25069834741316
 30
0.0
 11
3126.8243028975198
 21
536.25069834741328
 31
0.0
  0
SOLID
  5
60FC
  8
0
 62
     7
 10
2849.1787591226712
 20
541.25069834741305
 30
0.0
 11
2849.1787591226712
 21
531.25069834741305
 31
0.0
 12
2819.1787591226721
 22
536.25069834741316
 32
0.0
 13
2819.1787591226721
 23
536.25069834741316
 33
0.0
  0
LINE
  5
60FD
  8
0
 62
     7
 10
3603.1767591226708
 20
650.32633216087231
 30
0.0
 11
3603.1767591226708
 21
516.25069834741305
 31
0.0
  0
LINE
  5
60FE
  8
0
 62
     7
 10
3573.1767591226721
 20
536.25069834741316
 30
0.0
 11
3305.9909695641859
 21
536.25069834741328
 31
0.0
  0
SOLID
  5
60FF
  8
0
 62
     7
 10
3573.1767591226721
 20
541.25069834741305
 30
0.0
 11
3573.1767591226721
 21
531.25069834741305
 31
0.0
 12
3603.1767591226708
 22
536.25069834741316
 32
0.0
 13
3603.1767591226708
 23
536.25069834741316
 33
0.0
  0
TEXT
  5
6100
  8
0
 62
     7
 10
3133.0751268432091
 20
523.75069834741225
 30
0.0
 40
25.0
  1
784 O/A
  0
LINE
  5
6101
  8
0
 62
     7
 10
2106.9224907389948
 20
1695.938199152077
 30
0.0
 11
2106.9224907389948
 21
1517.653822581141
 31
0.0
  0
LINE
  5
6102
  8
0
 62
     7
 10
2075.9224907389948
 20
1537.653822581143
 30
0.0
 11
1791.0960798699391
 21
1537.653822581143
 31
0.0
  0
SOLID
  5
6103
  8
0
 62
     7
 10
2075.9224907389948
 20
1542.653822581143
 30
0.0
 11
2075.9224907389948
 21
1532.653822581143
 31
0.0
 12
2106.9224907389948
 22
1537.653822581143
 32
0.0
 13
2106.9224907389948
 23
1537.653822581143
 33
0.0
  0
LINE
  5
6104
  8
0
 62
     7
 10
1262.7514907389941
 20
1537.653822581143
 30
0.0
 11
1545.6817465366059
 21
1537.653822581143
 31
0.0
  0
SOLID
  5
6105
  8
0
 62
     7
 10
1266.7514907389941
 20
1542.653822581143
 30
0.0
 11
1266.7514907389941
 21
1532.653822581143
 31
0.0
 12
1236.7514907389941
 22
1537.653822581143
 32
0.0
 13
1236.7514907389941
 23
1537.653822581143
 33
0.0
  0
TEXT
  5
6106
  8
0
 62
     7
 10
1551.932570482295
 20
1524.953822581142
 30
0.0
 40
25.0
  1
869.6 CTRS
  0
LINE
  5
6107
  8
0
 62
     7
 10
2884.4647591226721
 20
1071.8623321608729
 30
0.0
 11
2884.4647591226721
 21
1137.4921560517321
 31
0.0
  0
LINE
  5
6108
  8
0
 62
     7
 10
2914.4647591226721
 20
1117.4921560517309
 30
0.0
 11
3091.0764050226039
 21
1117.4921560517309
 31
0.0
  0
SOLID
  5
6109
  8
0
 62
     7
 10
2914.4647591226721
 20
1122.4921560517321
 30
0.0
 11
2914.4647591226721
 21
1112.4921560517321
 31
0.0
 12
2884.4647591226721
 22
1117.4921560517309
 32
0.0
 13
2884.4647591226721
 23
1117.4921560517309
 33
0.0
  0
LINE
  5
610A
  8
0
 62
     7
 10
3528.6767591226708
 20
1071.8623321608729
 30
0.0
 11
3528.6767591226708
 21
1137.4921560517321
 31
0.0
  0
LINE
  5
610B
  8
0
 62
     7
 10
3498.6767591226721
 20
1117.4921560517309
 30
0.0
 11
3328.576405022603
 21
1117.4921560517309
 31
0.0
  0
SOLID
  5
610C
  8
0
 62
     7
 10
3498.6767591226721
 20
1122.4921560517321
 30
0.0
 11
3498.6767591226721
 21
1112.4921560517321
 31
0.0
 12
3528.6767591226708
 22
1117.4921560517309
 32
0.0
 13
3528.6767591226708
 23
1117.4921560517309
 33
0.0
  0
TEXT
  5
610D
  8
0
 62
     7
 10
3097.3272289682932
 20
1105.3921560517319
 30
0.0
 40
25.0
  1
644.2 CTRS
  0
LINE
  5
610E
  8
0
 62
     7
 10
1204.8714907389949
 20
2380.1501991520781
 30
0.0
 11
1204.8714907389949
 21
2572.9594809006189
 31
0.0
  0
LINE
  5
610F
  8
0
 62
     7
 10
1234.4014907389951
 20
2552.959480900618
 30
0.0
 11
1578.5545112492571
 21
2552.959480900618
 31
0.0
  0
SOLID
  5
6110
  8
0
 62
     7
 10
1234.8714907389949
 20
2557.9594809006189
 30
0.0
 11
1234.8714907389949
 21
2547.959480900618
 31
0.0
 12
1204.8714907389949
 22
2552.959480900618
 32
0.0
 13
1204.8714907389949
 23
2552.959480900618
 33
0.0
  0
TEXT
  5
6111
  8
0
 62
     7
 10
1584.8053351949461
 20
2540.8594809006181
 30
0.0
 40
25.0
  1
981.4 CTRS
  0
LINE
  5
6112
  8
0
 62
     7
 10
2186.231490738995
 20
2380.1501991520781
 30
0.0
 11
2186.231490738995
 21
2572.9594809006189
 31
0.0
  0
LINE
  5
6113
  8
0
 62
     7
 10
2156.7014907389948
 20
2552.959480900618
 30
0.0
 11
1828.5545112492559
 21
2552.959480900618
 31
0.0
  0
SOLID
  5
6114
  8
0
 62
     7
 10
2156.231490738995
 20
2557.9594809006189
 30
0.0
 11
2156.231490738995
 21
2547.959480900618
 31
0.0
 12
2186.231490738995
 22
2552.959480900618
 32
0.0
 13
2186.231490738995
 23
2552.959480900618
 33
0.0
  0
LINE
  5
6115
  8
0
 62
     7
 10
1172.9014907389931
 20
956.26233216087019
 30
0.0
 11
1172.9014907389931
 21
1219.9668517125181
 31
0.0
  0
LINE
  5
6116
  8
0
 62
     7
 10
1202.901490738994
 20
1199.966851712519
 30
0.0
 11
1314.007123457867
 21
1199.966851712519
 31
0.0
  0
SOLID
  5
6117
  8
0
 62
     7
 10
1202.901490738994
 20
1204.9668517125181
 30
0.0
 11
1202.901490738994
 21
1194.9668517125181
 31
0.0
 12
1172.9014907389931
 22
1199.966851712519
 32
0.0
 13
1172.9014907389931
 23
1199.966851712519
 33
0.0
  0
LINE
  5
6118
  8
0
 62
     7
 10
2218.2014907389962
 20
956.26233216087019
 30
0.0
 11
2218.2014907389962
 21
1219.9668517125181
 31
0.0
  0
LINE
  5
6119
  8
0
 62
     7
 10
2188.2014907389962
 20
1199.966851712519
 30
0.0
 11
2080.6737901245342
 21
1199.966851712519
 31
0.0
  0
SOLID
  5
611A
  8
0
 62
     7
 10
2188.2014907389962
 20
1204.9668517125181
 30
0.0
 11
2188.2014907389962
 21
1194.9668517125181
 31
0.0
 12
2218.2014907389962
 22
1199.966851712519
 32
0.0
 13
2218.2014907389962
 23
1199.966851712519
 33
0.0
  0
TEXT
  5
611B
  8
0
 62
     7
 10
1320.257947403557
 20
1187.4668517125181
 30
0.0
 40
25.0
  1
1045.3 (SPRING MTG CTRS - OPTION)
  0
LINE
  5
611D
  8
0
 62
     7
 10
1236.351490738994
 20
1140.8150777158619
 30
0.0
 11
1298.1958272935331
 21
1140.8150777158619
 31
0.0
  0
SOLID
  5
611E
  8
0
 62
     7
 10
1236.351490738994
 20
1145.815077715861
 30
0.0
 11
1236.351490738994
 21
1135.815077715861
 31
0.0
 12
1206.351490738994
 22
1140.8150777158619
 32
0.0
 13
1206.351490738994
 23
1140.8150777158619
 33
0.0
  0
TEXT
  5
611F
  8
0
 62
     7
 10
1304.4466512392221
 20
1128.315077715861
 30
0.0
 40
25.0
  1
933.5 (SPRING MTG CTRS - OPTION)
  0
LINE
  5
6121
  8
0
 62
     7
 10
2109.8414907389952
 20
1140.815077715863
 30
0.0
 11
2052.3624939602
 21
1140.815077715863
 31
0.0
  0
SOLID
  5
6122
  8
0
 62
     7
 10
2109.8414907389952
 20
1145.815077715861
 30
0.0
 11
2109.8414907389952
 21
1135.815077715861
 31
0.0
 12
2139.8414907389961
 22
1140.815077715863
 32
0.0
 13
2139.8414907389961
 23
1140.815077715863
 33
0.0
  0
ARC
  5
6174
  8
0
  6
HIDDEN
 62
     7
 10
1197.4014907389951
 20
958.76233216087007
 30
0.0
 40
22.5
 50
270.0
 51
0.000000000000007
  0
ARC
  5
6175
  8
0
  6
HIDDEN
 62
     7
 10
1197.4014907389951
 20
958.76233216087007
 30
0.0
 40
10.0
 50
270.0
 51
0.000000000000007
  0
LINE
  5
6176
  8
0
  6
HIDDEN
 62
     7
 10
1197.4014907389951
 20
948.76233216087007
 30
0.0
 11
1154.901490738994
 21
948.76233216087007
 31
0.0
  0
LINE
  5
6177
  8
0
  6
HIDDEN
 62
     7
 10
1190.4014907389951
 20
929.26233216087201
 30
0.0
 11
1155.4014907389951
 21
929.26233216087201
 31
0.0
  0
LINE
  5
6178
  8
0
  6
HIDDEN
 62
     7
 10
1197.4014907389951
 20
936.26233216087212
 30
0.0
 11
1154.901490738994
 21
936.26233216087212
 31
0.0
  0
LINE
  5
6179
  8
0
  6
HIDDEN
 62
     7
 10
1154.901490738994
 20
936.26233216087212
 30
0.0
 11
1154.901490738994
 21
948.76233216087007
 31
0.0
  0
LINE
  5
617A
  8
0
  6
HIDDEN
 62
     7
 10
1155.4014907389951
 20
929.26233216087007
 30
0.0
 11
1155.4014907389951
 21
932.26233216087201
 31
0.0
  0
ARC
  5
617B
  8
0
  6
HIDDEN
 62
     7
 10
1159.401490738996
 20
932.26233216087201
 30
0.0
 40
4.0
 50
90.0
 51
180.0
  0
LINE
  5
617C
  8
0
  6
HIDDEN
 62
     7
 10
1190.4014907389951
 20
929.26233216087007
 30
0.0
 11
1190.4014907389951
 21
932.26233216087201
 31
0.0
  0
ARC
  5
617D
  8
0
  6
HIDDEN
 62
     7
 10
1186.4014907389951
 20
932.26233216087201
 30
0.0
 40
4.0
 50
0.000000000000007
 51
90.0
  0
LINE
  5
617E
  8
0
  6
HIDDEN
 62
     7
 10
1219.9014907389951
 20
1006.26233216087
 30
0.0
 11
1207.4014907389951
 21
1006.26233216087
 31
0.0
  0
LINE
  5
617F
  8
0
  6
HIDDEN
 62
     7
 10
1207.4014907389951
 20
958.76233216087007
 30
0.0
 11
1207.4014907389951
 21
1006.26233216087
 31
0.0
  0
LINE
  5
6180
  8
0
  6
HIDDEN
 62
     7
 10
1219.9014907389951
 20
958.76233216087007
 30
0.0
 11
1219.9014907389951
 21
1006.26233216087
 31
0.0
  0
POINT
  5
6181
  8
0
  6
HIDDEN
 62
     7
 10
1172.9014907389931
 20
936.26233216087212
 30
0.0
 50
0.000000000000007
  0
LINE
  5
6182
  8
0
 62
     7
 10
1206.351490738994
 20
956.26233216086996
 30
0.0
 11
1206.351490738994
 21
1160.815077715861
 31
0.0
  0
ARC
  5
61CF
  8
0
  6
HIDDEN
 62
     7
 10
1230.851490738994
 20
958.76233216087041
 30
0.0
 40
22.5
 50
270.0
 51
0.000000000000007
  0
ARC
  5
61D0
  8
0
  6
HIDDEN
 62
     7
 10
1230.851490738994
 20
958.76233216087041
 30
0.0
 40
10.0
 50
270.0
 51
0.000000000000007
  0
LINE
  5
61D1
  8
0
  6
HIDDEN
 62
     7
 10
1230.851490738994
 20
948.76233216087053
 30
0.0
 11
1188.351490738994
 21
948.76233216087053
 31
0.0
  0
LINE
  5
61D2
  8
0
  6
HIDDEN
 62
     7
 10
1223.851490738994
 20
929.26233216087223
 30
0.0
 11
1188.851490738994
 21
929.26233216087223
 31
0.0
  0
LINE
  5
61D3
  8
0
  6
HIDDEN
 62
     7
 10
1230.851490738994
 20
936.26233216087223
 30
0.0
 11
1188.351490738994
 21
936.26233216087223
 31
0.0
  0
LINE
  5
61D4
  8
0
  6
HIDDEN
 62
     7
 10
1188.351490738994
 20
936.26233216087223
 30
0.0
 11
1188.351490738994
 21
948.76233216087053
 31
0.0
  0
LINE
  5
61D5
  8
0
  6
HIDDEN
 62
     7
 10
1188.851490738994
 20
929.26233216087041
 30
0.0
 11
1188.851490738994
 21
932.26233216087201
 31
0.0
  0
ARC
  5
61D6
  8
0
  6
HIDDEN
 62
     7
 10
1192.851490738994
 20
932.26233216087201
 30
0.0
 40
4.0
 50
90.0
 51
180.0
  0
LINE
  5
61D7
  8
0
  6
HIDDEN
 62
     7
 10
1223.851490738994
 20
929.26233216087041
 30
0.0
 11
1223.851490738994
 21
932.26233216087201
 31
0.0
  0
ARC
  5
61D8
  8
0
  6
HIDDEN
 62
     7
 10
1219.851490738994
 20
932.26233216087201
 30
0.0
 40
4.0
 50
0.000000000000007
 51
90.0
  0
LINE
  5
61D9
  8
0
  6
HIDDEN
 62
     7
 10
1253.351490738994
 20
1006.26233216087
 30
0.0
 11
1240.851490738994
 21
1006.26233216087
 31
0.0
  0
LINE
  5
61DA
  8
0
  6
HIDDEN
 62
     7
 10
1240.851490738994
 20
958.76233216087041
 30
0.0
 11
1240.851490738994
 21
1006.26233216087
 31
0.0
  0
POINT
  5
61DB
  8
0
  6
HIDDEN
 62
     7
 10
1206.351490738994
 20
936.26233216087223
 30
0.0
 50
0.000000000000007
  0
LINE
  5
61DC
  8
0
 10
1253.351490738994
 20
1046.862332160872
 30
0.0
 11
1253.351490738994
 21
959.76233216087235
 31
0.0
  0
LINE
  5
61DD
  8
0
 10
1250.851490738994
 20
1044.362332160872
 30
0.0
 11
1250.851490738994
 21
959.76233216087235
 31
0.0
  0
LINE
  5
61DE
  8
0
 10
1253.351490738994
 20
1046.862332160872
 30
0.0
 11
1223.851490738994
 21
1046.862332160872
 31
0.0
  0
LINE
  5
61DF
  8
0
 10
1250.851490738994
 20
1044.362332160872
 30
0.0
 11
1223.851490738994
 21
1044.362332160872
 31
0.0
  0
LINE
  5
61E0
  8
0
 10
1253.351490738994
 20
959.76233216087235
 30
0.0
 11
1250.851490738994
 21
959.76233216087235
 31
0.0
  0
LINE
  5
61E1
  8
0
 10
1223.851490738994
 20
1046.862332160872
 30
0.0
 11
1223.851490738994
 21
1044.362332160872
 31
0.0
  0
LINE
  5
6284
  8
0
 62
     7
 10
2139.8414907389961
 20
956.26233216087019
 30
0.0
 11
2139.8414907389961
 21
1160.815077715861
 31
0.0
  0
LINE
  5
6285
  8
0
 10
2178.6514907389951
 20
1028.477332160872
 30
0.0
 11
2178.6514907389951
 21
639.88733216087212
 31
0.0
  0
LINE
  5
6286
  8
0
 62
     7
 10
1236.7514907389941
 20
1695.938199152077
 30
0.0
 11
1236.7514907389941
 21
1517.653822581141
 31
0.0
  0
LINE
  5
6287
  8
0
 10
1237.321490738995
 20
1051.862332160872
 30
0.0
 11
1237.321490738995
 21
1039.362332160872
 31
0.0
  0
ARC
  5
6289
  8
0
  6
HIDDEN
 62
     7
 10
2114.3414907389952
 20
958.76233216087007
 30
0.0
 40
22.5
 50
180.0
 51
270.0
  0
ARC
  5
628A
  8
0
  6
HIDDEN
 62
     7
 10
2114.3414907389952
 20
958.76233216087007
 30
0.0
 40
10.0
 50
180.0
 51
270.0
  0
LINE
  5
628B
  8
0
  6
HIDDEN
 62
     7
 10
2114.3414907389952
 20
948.76233216087007
 30
0.0
 11
2156.8414907389961
 21
948.76233216087007
 31
0.0
  0
LINE
  5
628C
  8
0
  6
HIDDEN
 62
     7
 10
2122.3414907389952
 20
929.26233216087201
 30
0.0
 11
2157.3414907389938
 21
929.26233216087201
 31
0.0
  0
LINE
  5
628D
  8
0
  6
HIDDEN
 62
     7
 10
2114.3414907389952
 20
936.26233216087212
 30
0.0
 11
2156.8414907389961
 21
936.26233216087212
 31
0.0
  0
LINE
  5
628E
  8
0
  6
HIDDEN
 62
     7
 10
2156.8414907389961
 20
936.26233216087212
 30
0.0
 11
2156.8414907389961
 21
948.76233216087007
 31
0.0
  0
LINE
  5
628F
  8
0
  6
HIDDEN
 62
     7
 10
2157.3414907389938
 20
929.26233216087007
 30
0.0
 11
2157.3414907389938
 21
932.26233216087201
 31
0.0
  0
ARC
  5
6290
  8
0
  6
HIDDEN
 62
     7
 10
2153.3414907389952
 20
932.26233216087201
 30
0.0
 40
4.0
 50
0.000000000000007
 51
90.0
  0
LINE
  5
6291
  8
0
  6
HIDDEN
 62
     7
 10
2139.8414907389961
 20
929.26233216087201
 30
0.0
 11
2139.8414907389961
 21
938.93453320645767
 31
0.0
  0
LINE
  5
6292
  8
0
  6
HIDDEN
 62
     7
 10
2122.3414907389952
 20
929.26233216087007
 30
0.0
 11
2122.3414907389952
 21
932.26233216087201
 31
0.0
  0
ARC
  5
6293
  8
0
  6
HIDDEN
 62
     7
 10
2126.3414907389952
 20
932.26233216087201
 30
0.0
 40
4.0
 50
90.0
 51
180.0
  0
LINE
  5
6294
  8
0
  6
HIDDEN
 62
     7
 10
2091.8414907389952
 20
1006.26233216087
 30
0.0
 11
2104.3414907389952
 21
1006.26233216087
 31
0.0
  0
LINE
  5
6295
  8
0
  6
HIDDEN
 62
     7
 10
2104.3414907389952
 20
958.76233216087007
 30
0.0
 11
2104.3414907389952
 21
1006.26233216087
 31
0.0
  0
LINE
  5
6296
  8
0
  6
HIDDEN
 62
     7
 10
2091.8414907389952
 20
958.76233216087007
 30
0.0
 11
2091.8414907389952
 21
1006.26233216087
 31
0.0
  0
POINT
  5
6297
  8
0
  6
HIDDEN
 62
     7
 10
2139.8414907389961
 20
936.26233216087212
 30
0.0
 50
180.0
  0
LINE
  5
62F3
  8
0
 10
1249.351490738994
 20
1729.938199152077
 30
0.0
 11
1219.851490738994
 21
1729.938199152077
 31
0.0
  0
LINE
  5
62F4
  8
0
 10
1249.351490738994
 20
1701.9381991520761
 30
0.0
 11
1219.851490738994
 21
1701.9381991520761
 31
0.0
  0
LINE
  5
62F5
  8
0
 10
1219.851490738994
 20
1729.938199152077
 30
0.0
 11
1219.851490738994
 21
1701.9381991520761
 31
0.0
  0
POINT
  5
62F6
  8
0
 10
1237.321490738995
 20
1715.9381991520761
 30
0.0
 50
180.0
  0
ENDSEC
  0
EOF
