  0
SECTION
  2
HEADER
  9
$ACADVER
  1
AC1009
  9
$INSBASE
 10
0.0
 20
0.0
 30
0.0
  9
$EXTMIN
 10
860.69435074341663
 20
0.0
 30
0.0
  9
$EXTMAX
 10
3890.000000000156
 20
2668.5147229613081
 30
0.0
  9
$LIMMIN
 10
0.0
 20
0.0
  9
$LIMMAX
 10
3890.0
 20
2660.0
  9
$ORTHOMODE
 70
     1
  9
$REGENMODE
 70
     1
  9
$FILLMODE
 70
     1
  9
$QTEXTMODE
 70
     0
  9
$MIRRTEXT
 70
     0
  9
$DRAGMODE
 70
     2
  9
$LTSCALE
 40
100.0
  9
$OSMODE
 70
     0
  9
$ATTMODE
 70
     1
  9
$TEXTSIZE
 40
25.0
  9
$TRACEWID
 40
0.05
  9
$TEXTSTYLE
  7
TITLE3
  9
$CLAYER
  8
0
  9
$CELTYPE
  6
BYLAYER
  9
$CECOLOR
 62
   256
  9
$DIMSCALE
 40
1.0
  9
$DIMASZ
 40
0.12
  9
$DIMEXO
 40
0.05
  9
$DIMDLI
 40
0.5
  9
$DIMRND
 40
0.0
  9
$DIMDLE
 40
0.0
  9
$DIMEXE
 40
0.1
  9
$DIMTP
 40
0.1
  9
$DIMTM
 40
0.1
  9
$DIMTXT
 40
0.12
  9
$DIMCEN
 40
0.0
  9
$DIMTSZ
 40
0.0
  9
$DIMTOL
 70
     0
  9
$DIMLIM
 70
     0
  9
$DIMTIH
 70
     1
  9
$DIMTOH
 70
     1
  9
$DIMSE1
 70
     0
  9
$DIMSE2
 70
     0
  9
$DIMTAD
 70
     0
  9
$DIMZIN
 70
     7
  9
$DIMBLK
  1

  9
$DIMASO
 70
     0
  9
$DIMSHO
 70
     0
  9
$DIMPOST
  1

  9
$DIMAPOST
  1
mm
  9
$DIMALT
 70
     0
  9
$DIMALTD
 70
     2
  9
$DIMALTF
 40
25.399999999999999
  9
$DIMLFAC
 40
1.0
  9
$DIMTOFL
 70
     0
  9
$DIMTVP
 40
0.0
  9
$DIMTIX
 70
     0
  9
$DIMSOXD
 70
     0
  9
$DIMSAH
 70
     0
  9
$DIMBLK1
  1

  9
$DIMBLK2
  1

  9
$DIMSTYLE
  2
AM_ANSI
  9
$DIMCLRD
 70
   256
  9
$DIMCLRE
 70
   256
  9
$DIMCLRT
 70
     2
  9
$DIMTFAC
 40
0.71
  9
$DIMGAP
 40
0.06
  9
$LUNITS
 70
     2
  9
$LUPREC
 70
     2
  9
$SKETCHINC
 40
0.1
  9
$FILLETRAD
 40
0.0
  9
$AUNITS
 70
     0
  9
$AUPREC
 70
     2
  9
$MENU
  1
\acad12\support\cnc
  9
$ELEVATION
 40
0.0
  9
$PELEVATION
 40
0.0
  9
$THICKNESS
 40
0.0
  9
$LIMCHECK
 70
     0
  9
$BLIPMODE
 70
     0
  9
$CHAMFERA
 40
0.0
  9
$CHAMFERB
 40
0.0
  9
$SKPOLY
 70
     0
  9
$TDCREATE
 40
2450764.4272488421
  9
$TDUPDATE
 40
2455838.6313796178
  9
$TDINDWG
 40
1.0588928934999999
  9
$TDUSRTIMER
 40
1.0588868866000001
  9
$USRTIMER
 70
     1
  9
$ANGBASE
 50
0.0
  9
$ANGDIR
 70
     0
  9
$PDMODE
 70
     2
  9
$PDSIZE
 40
10.0
  9
$PLINEWID
 40
0.0
  9
$COORDS
 70
     1
  9
$SPLFRAME
 70
     0
  9
$SPLINETYPE
 70
     6
  9
$SPLINESEGS
 70
     8
  9
$ATTDIA
 70
     1
  9
$ATTREQ
 70
     1
  9
$HANDLING
 70
     1
  9
$HANDSEED
  5
5E81
  9
$SURFTAB1
 70
     6
  9
$SURFTAB2
 70
     6
  9
$SURFTYPE
 70
     6
  9
$SURFU
 70
     6
  9
$SURFV
 70
     6
  9
$UCSNAME
  2

  9
$UCSORG
 10
0.0
 20
0.0
 30
0.0
  9
$UCSXDIR
 10
1.0
 20
0.0
 30
0.0
  9
$UCSYDIR
 10
0.0
 20
1.0
 30
0.0
  9
$PUCSNAME
  2

  9
$PUCSORG
 10
0.0
 20
0.0
 30
0.0
  9
$PUCSXDIR
 10
1.0
 20
0.0
 30
0.0
  9
$PUCSYDIR
 10
0.0
 20
1.0
 30
0.0
  9
$USERI1
 70
     0
  9
$USERI2
 70
     0
  9
$USERI3
 70
     0
  9
$USERI4
 70
     0
  9
$USERI5
 70
     0
  9
$USERR1
 40
0.0
  9
$USERR2
 40
0.0
  9
$USERR3
 40
0.0
  9
$USERR4
 40
0.0
  9
$USERR5
 40
0.0
  9
$WORLDVIEW
 70
     1
  9
$SHADEDGE
 70
     3
  9
$SHADEDIF
 70
    70
  9
$TILEMODE
 70
     1
  9
$MAXACTVP
 70
    16
  9
$PLIMCHECK
 70
     0
  9
$PEXTMIN
 10
1.0000000000000000E+020
 20
1.0000000000000000E+020
 30
1.0000000000000000E+020
  9
$PEXTMAX
 10
-1.0000000000000000E+020
 20
-1.0000000000000000E+020
 30
-1.0000000000000000E+020
  9
$PLIMMIN
 10
0.0
 20
0.0
  9
$PLIMMAX
 10
12.0
 20
9.0
  9
$UNITMODE
 70
     0
  9
$VISRETAIN
 70
     0
  9
$PLINEGEN
 70
     0
  9
$PSLTSCALE
 70
     0
  0
ENDSEC
  0
SECTION
  2
TABLES
  0
TABLE
  2
VPORT
 70
     1
  0
VPORT
  2
*ACTIVE
 70
     0
 10
0.0
 20
0.0
 11
1.0
 21
1.0
 12
0.1805897587601066
 22
162.4093826157104
 13
0.0
 23
0.0
 14
25.0
 24
25.0
 15
100.0
 25
100.0
 16
0.0
 26
0.0
 36
1.0
 17
2375.2963626332112
 27
1171.840166674293
 37
0.0
 40
2686.2300621857989
 41
1.6307692307692301
 42
50.0
 43
0.0
 44
0.0
 50
0.0
 51
0.0
 71
     0
 72
   100
 73
     1
 74
     0
 75
     0
 76
     0
 77
     0
 78
     0
  0
ENDTAB
  0
TABLE
  2
LTYPE
 70
    19
  0
LTYPE
  2
CONTINUOUS
 70
     0
  3
Solid line
 72
    65
 73
     0
 40
0.0
  0
LTYPE
  2
PHANTOM
 70
     0
  3
Phantom ______  __  __  ______  __  __  ______
 72
    65
 73
     6
 40
2.5
 49
1.25
 49
-0.25
 49
0.25
 49
-0.25
 49
0.25
 49
-0.25
  0
LTYPE
  2
HIDDEN
 70
     0
  3
__ __ __ __ __ __ __ __ __ __ __ __ __ __ __ __
 72
    65
 73
     2
 40
0.375
 49
0.25
 49
-0.125
  0
LTYPE
  2
PHANTOM2
 70
     0
  3
Phantom (.5x) ___ _ _ ___ _ _ ___ _ _ ___ _ _
 72
    65
 73
     6
 40
1.25
 49
0.625
 49
-0.125
 49
0.125
 49
-0.125
 49
0.125
 49
-0.125
  0
LTYPE
  2
CENTER
 70
     0
  3
Center ____ _ ____ _ ____ _ ____ _ ____ _ ____
 72
    65
 73
     4
 40
2.0
 49
1.25
 49
-0.25
 49
0.25
 49
-0.25
  0
LTYPE
  2
AMCONSTR
 70
     0
  3
_______________________
 72
    65
 73
     2
 40
9999.0
 49
9999.0
 49
0.0
  0
LTYPE
  2
CENTER2
 70
     0
  3
Center (.5x) ___ _ ___ _ ___ _ ___ _ ___ _ ___
 72
    65
 73
     4
 40
1.125
 49
0.75
 49
-0.125
 49
0.125
 49
-0.125
  0
LTYPE
  2
HIDDEN2
 70
     0
  3
Hidden (.5x) _ _ _ _ _ _ _ _ _ _ _ _ _ _ _ _ _
 72
    65
 73
     2
 40
0.1875
 49
0.125
 49
-0.0625
  0
LTYPE
  2
AMZIGZAG2
 70
     0
  3
/\/-/\/-/\/-/\/-/\/-/\/
 72
    65
 73
     2
 40
0.4401
 49
0.0001
 49
-0.4400000000000003
  0
LTYPE
  2
ACANSTGB
 70
     0
  3
__ . . __ . .
 72
    65
 73
     6
 40
0.35433070866
 49
0.15748031496
 49
-0.03937007874
 49
0.03937007874
 49
-0.03937007874
 49
0.03937007874
 49
-0.03937007874
  0
LTYPE
  2
ACANSTGL
 70
     0
  3
_ _ _ _ _
 72
    65
 73
     2
 40
0.11811023622
 49
0.07874015748
 49
-0.03937007874
  0
LTYPE
  2
ASULTYPE
 70
     0
  3
Solid line
 72
    65
 73
     2
 40
3.0
 49
2.5
 49
0.5
  0
LTYPE
  2
ASVLTYPE
 70
     0
  3
__ __ __ __ __ __ __ __ __ __ __ __ __ __ __ __ __ __ __ __ __
 72
    65
 73
     2
 40
0.75
 49
0.5
 49
-0.25
  0
LTYPE
  2
AM_ISO02W050
 70
     0
  3
__ __ __ __ __ __ __ __ __ __ __ __ __ __ __
 72
    65
 73
     2
 40
7.5
 49
6.0
 49
-1.5
  0
LTYPE
  2
AM_ISO08W050
 70
     0
  3
____ . ____ . ____ . ____ . ____ . ____ . ____
 72
    65
 73
     4
 40
18.0
 49
12.0
 49
-1.5
 49
3.0
 49
-1.5
  0
LTYPE
  2
AM_ISO09W050
 70
     0
  3
_____ . . _____ . . _____ . . ____ .. ____
 72
    65
 73
     6
 40
22.5
 49
12.0
 49
-1.5
 49
3.0
 49
-1.5
 49
3.0
 49
-1.5
  0
LTYPE
  2
AM_ISO08W050X2
 70
     0
  3
__ . __ . __ . __ . __ . __
 72
    65
 73
     4
 40
9.0
 49
6.0
 49
-0.75
 49
1.5
 49
-0.75
  0
LTYPE
  2
AM_ISO02W050X2
 70
     0
  3
 _ _ _ _ _ _ _ _ _ _ _ _
 72
    65
 73
     2
 40
3.75
 49
3.0
 49
-0.75
  0
LTYPE
  2
AMZIGZAG
 70
     0
  3
/\/-/\/-/\/-/\/-/\/-/\/
 72
    65
 73
     2
 40
11.0001
 49
0.0001
 49
-11.0
  0
ENDTAB
  0
TABLE
  2
LAYER
 70
     1
  0
LAYER
  2
0
 70
     0
 62
     7
  6
CONTINUOUS
  0
ENDTAB
  0
TABLE
  2
STYLE
 70
     8
  0
STYLE
  2
STANDARD
 70
     0
 40
0.0
 41
1.0
 50
0.0
 71
     0
 42
0.2
  3
txt
  4

  0
STYLE
  2
ANNOTATIVE
 70
     0
 40
0.0
 41
1.0
 50
0.0
 71
     0
 42
0.2
  3
txt
  4

  0
STYLE
  2
TITLE3
 70
     0
 40
25.0
 41
1.0
 50
0.0
 71
     0
 42
25.0
  3
SIMPLEX.shx
  4

  0
STYLE
  2
SIMPLEX
 70
     0
 40
40.0
 41
1.0
 50
0.0
 71
     0
 42
25.0
  3
SIMPLEX
  4

  0
STYLE
  2
TITLE5
 70
     0
 40
25.0
 41
1.0
 50
0.0
 71
     0
 42
25.0
  3
SIMPLEX
  4

  0
STYLE
  2

 70
     1
 40
0.0
 41
1.0
 50
0.0
 71
     0
 42
25.0
  3
genltshp.shx
  4

  0
STYLE
  2
ACANSTS
 70
     0
 40
1.0
 41
1.0
 50
0.0
 71
     0
 42
25.0
  3
romans.shx
  4

  0
STYLE
  2
ACANSGDT
 70
     0
 40
0.0
 41
1.0
 50
0.0
 71
     0
 42
25.0
  3
amgdt.shx
  4

  0
ENDTAB
  0
TABLE
  2
VIEW
 70
     0
  0
ENDTAB
  0
TABLE
  2
UCS
 70
     0
  0
ENDTAB
  0
TABLE
  2
APPID
 70
    31
  0
APPID
  2
ACAD
 70
     0
  0
APPID
  2
ACADANNOTATIVE
 70
     0
  0
APPID
  2
ACAD_MLEADERVER
 70
     0
  0
APPID
  2
ACAD_EXEMPT_FROM_CAD_STANDARDS
 70
     0
  0
APPID
  2
ACAECLAYERSTANDARD
 70
     0
  0
APPID
  2
ACAD_DSTYLE_DIMTEXT_FILL
 70
     0
  0
APPID
  2
ACAD_DSTYLE_DIMEXT_LENGTH
 70
     0
  0
APPID
  2
ACAD_DSTYLE_DIMEXT_ENABLED
 70
     0
  0
APPID
  2
ACAD_DSTYLE_DIM_LINETYPE
 70
     0
  0
APPID
  2
ACAD_DSTYLE_DIM_EXT1_LINETYPE
 70
     0
  0
APPID
  2
ACAD_DSTYLE_DIM_EXT2_LINETYPE
 70
     0
  0
APPID
  2
ACAD_DSTYLE_DIMJOGGED_JOGA
 70
     0
  0
APPID
  2
ACAD_DSTYLE_DIMARC_LENGTH_
 70
     0
  0
APPID
  2
ACAD_PSEXT
 70
     0
  0
APPID
  2
CONTENTBLOCKICON
 70
     0
  0
APPID
  2
GENIUS_GENDIM_13
 70
     0
  0
APPID
  2
GENIUS_GENDTOL_13
 70
     0
  0
APPID
  2
GENIUS_GE3DTOL_13
 70
     0
  0
APPID
  2
MCAD_NO_VIS
 70
     0
  0
APPID
  2
ACAD_TEMP_GRAPHIC
 70
     0
  0
APPID
  2
AD_DRAW
 70
     0
  0
APPID
  2
ACATTRIBSERVICES
 70
     0
  0
APPID
  2
ASURF_PCURVE_APPNAME
 70
     0
  0
APPID
  2
AMG_3D2D_5_0
 70
     0
  0
APPID
  2
DESIGNERASSEMBLIES
 70
     0
  0
APPID
  2
ACADM_DIM_EDIT
 70
     0
  0
APPID
  2
AMDT_DM_ADJ
 70
     0
  0
APPID
  2
AMG_3D2D_5_00
 70
     0
  0
APPID
  2
AMG_3D2D_5_01
 70
     0
  0
APPID
  2
ACAD_DSTYLE_DIMBREAK
 70
     0
  0
APPID
  2
ACAD_DSTYLE_DIMJAG
 70
     0
  0
ENDTAB
  0
TABLE
  2
DIMSTYLE
 70
     9
  0
DIMSTYLE
  2
STANDARD
 70
     0
  3

  4

  5

  6

  7

 40
1.0
 41
0.18
 42
0.0625
 43
0.38
 44
0.18
 45
0.0
 46
0.0
 47
0.0
 48
0.0
140
0.18
141
0.09
142
0.0
143
25.399999999999999
144
1.0
145
0.0
146
1.0
147
0.09
 71
     0
 72
     0
 73
     1
 74
     1
 75
     0
 76
     0
 77
     0
 78
     0
170
     0
171
     2
172
     0
173
     0
174
     0
175
     0
176
     0
177
     0
178
     0
  0
DIMSTYLE
  2
ANNOTATIVE
 70
     0
  3

  4

  5

  6

  7

 40
1.0
 41
0.18
 42
0.0625
 43
0.38
 44
0.18
 45
0.0
 46
0.0
 47
0.0
 48
0.0
140
0.18
141
0.09
142
0.0
143
25.399999999999999
144
1.0
145
0.0
146
1.0
147
0.09
 71
     0
 72
     0
 73
     1
 74
     1
 75
     0
 76
     0
 77
     0
 78
     0
170
     0
171
     2
172
     0
173
     0
174
     0
175
     0
176
     0
177
     0
178
     0
  0
DIMSTYLE
  2
COPY_OF_STANDARD
 70
     0
  3

  4

  5

  6

  7

 40
1.0
 41
30.0
 42
20.0
 43
0.38
 44
20.0
 45
0.0
 46
0.0
 47
0.0
 48
0.0
140
25.0
141
0.09
142
0.0
143
25.399999999999999
144
1.0
145
0.0
146
1.0
147
20.0
 71
     0
 72
     0
 73
     0
 74
     0
 75
     0
 76
     0
 77
     0
 78
     0
170
     0
171
     2
172
     0
173
     0
174
     0
175
     0
176
     7
177
     7
178
     7
  0
DIMSTYLE
  2
AM_ANSI
 70
     0
  3

  4
mm
  5

  6

  7

 40
1.0
 41
0.12
 42
0.05
 43
0.5
 44
0.1
 45
0.0
 46
0.0
 47
0.1
 48
0.1
140
0.12
141
0.0
142
0.0
143
25.399999999999999
144
1.0
145
0.0
146
0.71
147
0.06
 71
     0
 72
     0
 73
     1
 74
     1
 75
     0
 76
     0
 77
     0
 78
     7
170
     0
171
     2
172
     0
173
     0
174
     0
175
     0
176
   256
177
   256
178
     2
  0
DIMSTYLE
  2
AM_ANSI$3
 70
     0
  3

  4
mm
  5

  6

  7

 40
1.0
 41
0.12
 42
0.05
 43
0.5
 44
0.1
 45
0.0
 46
0.0
 47
0.1
 48
0.1
140
0.12
141
0.0
142
0.0
143
25.399999999999999
144
1.0
145
0.0
146
0.71
147
0.06
 71
     0
 72
     0
 73
     1
 74
     1
 75
     0
 76
     0
 77
     0
 78
     7
170
     0
171
     2
172
     0
173
     0
174
     0
175
     0
176
   256
177
   256
178
     2
  0
DIMSTYLE
  2
AM_ANSI$4
 70
     0
  3

  4
mm
  5

  6

  7

 40
1.0
 41
0.12
 42
0.05
 43
0.5
 44
0.1
 45
0.0
 46
0.0
 47
0.1
 48
0.1
140
0.12
141
0.0
142
0.0
143
25.399999999999999
144
1.0
145
0.0
146
0.71
147
0.06
 71
     0
 72
     0
 73
     1
 74
     1
 75
     0
 76
     0
 77
     0
 78
     7
170
     0
171
     2
172
     0
173
     0
174
     0
175
     0
176
   256
177
   256
178
     2
  0
DIMSTYLE
  2
AM_ANSI$7
 70
     0
  3

  4
mm
  5

  6

  7

 40
1.0
 41
0.12
 42
0.05
 43
0.5
 44
0.1
 45
0.0
 46
0.0
 47
0.1
 48
0.1
140
0.12
141
0.0
142
0.0
143
25.399999999999999
144
1.0
145
0.0
146
0.71
147
0.06
 71
     0
 72
     0
 73
     1
 74
     1
 75
     0
 76
     0
 77
     0
 78
     7
170
     0
171
     2
172
     0
173
     0
174
     0
175
     0
176
   256
177
   256
178
     2
  0
DIMSTYLE
  2
AM_ANSI$SF
 70
     0
  3

  4
mm
  5

  6

  7

 40
1.0
 41
0.12
 42
0.05
 43
0.5
 44
0.1
 45
0.0
 46
0.0
 47
0.1
 48
0.1
140
0.12
141
0.0
142
0.0
143
25.399999999999999
144
1.0
145
0.0
146
0.71
147
0.06
 71
     0
 72
     0
 73
     1
 74
     1
 75
     1
 76
     1
 77
     0
 78
     7
170
     0
171
     2
172
     0
173
     0
174
     0
175
     0
176
   256
177
   256
178
     2
  0
DIMSTYLE
  2
AM_ANSI$SH
 70
     0
  3

  4
mm
  5

  6

  7

 40
1.0
 41
0.12
 42
0.05
 43
0.5
 44
0.1
 45
0.0
 46
0.0
 47
0.1
 48
0.1
140
0.12
141
0.0
142
0.0
143
25.399999999999999
144
1.0
145
0.0
146
0.71
147
0.06
 71
     0
 72
     0
 73
     1
 74
     1
 75
     1
 76
     1
 77
     0
 78
     7
170
     0
171
     2
172
     0
173
     1
174
     0
175
     0
176
   256
177
   256
178
     2
  0
ENDTAB
  0
ENDSEC
  0
SECTION
  2
BLOCKS
  0
BLOCK
  8
0
  2
$MODEL_SPACE
 70
     0
 10
0.0
 20
0.0
 30
0.0
  3
$MODEL_SPACE
  1

  0
ENDBLK
  5
5D68
  8
0
  0
BLOCK
 67
     1
  8
0
  2
$PAPER_SPACE
 70
     0
 10
0.0
 20
0.0
 30
0.0
  3
$PAPER_SPACE
  1

  0
ENDBLK
  5
5D64
 67
     1
  8
0
  0
BLOCK
  8
0
  2
GENAXEH
 70
     0
 10
0.0
 20
0.0
 30
0.0
  3
GENAXEH
  1

  0
LINE
  5
4286
  8
0
 10
-1.0
 20
0.0
 30
0.0
 11
1.0
 21
0.0
 31
0.0
  0
ENDBLK
  5
4288
  8
0
  0
BLOCK
  8
0
  2
*U3
 70
     1
 10
0.0
 20
0.0
 30
0.0
  3
*U3
  1

  0
TEXT
  5
452A
  8
0
 62
     7
 10
1568.3019457088981
 20
1155.630025377591
 30
0.0
 40
25.0
  1
1222 CTRS
  0
ENDBLK
  5
452C
  8
0
  0
BLOCK
  8
0
  2
*U4
 70
     1
 10
0.0
 20
0.0
 30
0.0
  3
*U4
  1

  0
TEXT
  5
452E
  8
0
 62
     7
 10
1310.3686123755649
 20
1236.3138397338359
 30
0.0
 40
25.0
  1
1282 (SPRING MTG CTRS - OPTION)
  0
ENDBLK
  5
4530
  8
0
  0
BLOCK
  8
0
  2
*U5
 70
     1
 10
0.0
 20
0.0
 30
0.0
  3
*U5
  1

  0
TEXT
  5
4532
  8
0
 62
     7
 10
1634.968612375566
 20
571.70117995546525
 30
0.0
 40
25.0
  1
1189
  0
ENDBLK
  5
4534
  8
0
  0
BLOCK
  8
0
  2
*U6
 70
     1
 10
0.0
 20
0.0
 30
0.0
  3
*U6
  1

  0
TEXT
  5
4536
  8
0
 62
     7
 10
1691.3852790422329
 20
502.66155073560799
 30
0.0
 40
25.0
  1
1306
  0
ENDBLK
  5
4538
  8
0
  0
BLOCK
  8
0
  2
*U7
 70
     1
 10
0.0
 20
0.0
 30
0.0
  3
*U7
  1

  0
TEXT
  5
453A
  8
0
 62
     7
 10
1618.301945708894
 20
1418.2321199048511
 30
0.0
 40
25.0
  1
861
  0
ENDBLK
  5
453C
  8
0
  0
BLOCK
  8
0
  2
*U8
 70
     1
 10
0.0
 20
0.0
 30
0.0
  3
*U8
  1

  0
TEXT
  5
453E
  8
0
 62
     7
 10
1607.88527904223
 20
2202.0702044592249
 30
0.0
 40
25.0
  1
1047
  0
ENDBLK
  5
4540
  8
0
  0
BLOCK
  8
0
  2
*U9
 70
     1
 10
0.0
 20
0.0
 30
0.0
  3
*U9
  1

  0
TEXT
  5
4856
  8
0
 10
-0.000000000001819
 20
0.0000018156206067
 30
0.0
 40
50.0
  1
ISD223K
  7
TITLE3
  0
ENDBLK
  5
4858
  8
0
  0
BLOCK
  8
0
  2
*U10
 70
     1
 10
0.0
 20
0.0
 30
0.0
  3
*U10
  1

  0
TEXT
  5
485A
  8
0
 10
1530.326037674597
 20
745.32926781310175
 30
0.0
 40
50.0
  1
ISD182K
  7
TITLE3
  0
ENDBLK
  5
485C
  8
0
  0
BLOCK
  8
0
  2
*U11
 70
     1
 10
0.0
 20
0.0
 30
0.0
  3
*U11
  1

  0
TEXT
  5
485E
  8
0
 10
1530.326037674597
 20
1801.865284972396
 30
0.0
 40
50.0
  1
ISD182K
  7
TITLE3
  0
ENDBLK
  5
4860
  8
0
  0
BLOCK
  8
0
  2
*U12
 70
     1
 10
0.0
 20
0.0
 30
0.0
  3
*U12
  1

  0
TEXT
  5
4862
  8
0
 10
3216.9092599178962
 20
838.84239564126415
 30
0.0
 40
50.0
  1
ISD182K
  7
TITLE3
  0
ENDBLK
  5
4864
  8
0
  0
ENDSEC
  0
SECTION
  2
ENTITIES
  0
LINE
  5
23F5
  8
0
 62
     7
 10
1764.1664248316411
 20
2324.206208406431
 30
0.0
 11
1735.633822846256
 21
2292.0329757792429
 31
0.0
  0
LINE
  5
23F7
  8
0
 62
     7
 10
1725.5838488687291
 20
2341.672009245443
 30
0.0
 11
1745.683796823784
 21
2341.672009245443
 31
0.0
  0
LINE
  5
23F8
  8
0
 62
     7
 10
1745.683796823784
 20
2341.672009245443
 30
0.0
 11
1745.683796823784
 21
2324.2062084064291
 31
0.0
  0
LINE
  5
23F9
  8
0
 62
     7
 10
1745.683796823784
 20
2324.2062084064291
 30
0.0
 11
1764.1664248316411
 21
2324.206208406431
 31
0.0
  0
LINE
  5
23FD
  8
0
 62
     7
 10
1707.1012208608729
 20
2324.206208406431
 30
0.0
 11
1735.633822846256
 21
2292.0329757792429
 31
0.0
  0
LINE
  5
23FE
  8
0
 62
     7
 10
1725.5838488687291
 20
2341.672009245443
 30
0.0
 11
1725.5838488687291
 21
2324.2062084064291
 31
0.0
  0
LINE
  5
23FF
  8
0
 62
     7
 10
1725.5838488687291
 20
2324.2062084064291
 30
0.0
 11
1707.1012208608729
 21
2324.206208406431
 31
0.0
  0
LINE
  5
2400
  8
0
 62
     7
 10
1765.1664248316399
 20
1758.8422027783661
 30
0.0
 11
1736.633822846256
 21
1726.6689701511791
 31
0.0
  0
LINE
  5
2401
  8
0
 62
     7
 10
1726.583848868728
 20
1776.3080036173769
 30
0.0
 11
1746.683796823784
 21
1776.3080036173769
 31
0.0
  0
LINE
  5
2402
  8
0
 62
     7
 10
1746.683796823784
 20
1776.3080036173769
 30
0.0
 11
1746.683796823784
 21
1758.8422027783661
 31
0.0
  0
LINE
  5
2403
  8
0
 62
     7
 10
1746.683796823784
 20
1758.8422027783661
 30
0.0
 11
1765.1664248316399
 21
1758.8422027783661
 31
0.0
  0
LINE
  5
2404
  8
0
 62
     7
 10
1708.1012208608711
 20
1758.8422027783661
 30
0.0
 11
1736.633822846256
 21
1726.6689701511791
 31
0.0
  0
LINE
  5
2405
  8
0
 62
     7
 10
1726.583848868728
 20
1776.3080036173769
 30
0.0
 11
1726.583848868728
 21
1758.8422027783661
 31
0.0
  0
LINE
  5
2406
  8
0
 62
     7
 10
1726.583848868728
 20
1758.8422027783661
 30
0.0
 11
1708.1012208608711
 21
1758.8422027783661
 31
0.0
  0
LINE
  5
30F6
  8
0
 62
     7
 10
3890.000000000156
 20
0.0
 30
0.0
 11
860.69435074341663
 21
0.0
 31
0.0
  0
LINE
  5
30F7
  8
0
 62
     7
 10
860.69435074341663
 20
0.0
 30
0.0
 11
860.69435074341663
 21
2668.5147229613071
 31
0.0
  0
LINE
  5
30F8
  8
0
 62
     7
 10
860.69435074341663
 20
2668.5147229613081
 30
0.0
 11
3890.000000000156
 21
2668.5147229613081
 31
0.0
  0
LINE
  5
30F9
  8
0
 62
     7
 10
3890.000000000156
 20
2668.5147229613081
 30
0.0
 11
3890.000000000156
 21
0.0
 31
0.0
  0
TEXT
  5
3AC8
  8
0
 62
     7
 10
918.51797040702866
 20
51.50540564507029
 30
0.0
 40
33.599999999996733
  1
available on request
  7
TITLE3
  0
TEXT
  5
3AC9
  8
0
 62
     7
 10
918.51797040702866
 20
109.10540564506459
 30
0.0
 40
33.599999999996733
  1
Certified dimensions
  7
TITLE3
  0
TEXT
  5
3ACA
  8
0
 62
     7
 10
918.51797040702866
 20
166.70540564505899
 30
0.0
 40
33.599999999996733
  1
without notice or obligation.
  7
TITLE3
  0
TEXT
  5
3ACB
  8
0
 62
     7
 10
918.51797040702866
 20
224.3054056450533
 30
0.0
 40
33.599999999996733
  1
specifications at any time
  7
TITLE3
  0
TEXT
  5
3ACC
  8
0
 62
     7
 10
918.51797040702866
 20
281.90540564504778
 30
0.0
 40
33.599999999996733
  1
the right to change 
  7
TITLE3
  0
TEXT
  5
3ACD
  8
0
 62
     7
 10
918.51797040702866
 20
397.10540564503611
 30
0.0
 40
33.599999999996733
  1
NOTE
  7
TITLE3
  0
TEXT
  5
3ACE
  8
0
 62
     7
 10
918.51797040702866
 20
339.50540564504212
 30
0.0
 40
33.599999999996733
  1
The manufacturer reserves
  7
TITLE3
  0
TEXT
  5
430A
  8
0
 62
     7
 10
2411.1741575999599
 20
1924.5196667207481
 30
0.0
 40
25.0
  1
ELECTRIC
  7
TITLE3
  0
TEXT
  5
430B
  8
0
 62
     7
 10
2411.1741575999599
 20
1882.85300005408
 30
0.0
 40
25.0
  1
BOX
  7
TITLE3
  0
SOLID
  5
430C
  8
0
 62
     7
 10
2321.418492676607
 20
1891.911272728785
 30
0.0
 11
2292.1514907389951
 21
1883.638268583748
 31
0.0
 12
2317.153356092399
 22
1900.956083943953
 32
0.0
 13
2317.153356092399
 23
1900.956083943953
 33
0.0
  0
TEXT
  5
4438
  8
0
 62
     7
 10
2564.0397805119551
 20
346.72214982266092
 30
0.0
 40
62.5
  1
temperzone ISD 114KY
 41
1.162430980580011
  7
TITLE5
 72
     5
 11
3812.9611614327409
 21
346.72214982266092
 31
0.0
  0
TEXT
  5
4439
  8
0
 62
     7
 10
3315.000000000156
 20
87.5
 30
0.0
 40
37.5
  1
ISD 114KY
 41
1.2929936305732479
  7
TITLE3
 72
     5
 11
3677.500000000156
 21
87.5
 31
0.0
  0
TEXT
  5
443A
  8
0
 62
     7
 10
2748.958007352584
 20
137.5
 30
0.0
 40
37.5
  1
03-10-11
 41
0.7516778523489951
  7
TITLE3
 72
     5
 11
2948.9580073525849
 21
137.5
 31
0.0
  0
TEXT
  5
443B
  8
0
 62
     7
 10
2583.941228961347
 20
138.53901732512611
 30
0.0
 40
30.0
  1
Date
  7
SIMPLEX
  0
TEXT
  5
443C
  8
0
 62
     7
 10
3710.1389904671569
 20
161.879127529264
 30
0.0
 40
30.0
  1
Revision
 41
0.7812095035934841
  7
SIMPLEX
 72
     5
 11
3841.828592501487
 21
161.879127529264
 31
0.0
  0
LINE
  5
443D
  8
0
 62
     7
 10
3695.614187487854
 20
26.053116060396409
 30
0.0
 11
3695.614187487854
 21
210.3358196356829
 31
0.0
  0
LINE
  5
443E
  8
0
 62
     7
 10
2551.6894118215901
 20
433.29949611692632
 30
0.0
 11
2551.6894118215901
 21
26.053116060396409
 31
0.0
  0
LINE
  5
443F
  8
0
 62
     7
 10
3298.6420975165261
 20
26.053116060396409
 30
0.0
 11
3298.6420975165261
 21
210.3358196356829
 31
0.0
  0
LINE
  5
4440
  8
0
 62
     7
 10
3298.6420975165261
 20
116.6407490868297
 30
0.0
 11
2551.6894118215901
 21
116.6407490868297
 31
0.0
  0
LINE
  5
4441
  8
0
 62
     7
 10
3854.4693315474578
 20
210.3358196356829
 30
0.0
 11
2551.6894118215901
 21
210.3358196356829
 31
0.0
  0
LINE
  5
4442
  8
0
 62
     7
 10
2551.6894118215901
 20
26.053116060396409
 30
0.0
 11
3854.0974475745211
 21
26.053116060396409
 31
0.0
  0
LINE
  5
4443
  8
0
 62
     7
 10
3854.0974475745211
 20
26.053116060396409
 30
0.0
 11
3854.0974475745211
 21
433.29949611692632
 31
0.0
  0
LINE
  5
4444
  8
0
 62
     7
 10
3854.0974475745211
 20
433.29949611692632
 30
0.0
 11
2551.6894118215901
 21
433.29949611692632
 31
0.0
  0
TEXT
  5
4445
  8
0
 62
     7
 10
2583.1040238790438
 20
59.903110081697093
 30
0.0
 40
25.0
  1
Scale
 41
1.3701747965659681
  7
SIMPLEX
 72
     5
 11
2708.7033802309238
 21
59.903110081697093
 31
0.0
  0
TEXT
  5
4446
  8
0
 62
     7
 10
3371.0739045011542
 20
161.1167893833869
 30
0.0
 40
25.0
  1
Drawing No.
  7
SIMPLEX
 72
     2
 11
3588.9310473582959
 21
161.1167893833869
 31
0.0
  0
TEXT
  5
444B
  8
0
 62
     7
 10
2766.9599802419848
 20
58.608558680249381
 30
0.0
 40
37.5
  1
1:10
  7
TITLE3
  0
LINE
  5
446A
  8
0
 62
     7
 10
2319.2859243845028
 20
1896.433678336371
 30
0.0
 11
2361.1741575999608
 21
1916.1863333874139
 31
0.0
  0
LINE
  5
446B
  8
0
 62
     7
 10
2361.1741575999608
 20
1916.1863333874139
 30
0.0
 11
2391.1741575999599
 21
1916.1863333874139
 31
0.0
  0
LINE
  5
50D1
  8
0
 10
1219.9014907389951
 20
2375.6501991520772
 30
0.0
 11
2266.2014907389948
 21
2375.6501991520772
 31
0.0
  0
LINE
  5
50D2
  8
0
 10
2266.2014907389948
 20
2375.6501991520772
 30
0.0
 11
2266.2014907389948
 21
2122.7001991520769
 31
0.0
  0
LINE
  5
50D3
  8
0
 10
1199.9514907389951
 20
2122.7001991520769
 30
0.0
 11
2286.1514907389951
 21
2122.7001991520769
 31
0.0
  0
LINE
  5
50D6
  8
0
 10
1219.9014907389951
 20
2375.6501991520772
 30
0.0
 11
1219.9014907389951
 21
2122.7001991520769
 31
0.0
  0
LINE
  5
50D9
  8
0
 10
1265.051490738995
 20
2434.6501991520772
 30
0.0
 11
2197.0514907389952
 21
2434.6501991520772
 31
0.0
  0
LINE
  5
50DA
  8
0
 10
1265.051490738995
 20
2434.6501991520772
 30
0.0
 11
1265.051490738995
 21
2375.6501991520772
 31
0.0
  0
LINE
  5
50DB
  8
0
 10
2197.0514907389952
 20
2434.6501991520772
 30
0.0
 11
2197.0514907389952
 21
2375.6501991520772
 31
0.0
  0
LINE
  5
50DC
  8
0
 10
1199.9514907389951
 20
2385.600199152077
 30
0.0
 11
1199.9514907389951
 21
2374.1501991520781
 31
0.0
  0
LINE
  5
50DD
  8
0
 10
2286.1514907389951
 20
2385.600199152077
 30
0.0
 11
2286.1514907389951
 21
2374.1501991520781
 31
0.0
  0
LINE
  5
50DE
  8
0
 10
1199.9514907389951
 20
2385.600199152077
 30
0.0
 11
1265.051490738995
 21
2385.600199152077
 31
0.0
  0
LINE
  5
50DF
  8
0
 10
2197.0514907389952
 20
2385.600199152077
 30
0.0
 11
2286.1514907389951
 21
2385.600199152077
 31
0.0
  0
LINE
  5
50E1
  8
0
 10
2314.1514907389951
 20
2354.8501991520779
 30
0.0
 11
2314.1514907389951
 21
2336.8501991520779
 31
0.0
  0
LINE
  5
50E2
  8
0
 10
2295.7014907389948
 20
2353.850199152077
 30
0.0
 11
2298.1514907389951
 21
2353.850199152077
 31
0.0
  0
LINE
  5
50E3
  8
0
 10
2266.2014907389948
 20
2337.850199152077
 30
0.0
 11
2298.1514907389951
 21
2337.850199152077
 31
0.0
  0
LINE
  5
50E4
  8
0
 10
2298.1514907389951
 20
2354.8501991520779
 30
0.0
 11
2298.1514907389951
 21
2350.600199152077
 31
0.0
  0
LINE
  5
50E5
  8
0
 10
2298.1514907389951
 20
2354.8501991520779
 30
0.0
 11
2314.1514907389951
 21
2354.8501991520779
 31
0.0
  0
LINE
  5
50E6
  8
0
 10
2298.1514907389951
 20
2336.8501991520779
 30
0.0
 11
2314.1514907389951
 21
2336.8501991520779
 31
0.0
  0
LINE
  5
50E7
  8
0
 10
2286.1514907389951
 20
2337.850199152077
 30
0.0
 11
2286.1514907389951
 21
2160.7601991520769
 31
0.0
  0
LINE
  5
50E8
  8
0
 10
2295.7014907389948
 20
2350.600199152077
 30
0.0
 11
2304.6514907389951
 21
2350.600199152077
 31
0.0
  0
LINE
  5
50E9
  8
0
 10
2266.2014907389948
 20
2341.100199152077
 30
0.0
 11
2304.6514907389951
 21
2341.100199152077
 31
0.0
  0
LINE
  5
50EA
  8
0
 10
2304.6514907389951
 20
2351.600199152077
 30
0.0
 11
2304.6514907389951
 21
2340.1001991520779
 31
0.0
  0
LINE
  5
50EB
  8
0
 10
2304.6514907389951
 20
2351.600199152077
 30
0.0
 11
2314.1514907389951
 21
2351.600199152077
 31
0.0
  0
LINE
  5
50EC
  8
0
 10
2304.6514907389951
 20
2340.1001991520779
 30
0.0
 11
2314.1514907389951
 21
2340.1001991520779
 31
0.0
  0
LINE
  5
50ED
  8
0
 10
2298.1514907389951
 20
2341.100199152077
 30
0.0
 11
2298.1514907389951
 21
2336.8501991520779
 31
0.0
  0
LINE
  5
513A
  8
0
 10
2314.1514907389951
 20
2262.1751991520769
 30
0.0
 11
2314.1514907389951
 21
2246.1751991520769
 31
0.0
  0
LINE
  5
513C
  8
0
 10
2286.1514907389951
 20
2262.1751991520791
 30
0.0
 11
2314.1514907389951
 21
2262.1751991520791
 31
0.0
  0
LINE
  5
513D
  8
0
 10
2286.1514907389951
 20
2246.1751991520791
 30
0.0
 11
2314.1514907389951
 21
2246.1751991520769
 31
0.0
  0
LINE
  5
513F
  8
0
 10
2266.2014907389948
 20
2160.7601991520769
 30
0.0
 11
2308.1454907389948
 21
2160.7601991520769
 31
0.0
  0
LINE
  5
5140
  8
0
 10
2266.2014907389948
 20
2140.760199152076
 30
0.0
 11
2308.1454907389948
 21
2140.7601991520769
 31
0.0
  0
LINE
  5
5141
  8
0
 10
2308.1454907389948
 20
2160.7601991520769
 30
0.0
 11
2308.1454907389948
 21
2140.7601991520769
 31
0.0
  0
LINE
  5
5142
  8
0
 10
2286.1514907389951
 20
2140.7601991520769
 30
0.0
 11
2286.1514907389951
 21
2122.7001991520769
 31
0.0
  0
LINE
  5
518F
  8
0
 10
2295.7014907389948
 20
2374.1501991520781
 30
0.0
 11
2295.7014907389948
 21
2346.1501991520772
 31
0.0
  0
LINE
  5
5190
  8
0
 10
2266.2014907389948
 20
2374.1501991520781
 30
0.0
 11
2295.7014907389948
 21
2374.1501991520781
 31
0.0
  0
LINE
  5
5191
  8
0
 10
2266.2014907389948
 20
2346.1501991520772
 30
0.0
 11
2295.7014907389948
 21
2346.1501991520772
 31
0.0
  0
POINT
  5
5193
  8
0
 10
2281.7014907389948
 20
2360.1501991520772
 30
0.0
  0
LINE
  5
51E5
  8
0
 10
1219.9014907389951
 20
2374.1501991520781
 30
0.0
 11
1190.4014907389951
 21
2374.1501991520781
 31
0.0
  0
LINE
  5
51E6
  8
0
 10
1219.9014907389951
 20
2346.1501991520772
 30
0.0
 11
1190.4014907389951
 21
2346.1501991520772
 31
0.0
  0
LINE
  5
51E7
  8
0
 10
1190.4014907389951
 20
2374.1501991520781
 30
0.0
 11
1190.4014907389951
 21
2346.1501991520772
 31
0.0
  0
POINT
  5
51E8
  8
0
 10
1204.4014907389951
 20
2360.1501991520772
 30
0.0
 50
180.0
  0
LINE
  5
51EE
  8
0
 10
1199.9514907389951
 20
2346.1501991520772
 30
0.0
 11
1199.9514907389951
 21
2122.7001991520769
 31
0.0
  0
LINE
  5
5287
  8
0
 10
2205.3414907389929
 20
2122.7001991520769
 30
0.0
 11
2205.3414907389952
 21
1697.488199152077
 31
0.0
  0
LINE
  5
5288
  8
0
 10
1232.851490738994
 20
1697.488199152077
 30
0.0
 11
2205.3414907389929
 21
1697.488199152077
 31
0.0
  0
LINE
  5
5289
  8
0
 10
1232.851490738994
 20
2122.7001991520769
 30
0.0
 11
1232.851490738994
 21
1697.488199152077
 31
0.0
  0
LINE
  5
528A
  8
0
 10
1238.801490738995
 20
1697.488199152077
 30
0.0
 11
1238.801490738995
 21
1650.6521991520769
 31
0.0
  0
LINE
  5
528B
  8
0
 10
1238.801490738995
 20
1650.6521991520769
 30
0.0
 11
2203.3914907389949
 21
1650.6521991520769
 31
0.0
  0
LINE
  5
528D
  8
0
 10
2203.3914907389949
 20
1697.488199152077
 30
0.0
 11
2203.3914907389949
 21
1650.6521991520769
 31
0.0
  0
LINE
  5
528F
  8
0
 10
2205.3414907389952
 20
1729.938199152077
 30
0.0
 11
2234.8414907389952
 21
1729.938199152077
 31
0.0
  0
LINE
  5
5290
  8
0
 10
2205.3414907389952
 20
1701.938199152077
 30
0.0
 11
2234.8414907389952
 21
1701.938199152077
 31
0.0
  0
LINE
  5
5291
  8
0
 10
2234.8414907389952
 20
1729.938199152077
 30
0.0
 11
2234.8414907389952
 21
1701.938199152077
 31
0.0
  0
POINT
  5
5292
  8
0
 10
2220.8414907389952
 20
1715.938199152077
 30
0.0
  0
LINE
  5
5293
  8
0
 10
1232.851490738994
 20
1729.938199152077
 30
0.0
 11
1207.3514907389949
 21
1729.938199152077
 31
0.0
  0
LINE
  5
5294
  8
0
 10
1232.851490738994
 20
1701.938199152077
 30
0.0
 11
1207.3514907389949
 21
1701.938199152077
 31
0.0
  0
LINE
  5
5295
  8
0
 10
1207.3514907389949
 20
1729.938199152077
 30
0.0
 11
1207.3514907389949
 21
1701.938199152077
 31
0.0
  0
POINT
  5
5296
  8
0
 10
1221.3514907389949
 20
1715.938199152077
 30
0.0
 50
180.0
  0
LINE
  5
52E3
  8
0
 10
2292.1514907389951
 20
2071.4801991520771
 30
0.0
 11
2292.1514907389951
 21
1738.938199152077
 31
0.0
  0
LINE
  5
52E4
  8
0
 10
2205.3414907389929
 20
1738.938199152077
 30
0.0
 11
2292.1514907389951
 21
1738.938199152077
 31
0.0
  0
LINE
  5
52E5
  8
0
 10
2205.3414907389929
 20
2071.4801991520771
 30
0.0
 11
2292.1514907389951
 21
2071.4801991520771
 31
0.0
  0
LINE
  5
536B
  8
0
 10
3503.0786195327919
 20
1044.162332160872
 30
0.0
 11
3503.0786195327919
 21
649.16233216087198
 31
0.0
  0
LINE
  5
536C
  8
0
 10
3250.1286195327898
 20
1044.162332160872
 30
0.0
 11
3250.1286195327898
 21
624.16233216087187
 31
0.0
  0
LINE
  5
536D
  8
0
 10
3513.0286195327908
 20
624.16233216087198
 30
0.0
 11
3250.1286195327898
 21
624.16233216087198
 31
0.0
  0
LINE
  5
536E
  8
0
 10
3503.0786195327919
 20
1044.162332160872
 30
0.0
 11
3501.5786195327919
 21
1044.162332160872
 31
0.0
  0
LINE
  5
536F
  8
0
 10
3513.0286195327908
 20
649.16233216087232
 30
0.0
 11
3513.0286195327908
 21
624.16233216087198
 31
0.0
  0
LINE
  5
5370
  8
0
 10
3513.0286195327908
 20
649.16233216087198
 30
0.0
 11
3290.88861953279
 21
649.16233216087198
 31
0.0
  0
LINE
  5
5371
  8
0
 10
3562.078619532791
 20
1026.5423321608721
 30
0.0
 11
3562.078619532791
 21
671.1623321608721
 31
0.0
  0
LINE
  5
5372
  8
0
 10
3562.078619532791
 20
671.1623321608721
 30
0.0
 11
3503.0786195327919
 21
671.1623321608721
 31
0.0
  0
LINE
  5
5373
  8
0
 10
3562.078619532791
 20
1026.5423321608721
 30
0.0
 11
3503.0786195327901
 21
1026.5423321608721
 31
0.0
  0
CIRCLE
  5
53C2
  8
0
 10
3381.6036195327902
 20
632.99833216087211
 30
0.0
 40
8.0
  0
ARC
  5
5412
  8
0
 10
3278.1886195327911
 20
649.16233216087198
 30
0.0
 40
12.699999999999999
 50
180.0
 51
0.0
  0
LINE
  5
5413
  8
0
 10
3265.4886195327908
 20
649.16233216087198
 30
0.0
 11
3250.1286195327898
 21
649.16233216087198
 31
0.0
  0
CIRCLE
  5
5415
  8
0
 10
3278.1886195327911
 20
649.82633216087231
 30
0.0
 40
10.0
  0
CIRCLE
  5
5466
  8
0
 10
3473.2786195327922
 20
686.80233216087197
 30
0.0
 40
9.0
  0
CIRCLE
  5
5467
  8
0
 10
3473.2786195327922
 20
736.80233216087197
 30
0.0
 40
5.75
  0
LINE
  5
54B4
  8
0
 10
3501.5786195327919
 20
1046.862332160872
 30
0.0
 11
3501.5786195327919
 21
959.76233216087235
 31
0.0
  0
LINE
  5
54B5
  8
0
 10
3473.578619532791
 20
1046.862332160872
 30
0.0
 11
3473.578619532791
 21
959.76233216087235
 31
0.0
  0
LINE
  5
54B6
  8
0
 10
3473.578619532791
 20
959.76233216087235
 30
0.0
 11
3501.5786195327919
 21
959.76233216087235
 31
0.0
  0
LINE
  5
54B7
  8
0
 10
3473.578619532791
 20
1046.862332160872
 30
0.0
 11
3501.5786195327919
 21
1046.862332160872
 31
0.0
  0
LINE
  5
54B8
  8
0
 10
3473.578619532791
 20
1044.362332160872
 30
0.0
 11
3501.5786195327919
 21
1044.362332160872
 31
0.0
  0
LINE
  5
54BB
  8
0
 10
3487.578619532791
 20
1039.362332160872
 30
0.0
 11
3487.578619532791
 21
1051.862332160872
 31
0.0
  0
LINE
  5
54BD
  8
0
 10
3473.578619532791
 20
1044.162332160872
 30
0.0
 11
3250.1286195327898
 21
1044.162332160872
 31
0.0
  0
CIRCLE
  5
54CA
  8
0
 10
3487.578619532791
 20
968.26233216087235
 30
0.0
 40
7.8499999999999988
  0
CIRCLE
  5
54CB
  8
0
 10
3487.578619532791
 20
1018.262332160872
 30
0.0
 40
6.0
  0
CIRCLE
  5
54CC
  8
0
 10
3487.578619532791
 20
998.26233216087235
 30
0.0
 40
7.8499999999999988
  0
LINE
  5
551A
  8
0
 10
3250.1286195327898
 20
635.11233216087226
 30
0.0
 11
2824.9166195327912
 21
635.11233216087226
 31
0.0
  0
LINE
  5
551B
  8
0
 10
2824.9166195327912
 20
1033.2123321608719
 30
0.0
 11
2824.9166195327912
 21
635.11233216087226
 31
0.0
  0
LINE
  5
551C
  8
0
 10
3250.1286195327898
 20
1033.2123321608719
 30
0.0
 11
2857.3666195327919
 21
1033.2123321608719
 31
0.0
  0
LINE
  5
551D
  8
0
 10
2824.9166195327912
 20
641.06233216087207
 30
0.0
 11
2778.0806195327918
 21
641.06233216087207
 31
0.0
  0
LINE
  5
551E
  8
0
 10
2778.0806195327918
 20
903.05533216087235
 30
0.0
 11
2778.0806195327918
 21
641.06233216087207
 31
0.0
  0
LINE
  5
551F
  8
0
 10
2824.9166195327912
 20
903.05533216087235
 30
0.0
 11
2778.0806195327918
 21
903.05533216087235
 31
0.0
  0
LINE
  5
5520
  8
0
 10
2866.3666195327928
 20
1028.477332160872
 30
0.0
 11
2866.3666195327892
 21
639.88733216087212
 31
0.0
  0
LINE
  5
5521
  8
0
 10
3198.9086195327918
 20
1028.477332160872
 30
0.0
 11
3198.9086195327918
 21
639.88733216087212
 31
0.0
  0
LINE
  5
5522
  8
0
 10
3198.9086195327918
 20
639.88733216087212
 30
0.0
 11
2866.3666195327892
 21
639.88733216087212
 31
0.0
  0
LINE
  5
5523
  8
0
 10
3198.9086195327918
 20
1028.477332160872
 30
0.0
 11
2866.3666195327928
 21
1028.477332160872
 31
0.0
  0
LINE
  5
5524
  8
0
 10
2858.8666195327919
 20
1044.162332160872
 30
0.0
 11
2857.3666195327919
 21
1044.162332160872
 31
0.0
  0
LINE
  5
5525
  8
0
 10
2857.3666195327919
 20
1046.862332160872
 30
0.0
 11
2857.3666195327919
 21
959.76233216087235
 31
0.0
  0
LINE
  5
5526
  8
0
 10
2829.366619532791
 20
1046.862332160872
 30
0.0
 11
2829.366619532791
 21
959.76233216087235
 31
0.0
  0
LINE
  5
5527
  8
0
 10
2829.366619532791
 20
959.76233216087235
 30
0.0
 11
2857.3666195327919
 21
959.76233216087235
 31
0.0
  0
LINE
  5
5528
  8
0
 10
2829.366619532791
 20
1046.862332160872
 30
0.0
 11
2857.3666195327919
 21
1046.862332160872
 31
0.0
  0
LINE
  5
5529
  8
0
 10
2829.366619532791
 20
1044.362332160872
 30
0.0
 11
2857.3666195327919
 21
1044.362332160872
 31
0.0
  0
LINE
  5
552A
  8
0
 10
2843.3666195327919
 20
1039.362332160872
 30
0.0
 11
2843.3666195327919
 21
1051.862332160872
 31
0.0
  0
CIRCLE
  5
552B
  8
0
 10
2843.3666195327919
 20
968.26233216087235
 30
0.0
 40
7.8499999999999988
  0
CIRCLE
  5
552C
  8
0
 10
2843.3666195327919
 20
1018.262332160872
 30
0.0
 40
6.0
  0
CIRCLE
  5
552D
  8
0
 10
2843.3666195327919
 20
998.26233216087235
 30
0.0
 40
7.8499999999999988
  0
LINE
  5
552E
  8
0
 10
2829.366619532791
 20
1033.2123321608719
 30
0.0
 11
2824.9166195327912
 21
1033.2123321608719
 31
0.0
  0
LINE
  5
557B
  8
0
 10
2286.1514907389951
 20
624.16233216087198
 30
0.0
 11
1199.9514907389951
 21
624.16233216087198
 31
0.0
  0
LINE
  5
557C
  8
0
 10
2266.2014907389948
 20
1044.162332160872
 30
0.0
 11
2207.8414907389952
 21
1044.162332160872
 31
0.0
  0
LINE
  5
557D
  8
0
 10
2266.2014907389948
 20
1046.862332160872
 30
0.0
 11
2266.2014907389948
 21
1028.477332160872
 31
0.0
  0
LINE
  5
557E
  8
0
 10
1199.9514907389951
 20
649.16233216087198
 30
0.0
 11
1199.9514907389951
 21
624.16233216087198
 31
0.0
  0
LINE
  5
5580
  8
0
 10
2286.1514907389951
 20
639.88733216087212
 30
0.0
 11
2286.1514907389951
 21
624.16233216087198
 31
0.0
  0
LINE
  5
5581
  8
0
 10
1219.9014907389951
 20
1044.362332160872
 30
0.0
 11
1219.9014907389951
 21
624.16233216087198
 31
0.0
  0
LINE
  5
5582
  8
0
 10
1219.9014907389951
 20
649.16233216087198
 30
0.0
 11
1199.9514907389951
 21
649.16233216087198
 31
0.0
  0
LINE
  5
55D0
  8
0
 10
2292.1514907389951
 20
678.80233216087163
 30
0.0
 11
2298.1514907389951
 21
678.80233216087163
 31
0.0
  0
LINE
  5
55D1
  8
0
 10
2298.1514907389951
 20
677.80233216087208
 30
0.0
 11
2314.1514907389951
 21
677.80233216087208
 31
0.0
  0
LINE
  5
55D2
  8
0
 10
2292.1514907389951
 20
694.80233216087208
 30
0.0
 11
2298.1514907389951
 21
694.80233216087208
 31
0.0
  0
LINE
  5
55D3
  8
0
 10
2298.1514907389951
 20
695.80233216087197
 30
0.0
 11
2314.1514907389951
 21
695.80233216087197
 31
0.0
  0
LINE
  5
55D4
  8
0
 10
2314.1514907389951
 20
695.80233216087197
 30
0.0
 11
2314.1514907389951
 21
677.80233216087208
 31
0.0
  0
LINE
  5
55D6
  8
0
 10
2298.1514907389951
 20
695.80233216087197
 30
0.0
 11
2298.1514907389951
 21
677.80233216087208
 31
0.0
  0
LINE
  5
55D8
  8
0
 10
2292.1514907389951
 20
732.05233216087231
 30
0.0
 11
2304.6514907389951
 21
732.05233216087254
 31
0.0
  0
LINE
  5
55D9
  8
0
 10
2304.6514907389951
 20
731.05233216087186
 30
0.0
 11
2314.1514907389951
 21
731.05233216087186
 31
0.0
  0
LINE
  5
55DA
  8
0
 10
2292.1514907389951
 20
741.55233216087231
 30
0.0
 11
2304.6514907389951
 21
741.55233216087254
 31
0.0
  0
LINE
  5
55DB
  8
0
 10
2304.6514907389951
 20
742.55233216087208
 30
0.0
 11
2314.1514907389951
 21
742.55233216087208
 31
0.0
  0
LINE
  5
55DC
  8
0
 10
2304.6514907389951
 20
742.55233216087208
 30
0.0
 11
2304.6514907389951
 21
731.05233216087186
 31
0.0
  0
LINE
  5
55DD
  8
0
 10
2314.1514907389951
 20
742.55233216087208
 30
0.0
 11
2314.1514907389951
 21
731.05233216087186
 31
0.0
  0
LINE
  5
562B
  8
0
 10
2286.1514907389951
 20
624.99833216087245
 30
0.0
 11
2314.1514907389951
 21
624.99833216087211
 31
0.0
  0
LINE
  5
562C
  8
0
 10
2308.1454907389948
 20
640.99833216087245
 30
0.0
 11
2314.1514907389951
 21
640.99833216087245
 31
0.0
  0
LINE
  5
562D
  8
0
 10
2314.1514907389951
 20
640.99833216087211
 30
0.0
 11
2314.1514907389951
 21
624.998332160872
 31
0.0
  0
LINE
  5
562F
  8
0
 10
2286.1514907389951
 20
639.16233216087187
 30
0.0
 11
2308.1454907389948
 21
639.1623321608721
 31
0.0
  0
LINE
  5
5630
  8
0
 10
2292.1514907389951
 20
659.1623321608721
 30
0.0
 11
2308.1454907389948
 21
659.1623321608721
 31
0.0
  0
LINE
  5
5631
  8
0
 10
2308.1454907389948
 20
659.1623321608721
 30
0.0
 11
2308.1454907389948
 21
639.1623321608721
 31
0.0
  0
LINE
  5
5689
  8
0
 10
2268.7014907389948
 20
1044.362332160872
 30
0.0
 11
2268.7014907389948
 21
1028.477332160872
 31
0.0
  0
LINE
  5
568A
  8
0
 10
2266.2014907389948
 20
1046.862332160872
 30
0.0
 11
2295.7014907389948
 21
1046.862332160872
 31
0.0
  0
LINE
  5
568B
  8
0
 10
2268.7014907389948
 20
1044.362332160872
 30
0.0
 11
2295.7014907389948
 21
1044.362332160872
 31
0.0
  0
LINE
  5
568D
  8
0
 10
2295.7014907389948
 20
1046.862332160872
 30
0.0
 11
2295.7014907389948
 21
1044.362332160872
 31
0.0
  0
LINE
  5
568F
  8
0
 10
2281.7014907389948
 20
1051.862332160872
 30
0.0
 11
2281.7014907389948
 21
1039.362332160872
 31
0.0
  0
LINE
  5
5692
  8
0
 10
1217.401490738996
 20
1044.362332160872
 30
0.0
 11
1217.401490738996
 21
959.76233216087235
 31
0.0
  0
LINE
  5
5693
  8
0
 10
1219.9014907389951
 20
1046.862332160872
 30
0.0
 11
1190.4014907389951
 21
1046.862332160872
 31
0.0
  0
LINE
  5
5694
  8
0
 10
1217.401490738996
 20
1044.362332160872
 30
0.0
 11
1190.4014907389951
 21
1044.362332160872
 31
0.0
  0
LINE
  5
5695
  8
0
 10
1219.9014907389951
 20
959.76233216087235
 30
0.0
 11
1217.401490738996
 21
959.76233216087235
 31
0.0
  0
LINE
  5
5696
  8
0
 10
1190.4014907389951
 20
1046.862332160872
 30
0.0
 11
1190.4014907389951
 21
1044.362332160872
 31
0.0
  0
LINE
  5
5697
  8
0
 10
1204.4014907389951
 20
1051.862332160872
 30
0.0
 11
1204.4014907389951
 21
1039.362332160872
 31
0.0
  0
LINE
  5
56E4
  8
0
 10
2205.3414907389929
 20
1033.2123321608719
 30
0.0
 11
2205.3414907389952
 21
635.11233216087226
 31
0.0
  0
LINE
  5
56E5
  8
0
 10
1232.851490738994
 20
1033.2123321608719
 30
0.0
 11
1232.851490738994
 21
635.11233216087226
 31
0.0
  0
LINE
  5
56E6
  8
0
 10
2205.3414907389952
 20
635.11233216087226
 30
0.0
 11
1232.851490738994
 21
635.11233216087226
 31
0.0
  0
LINE
  5
56E7
  8
0
 10
2205.3414907389929
 20
1033.2123321608719
 30
0.0
 11
1232.851490738994
 21
1033.2123321608719
 31
0.0
  0
LINE
  5
56E8
  8
0
 10
2203.3914907389949
 20
641.06233216087207
 30
0.0
 11
1238.801490738995
 21
641.06233216087207
 31
0.0
  0
LINE
  5
56E9
  8
0
 10
2203.3914907389949
 20
903.05533216087235
 30
0.0
 11
1238.801490738995
 21
903.05533216087235
 31
0.0
  0
LINE
  5
56EA
  8
0
 10
1238.801490738995
 20
903.05533216087235
 30
0.0
 11
1238.801490738995
 21
641.06233216087207
 31
0.0
  0
LINE
  5
56EB
  8
0
 10
2203.3914907389949
 20
903.05533216087235
 30
0.0
 11
2203.3914907389949
 21
641.06233216087207
 31
0.0
  0
LINE
  5
56EC
  8
0
 10
2292.1514907389951
 20
639.88733216087212
 30
0.0
 11
2205.3414907389952
 21
639.88733216087212
 31
0.0
  0
LINE
  5
56ED
  8
0
 10
2292.1514907389951
 20
1028.477332160872
 30
0.0
 11
2207.8414907389952
 21
1028.477332160872
 31
0.0
  0
LINE
  5
56EE
  8
0
 10
2292.1514907389951
 20
1028.477332160872
 30
0.0
 11
2292.1514907389951
 21
639.88733216087212
 31
0.0
  0
LINE
  5
56EF
  8
0
 10
2266.2014907389948
 20
639.88733216087212
 30
0.0
 11
2266.2014907389948
 21
624.16233216087198
 31
0.0
  0
LINE
  5
573C
  8
0
 10
1236.851490738994
 20
1046.862332160872
 30
0.0
 11
1236.851490738994
 21
959.76233216087235
 31
0.0
  0
LINE
  5
573D
  8
0
 10
1234.351490738994
 20
1044.362332160872
 30
0.0
 11
1234.351490738994
 21
959.76233216087235
 31
0.0
  0
LINE
  5
573E
  8
0
 10
1236.851490738994
 20
1046.862332160872
 30
0.0
 11
1207.3514907389949
 21
1046.862332160872
 31
0.0
  0
LINE
  5
573F
  8
0
 10
1234.351490738994
 20
1044.362332160872
 30
0.0
 11
1207.3514907389949
 21
1044.362332160872
 31
0.0
  0
LINE
  5
5740
  8
0
 10
1236.851490738994
 20
959.76233216087235
 30
0.0
 11
1234.351490738994
 21
959.76233216087235
 31
0.0
  0
LINE
  5
5741
  8
0
 10
1207.3514907389949
 20
1046.862332160872
 30
0.0
 11
1207.3514907389949
 21
1044.362332160872
 31
0.0
  0
LINE
  5
5742
  8
0
 10
1217.3514907389949
 20
1051.862332160872
 30
0.0
 11
1217.3514907389949
 21
1039.362332160872
 31
0.0
  0
LINE
  5
5744
  8
0
 10
1230.3514907389949
 20
1044.162332160872
 30
0.0
 11
1219.9014907389951
 21
1044.162332160872
 31
0.0
  0
LINE
  5
5745
  8
0
 10
2205.3414907389929
 20
1046.862332160872
 30
0.0
 11
2205.3414907389929
 21
959.76233216087235
 31
0.0
  0
LINE
  5
5746
  8
0
 10
2207.8414907389952
 20
1044.362332160872
 30
0.0
 11
2207.8414907389952
 21
959.76233216087223
 31
0.0
  0
LINE
  5
5747
  8
0
 10
2205.3414907389929
 20
1046.862332160872
 30
0.0
 11
2234.8414907389952
 21
1046.862332160872
 31
0.0
  0
LINE
  5
5748
  8
0
 10
2207.8414907389952
 20
1044.362332160872
 30
0.0
 11
2234.8414907389952
 21
1044.362332160872
 31
0.0
  0
LINE
  5
5749
  8
0
 10
2234.8414907389952
 20
1046.862332160872
 30
0.0
 11
2234.8414907389952
 21
1044.362332160872
 31
0.0
  0
LINE
  5
574A
  8
0
 10
2205.3414907389929
 20
959.76233216087235
 30
0.0
 11
2207.8414907389952
 21
959.76233216087223
 31
0.0
  0
LINE
  5
574B
  8
0
 10
2220.8414907389952
 20
1051.862332160872
 30
0.0
 11
2220.8414907389952
 21
1039.362332160872
 31
0.0
  0
LINE
  5
574C
  8
0
 10
2205.3414907389929
 20
1044.162332160872
 30
0.0
 11
1232.851490738994
 21
1044.162332160872
 31
0.0
  0
ARC
  5
574D
  8
0
  6
HIDDEN
 62
     7
 10
2227.8414907389952
 20
958.76233216087041
 30
0.0
 40
22.5
 50
180.0
 51
270.0
  0
ARC
  5
574E
  8
0
  6
HIDDEN
 62
     7
 10
2227.8414907389952
 20
958.76233216087041
 30
0.0
 40
10.0
 50
180.0
 51
270.0
  0
LINE
  5
574F
  8
0
  6
HIDDEN
 62
     7
 10
2227.8414907389952
 20
948.76233216087053
 30
0.0
 11
2270.3414907389961
 21
948.76233216087053
 31
0.0
  0
LINE
  5
5750
  8
0
  6
HIDDEN
 62
     7
 10
2234.8414907389952
 20
929.26233216087201
 30
0.0
 11
2269.8414907389952
 21
929.26233216087201
 31
0.0
  0
LINE
  5
5751
  8
0
  6
HIDDEN
 62
     7
 10
2227.8414907389952
 20
936.26233216087212
 30
0.0
 11
2270.3414907389961
 21
936.26233216087212
 31
0.0
  0
LINE
  5
5752
  8
0
  6
HIDDEN
 62
     7
 10
2270.3414907389961
 20
936.26233216087212
 30
0.0
 11
2270.3414907389961
 21
948.76233216087053
 31
0.0
  0
LINE
  5
5753
  8
0
  6
HIDDEN
 62
     7
 10
2269.8414907389952
 20
929.26233216087041
 30
0.0
 11
2269.8414907389952
 21
932.26233216087201
 31
0.0
  0
ARC
  5
5754
  8
0
  6
HIDDEN
 62
     7
 10
2265.8414907389952
 20
932.26233216087201
 30
0.0
 40
4.0
 50
0.0
 51
90.0
  0
LINE
  5
5755
  8
0
  6
HIDDEN
 62
     7
 10
2252.3414907389961
 20
929.26233216087201
 30
0.0
 11
2252.3414907389961
 21
938.93453320645767
 31
0.0
  0
LINE
  5
5756
  8
0
  6
HIDDEN
 62
     7
 10
2234.8414907389952
 20
929.26233216087041
 30
0.0
 11
2234.8414907389952
 21
932.26233216087201
 31
0.0
  0
ARC
  5
5757
  8
0
  6
HIDDEN
 62
     7
 10
2238.8414907389952
 20
932.26233216087201
 30
0.0
 40
4.0
 50
90.0
 51
180.0
  0
LINE
  5
5758
  8
0
  6
HIDDEN
 62
     7
 10
2205.3414907389929
 20
1006.26233216087
 30
0.0
 11
2217.8414907389961
 21
1006.26233216087
 31
0.0
  0
LINE
  5
5759
  8
0
  6
HIDDEN
 62
     7
 10
2217.8414907389961
 20
958.76233216087041
 30
0.0
 11
2217.8414907389961
 21
1006.26233216087
 31
0.0
  0
LINE
  5
575A
  8
0
  6
HIDDEN
 62
     7
 10
2205.3414907389929
 20
958.76233216087041
 30
0.0
 11
2205.3414907389929
 21
1006.26233216087
 31
0.0
  0
POINT
  5
575B
  8
0
  6
HIDDEN
 62
     7
 10
2252.3414907389961
 20
936.26233216087212
 30
0.0
 50
180.0
  0
ARC
  5
575D
  8
0
  6
HIDDEN
 62
     7
 10
1197.4014907389951
 20
958.76233216087007
 30
0.0
 40
22.5
 50
270.0
 51
0.000000000000007
  0
ARC
  5
575E
  8
0
  6
HIDDEN
 62
     7
 10
1197.4014907389951
 20
958.76233216087007
 30
0.0
 40
10.0
 50
270.0
 51
0.000000000000007
  0
LINE
  5
575F
  8
0
  6
HIDDEN
 62
     7
 10
1197.4014907389951
 20
948.76233216087007
 30
0.0
 11
1154.901490738994
 21
948.76233216087007
 31
0.0
  0
LINE
  5
5760
  8
0
  6
HIDDEN
 62
     7
 10
1190.4014907389951
 20
929.26233216087201
 30
0.0
 11
1155.4014907389951
 21
929.26233216087201
 31
0.0
  0
LINE
  5
5761
  8
0
  6
HIDDEN
 62
     7
 10
1197.4014907389951
 20
936.26233216087212
 30
0.0
 11
1154.901490738994
 21
936.26233216087212
 31
0.0
  0
LINE
  5
5762
  8
0
  6
HIDDEN
 62
     7
 10
1154.901490738994
 20
936.26233216087212
 30
0.0
 11
1154.901490738994
 21
948.76233216087007
 31
0.0
  0
LINE
  5
5763
  8
0
  6
HIDDEN
 62
     7
 10
1155.4014907389951
 20
929.26233216087007
 30
0.0
 11
1155.4014907389951
 21
932.26233216087201
 31
0.0
  0
ARC
  5
5764
  8
0
  6
HIDDEN
 62
     7
 10
1159.4014907389951
 20
932.26233216087201
 30
0.0
 40
4.0
 50
90.0
 51
180.0
  0
LINE
  5
5765
  8
0
  6
HIDDEN
 62
     7
 10
1172.901490738994
 20
929.26233216087201
 30
0.0
 11
1172.901490738994
 21
938.93453320645767
 31
0.0
  0
LINE
  5
5766
  8
0
  6
HIDDEN
 62
     7
 10
1190.4014907389951
 20
929.26233216087007
 30
0.0
 11
1190.4014907389951
 21
932.26233216087201
 31
0.0
  0
ARC
  5
5767
  8
0
  6
HIDDEN
 62
     7
 10
1186.4014907389951
 20
932.26233216087201
 30
0.0
 40
4.0
 50
0.000000000000007
 51
90.0
  0
LINE
  5
5768
  8
0
  6
HIDDEN
 62
     7
 10
1219.9014907389951
 20
1006.26233216087
 30
0.0
 11
1207.4014907389951
 21
1006.26233216087
 31
0.0
  0
LINE
  5
5769
  8
0
  6
HIDDEN
 62
     7
 10
1207.4014907389951
 20
958.76233216087007
 30
0.0
 11
1207.4014907389951
 21
1006.26233216087
 31
0.0
  0
LINE
  5
576A
  8
0
  6
HIDDEN
 62
     7
 10
1219.9014907389951
 20
958.76233216087007
 30
0.0
 11
1219.9014907389951
 21
1006.26233216087
 31
0.0
  0
POINT
  5
576B
  8
0
  6
HIDDEN
 62
     7
 10
1172.901490738994
 20
936.26233216087212
 30
0.0
 50
0.000000000000007
  0
ARC
  5
576C
  8
0
  6
HIDDEN
 62
     7
 10
1214.3514907389949
 20
958.76233216087041
 30
0.0
 40
22.5
 50
270.0
 51
0.000000000000007
  0
ARC
  5
576D
  8
0
  6
HIDDEN
 62
     7
 10
1214.3514907389949
 20
958.76233216087041
 30
0.0
 40
10.0
 50
270.0
 51
0.000000000000007
  0
LINE
  5
576E
  8
0
  6
HIDDEN
 62
     7
 10
1214.3514907389949
 20
948.76233216087053
 30
0.0
 11
1171.851490738994
 21
948.76233216087053
 31
0.0
  0
LINE
  5
576F
  8
0
  6
HIDDEN
 62
     7
 10
1207.3514907389949
 20
929.26233216087223
 30
0.0
 11
1172.3514907389949
 21
929.26233216087223
 31
0.0
  0
LINE
  5
5770
  8
0
  6
HIDDEN
 62
     7
 10
1214.3514907389949
 20
936.26233216087223
 30
0.0
 11
1171.851490738994
 21
936.26233216087223
 31
0.0
  0
LINE
  5
5771
  8
0
  6
HIDDEN
 62
     7
 10
1171.851490738994
 20
936.26233216087223
 30
0.0
 11
1171.851490738994
 21
948.76233216087053
 31
0.0
  0
LINE
  5
5772
  8
0
  6
HIDDEN
 62
     7
 10
1172.3514907389949
 20
929.26233216087041
 30
0.0
 11
1172.3514907389949
 21
932.26233216087201
 31
0.0
  0
ARC
  5
5773
  8
0
  6
HIDDEN
 62
     7
 10
1176.351490738994
 20
932.26233216087201
 30
0.0
 40
4.0
 50
90.0
 51
180.0
  0
LINE
  5
5774
  8
0
  6
HIDDEN
 62
     7
 10
1185.851490738994
 20
929.26233216087223
 30
0.0
 11
1185.851490738994
 21
938.93453320645824
 31
0.0
  0
LINE
  5
5775
  8
0
  6
HIDDEN
 62
     7
 10
1207.3514907389949
 20
929.26233216087041
 30
0.0
 11
1207.3514907389949
 21
932.26233216087201
 31
0.0
  0
ARC
  5
5776
  8
0
  6
HIDDEN
 62
     7
 10
1203.3514907389949
 20
932.26233216087201
 30
0.0
 40
4.0
 50
0.000000000000007
 51
90.0
  0
LINE
  5
5777
  8
0
  6
HIDDEN
 62
     7
 10
1236.8514907389949
 20
1006.26233216087
 30
0.0
 11
1224.351490738994
 21
1006.26233216087
 31
0.0
  0
LINE
  5
5778
  8
0
  6
HIDDEN
 62
     7
 10
1224.351490738994
 20
958.76233216087041
 30
0.0
 11
1224.351490738994
 21
1006.26233216087
 31
0.0
  0
LINE
  5
5779
  8
0
  6
HIDDEN
 62
     7
 10
1232.851490738994
 20
958.76233216087041
 30
0.0
 11
1232.851490738994
 21
1006.26233216087
 31
0.0
  0
POINT
  5
577A
  8
0
  6
HIDDEN
 62
     7
 10
1189.851490738994
 20
936.26233216087223
 30
0.0
 50
0.000000000000007
  0
ARC
  5
577B
  8
0
  6
HIDDEN
 62
     7
 10
2288.7014907389948
 20
958.76233216087007
 30
0.0
 40
22.5
 50
180.0
 51
270.0
  0
ARC
  5
577C
  8
0
  6
HIDDEN
 62
     7
 10
2288.7014907389948
 20
958.76233216087007
 30
0.0
 40
10.0
 50
180.0
 51
270.0
  0
LINE
  5
577D
  8
0
  6
HIDDEN
 62
     7
 10
2288.7014907389948
 20
948.76233216087007
 30
0.0
 11
2331.2014907389962
 21
948.76233216087007
 31
0.0
  0
LINE
  5
577E
  8
0
  6
HIDDEN
 62
     7
 10
2295.7014907389948
 20
929.26233216087201
 30
0.0
 11
2330.7014907389948
 21
929.26233216087201
 31
0.0
  0
LINE
  5
577F
  8
0
  6
HIDDEN
 62
     7
 10
2288.7014907389948
 20
936.26233216087212
 30
0.0
 11
2331.2014907389962
 21
936.26233216087212
 31
0.0
  0
LINE
  5
5780
  8
0
  6
HIDDEN
 62
     7
 10
2331.2014907389962
 20
936.26233216087212
 30
0.0
 11
2331.2014907389962
 21
948.76233216087007
 31
0.0
  0
LINE
  5
5781
  8
0
  6
HIDDEN
 62
     7
 10
2330.7014907389948
 20
929.26233216087007
 30
0.0
 11
2330.7014907389948
 21
932.26233216087201
 31
0.0
  0
ARC
  5
5782
  8
0
  6
HIDDEN
 62
     7
 10
2326.7014907389948
 20
932.26233216087201
 30
0.0
 40
4.0
 50
0.000000000000007
 51
90.0
  0
LINE
  5
5783
  8
0
  6
HIDDEN
 62
     7
 10
2313.2014907389962
 20
929.26233216087201
 30
0.0
 11
2313.2014907389962
 21
938.93453320645767
 31
0.0
  0
LINE
  5
5784
  8
0
  6
HIDDEN
 62
     7
 10
2295.7014907389948
 20
929.26233216087007
 30
0.0
 11
2295.7014907389948
 21
932.26233216087201
 31
0.0
  0
ARC
  5
5785
  8
0
  6
HIDDEN
 62
     7
 10
2299.7014907389948
 20
932.26233216087201
 30
0.0
 40
4.0
 50
90.0
 51
180.0
  0
LINE
  5
5786
  8
0
  6
HIDDEN
 62
     7
 10
2266.2014907389948
 20
1006.26233216087
 30
0.0
 11
2278.7014907389948
 21
1006.26233216087
 31
0.0
  0
LINE
  5
5787
  8
0
  6
HIDDEN
 62
     7
 10
2278.7014907389948
 20
958.76233216087007
 30
0.0
 11
2278.7014907389948
 21
1006.26233216087
 31
0.0
  0
LINE
  5
5788
  8
0
  6
HIDDEN
 62
     7
 10
2266.2014907389948
 20
958.76233216087007
 30
0.0
 11
2266.2014907389948
 21
1006.26233216087
 31
0.0
  0
POINT
  5
5789
  8
0
  6
HIDDEN
 62
     7
 10
2313.2014907389962
 20
936.26233216087212
 30
0.0
 50
180.0
  0
TEXT
  5
57D6
  8
0
 10
1596.9329769430169
 20
758.7444947434517
 30
0.0
 40
37.5
  1
ISD114KY
  7
TITLE3
  0
TEXT
  5
57D9
  8
0
 10
1596.9329769430169
 20
1908.321484178045
 30
0.0
 40
37.5
  1
ISD114KY
  7
TITLE3
  0
TEXT
  5
57DA
  8
0
 10
2927.0976872129741
 20
900.24687402189466
 30
0.0
 40
37.5
  1
ISD114KY
  7
TITLE3
  0
LINE
  5
57DB
  8
0
 62
     7
 10
1265.051490738995
 20
2454.6501991520781
 30
0.0
 11
1265.051490738995
 21
2520.280023042938
 31
0.0
  0
LINE
  5
57DC
  8
0
 62
     7
 10
1295.051490738995
 20
2500.2800230429361
 30
0.0
 11
1687.2045112492569
 21
2500.2800230429361
 31
0.0
  0
SOLID
  5
57DD
  8
0
 62
     7
 10
1295.051490738995
 20
2505.280023042938
 30
0.0
 11
1295.051490738995
 21
2495.280023042937
 31
0.0
 12
1265.051490738995
 22
2500.2800230429361
 32
0.0
 13
1265.051490738995
 23
2500.2800230429361
 33
0.0
  0
LINE
  5
57E1
  8
0
 62
     7
 10
2197.0514907389952
 20
2454.6501991520781
 30
0.0
 11
2197.0514907389952
 21
2520.280023042938
 31
0.0
  0
LINE
  5
57E2
  8
0
 62
     7
 10
2167.0514907389961
 20
2500.2800230429361
 30
0.0
 11
1766.371177915923
 21
2500.2800230429361
 31
0.0
  0
SOLID
  5
57E3
  8
0
 62
     7
 10
2167.0514907389961
 20
2505.280023042938
 30
0.0
 11
2167.0514907389961
 21
2495.280023042937
 31
0.0
 12
2197.0514907389952
 22
2500.2800230429361
 32
0.0
 13
2197.0514907389952
 23
2500.2800230429361
 33
0.0
  0
TEXT
  5
57EE
  8
0
 62
     7
 10
1693.455335194946
 20
2488.180023042938
 30
0.0
 40
25.0
  1
932
  0
LINE
  5
57EF
  8
0
 62
     7
 10
1238.801490738995
 20
1630.6521991520769
 30
0.0
 11
1238.801490738995
 21
1562.0439384885631
 31
0.0
  0
LINE
  5
57F0
  8
0
 62
     7
 10
1268.801490738995
 20
1582.043938488564
 30
0.0
 11
1682.326220667414
 21
1582.043938488564
 31
0.0
  0
SOLID
  5
57F1
  8
0
 62
     7
 10
1268.801490738995
 20
1587.043938488564
 30
0.0
 11
1268.801490738995
 21
1577.0439384885649
 31
0.0
 12
1238.801490738995
 22
1582.043938488564
 32
0.0
 13
1238.801490738995
 23
1582.043938488564
 33
0.0
  0
LINE
  5
57F3
  8
0
 62
     7
 10
2203.3914907389949
 20
1630.6521991520769
 30
0.0
 11
2203.3914907389949
 21
1562.0439384885631
 31
0.0
  0
LINE
  5
57F4
  8
0
 62
     7
 10
2173.391490738994
 20
1582.043938488564
 30
0.0
 11
1761.4928873340809
 21
1582.043938488564
 31
0.0
  0
SOLID
  5
57F5
  8
0
 62
     7
 10
2173.391490738994
 20
1587.043938488564
 30
0.0
 11
2173.391490738994
 21
1577.0439384885649
 31
0.0
 12
2203.3914907389949
 22
1582.043938488564
 32
0.0
 13
2203.3914907389949
 23
1582.043938488564
 33
0.0
  0
TEXT
  5
57F9
  8
0
 62
     7
 10
1688.577044613103
 20
1569.3439384885639
 30
0.0
 40
25.0
  1
965
  0
LINE
  5
57FA
  8
0
 62
     7
 10
2913.5550404436808
 20
742.83141917514513
 30
0.0
 11
2881.3818078164932
 21
771.36402116053046
 31
0.0
  0
LINE
  5
57FB
  8
0
 62
     7
 10
2931.0208412826928
 20
781.41399513805663
 30
0.0
 11
2931.0208412826928
 21
761.31404718300109
 31
0.0
  0
LINE
  5
57FC
  8
0
 62
     7
 10
2931.0208412826928
 20
761.31404718300109
 30
0.0
 11
2913.5550404436808
 21
761.31404718300109
 31
0.0
  0
LINE
  5
57FD
  8
0
 62
     7
 10
2913.5550404436808
 20
761.31404718300109
 30
0.0
 11
2913.5550404436808
 21
742.83141917514513
 31
0.0
  0
LINE
  5
57FE
  8
0
 62
     7
 10
2913.5550404436808
 20
799.89662314591351
 30
0.0
 11
2881.3818078164932
 21
771.36402116053046
 31
0.0
  0
LINE
  5
57FF
  8
0
 62
     7
 10
2931.0208412826928
 20
781.41399513805663
 30
0.0
 11
2913.5550404436808
 21
781.41399513805663
 31
0.0
  0
LINE
  5
5800
  8
0
 62
     7
 10
2913.5550404436808
 20
781.41399513805663
 30
0.0
 11
2913.5550404436808
 21
799.89662314591351
 31
0.0
  0
LINE
  5
5801
  8
0
 62
     7
 10
3468.5620376283009
 20
819.93655950172251
 30
0.0
 11
3436.3888050011151
 21
848.46916148710784
 31
0.0
  0
LINE
  5
5802
  8
0
 62
     7
 10
3486.0278384673138
 20
858.51913546463379
 30
0.0
 11
3486.0278384673138
 21
838.41918750957848
 31
0.0
  0
LINE
  5
5803
  8
0
 62
     7
 10
3486.0278384673138
 20
838.41918750957848
 30
0.0
 11
3468.5620376283009
 21
838.41918750957848
 31
0.0
  0
LINE
  5
5804
  8
0
 62
     7
 10
3468.5620376283009
 20
838.41918750957848
 30
0.0
 11
3468.5620376283009
 21
819.93655950172251
 31
0.0
  0
LINE
  5
5805
  8
0
 62
     7
 10
3468.5620376283009
 20
877.00176347249078
 30
0.0
 11
3436.3888050011151
 21
848.46916148710784
 31
0.0
  0
LINE
  5
5806
  8
0
 62
     7
 10
3486.0278384673138
 20
858.51913546463379
 30
0.0
 11
3468.5620376283009
 21
858.51913546463379
 31
0.0
  0
LINE
  5
5807
  8
0
 62
     7
 10
3468.5620376283009
 20
858.51913546463379
 30
0.0
 11
3468.5620376283009
 21
877.00176347249078
 31
0.0
  0
LINE
  5
5808
  8
0
 62
     7
 10
2758.0806195327909
 20
903.05533216087235
 30
0.0
 11
2694.542532033619
 21
903.05533216087235
 31
0.0
  0
LINE
  5
5809
  8
0
 62
     7
 10
2714.5425320336199
 20
873.05533216087224
 30
0.0
 11
2714.5425320336162
 21
812.65912758561763
 31
0.0
  0
SOLID
  5
580A
  8
0
 62
     7
 10
2709.542532033619
 20
873.05533216087224
 30
0.0
 11
2719.542532033619
 21
873.05533216087224
 31
0.0
 12
2714.5425320336199
 22
903.05533216087235
 32
0.0
 13
2714.5425320336199
 23
903.05533216087235
 33
0.0
  0
TEXT
  5
580B
  8
0
 62
     7
 10
2727.042532033619
 20
739.74328486464037
 30
0.0
 40
25.0
  1
262
 50
90.0
  0
LINE
  5
580C
  8
0
 62
     7
 10
2758.0806195327909
 20
641.06233216087207
 30
0.0
 11
2694.542532033619
 21
641.06233216087207
 31
0.0
  0
LINE
  5
580D
  8
0
 62
     7
 10
2714.542532033618
 20
671.06233216087196
 30
0.0
 11
2714.542532033618
 21
733.49246091895145
 31
0.0
  0
SOLID
  5
580E
  8
0
 62
     7
 10
2709.542532033619
 20
671.06233216087196
 30
0.0
 11
2719.542532033619
 21
671.06233216087196
 31
0.0
 12
2714.542532033618
 22
641.06233216087207
 32
0.0
 13
2714.542532033618
 23
641.06233216087207
 33
0.0
  0
LINE
  5
585C
  8
0
 62
     7
 10
3582.078619532791
 20
1026.5423321608721
 30
0.0
 11
3648.684446369421
 21
1026.5423321608721
 31
0.0
  0
LINE
  5
585D
  8
0
 62
     7
 10
3628.6844463694242
 20
996.54233216087232
 30
0.0
 11
3628.684446369421
 21
885.79960987752565
 31
0.0
  0
SOLID
  5
585E
  8
0
 62
     7
 10
3623.6844463694201
 20
996.54233216087232
 30
0.0
 11
3633.6844463694242
 21
996.54233216087232
 31
0.0
 12
3628.6844463694242
 22
1026.5423321608721
 32
0.0
 13
3628.6844463694242
 23
1026.5423321608721
 33
0.0
  0
TEXT
  5
585F
  8
0
 62
     7
 10
3641.184446369421
 20
812.88376715654772
 30
0.0
 40
25.0
  1
355
 50
90.0
  0
LINE
  5
5860
  8
0
 62
     7
 10
3582.0786195327919
 20
671.16233216087312
 30
0.0
 11
3648.6844463694219
 21
671.16233216087312
 31
0.0
  0
LINE
  5
5861
  8
0
 62
     7
 10
3628.6844463694242
 20
701.16233216087301
 30
0.0
 11
3628.6844463694242
 21
806.6329432108588
 31
0.0
  0
SOLID
  5
5862
  8
0
 62
     7
 10
3623.6844463694219
 20
701.16233216087301
 30
0.0
 11
3633.6844463694242
 21
701.16233216087301
 31
0.0
 12
3628.6844463694242
 22
671.16233216087312
 32
0.0
 13
3628.6844463694242
 23
671.16233216087312
 33
0.0
  0
LINE
  5
58B4
  8
0
 62
     7
 10
3521.578619532791
 20
1046.862332160872
 30
0.0
 11
3690.7330122880162
 21
1046.862332160872
 31
0.0
  0
LINE
  5
58B5
  8
0
 62
     7
 10
3670.7330122880171
 20
1016.862332160872
 30
0.0
 11
3670.7330122880139
 21
926.08841044381347
 31
0.0
  0
SOLID
  5
58B6
  8
0
 62
     7
 10
3665.7330122880148
 20
1016.862332160872
 30
0.0
 11
3675.7330122880171
 21
1016.862332160872
 31
0.0
 12
3670.7330122880171
 22
1046.862332160872
 32
0.0
 13
3670.7330122880171
 23
1046.862332160872
 33
0.0
  0
LINE
  5
58B8
  8
0
 62
     7
 10
3533.0286195327922
 20
624.16233216087198
 30
0.0
 11
3690.7330122880162
 21
624.16233216087198
 31
0.0
  0
LINE
  5
58B9
  8
0
 62
     7
 10
3670.733012288018
 20
654.1623321608721
 30
0.0
 11
3670.733012288018
 21
746.92174377714684
 31
0.0
  0
SOLID
  5
58BA
  8
0
 62
     7
 10
3665.7330122880148
 20
654.1623321608721
 30
0.0
 11
3675.7330122880171
 21
654.1623321608721
 31
0.0
 12
3670.733012288018
 22
624.16233216087198
 32
0.0
 13
3670.733012288018
 23
624.16233216087198
 33
0.0
  0
TEXT
  5
58BB
  8
0
 62
     7
 10
3683.2330122880171
 20
753.17256772283599
 30
0.0
 40
25.0
  1
423 O/A
 50
90.0
  0
LINE
  5
5909
  8
0
  6
PHANTOM
 62
     7
 10
2786.1514907389951
 20
1400.6521991520769
 30
0.0
 11
2786.1514907389951
 21
2385.600199152077
 31
0.0
  0
LINE
  5
590A
  8
0
  6
PHANTOM
 62
     7
 10
2786.1514907389951
 20
2385.600199152077
 30
0.0
 11
2299.7304959263838
 21
2385.600199152077
 31
0.0
  0
TEXT
  5
590B
  8
0
 62
     7
 10
2827.4412413811901
 20
1690.6826100265141
 30
0.0
 40
25.0
  1
500 mm CLEARENCE
 50
90.0
  7
TITLE3
  0
LINE
  5
590C
  8
0
  6
PHANTOM
 62
     7
 10
2203.3914907389949
 20
1400.6521991520769
 30
0.0
 11
2786.1514907389951
 21
1400.6521991520769
 31
0.0
  0
LINE
  5
590E
  8
0
  6
PHANTOM
 62
     7
 10
2203.3914907389949
 20
1400.6521991520769
 30
0.0
 11
2203.3914907389949
 21
1548.4649333011739
 31
0.0
  0
TEXT
  5
590F
  8
0
 62
     7
 10
2296.1081530257979
 20
1358.255303204239
 30
0.0
 40
25.0
  1
250 mm CLEARENCE
  7
TITLE3
  0
LINE
  5
595C
  8
0
 62
     7
 10
1199.9514907389951
 20
604.1623321608721
 30
0.0
 11
1199.9514907389951
 21
516.25069834741305
 31
0.0
  0
LINE
  5
595D
  8
0
 62
     7
 10
1229.9514907389951
 20
536.25069834741316
 30
0.0
 11
1668.1548781959809
 21
536.25069834741328
 31
0.0
  0
SOLID
  5
595E
  8
0
 62
     7
 10
1229.9514907389951
 20
541.25069834741305
 30
0.0
 11
1229.9514907389951
 21
531.25069834741305
 31
0.0
 12
1199.9514907389951
 22
536.25069834741316
 32
0.0
 13
1199.9514907389951
 23
536.25069834741316
 33
0.0
  0
LINE
  5
5960
  8
0
 62
     7
 10
2314.1514907389951
 20
604.1623321608721
 30
0.0
 11
2314.1514907389951
 21
516.25069834741305
 31
0.0
  0
LINE
  5
5961
  8
0
 62
     7
 10
2284.1514907389951
 20
536.25069834741316
 30
0.0
 11
1847.3215448626479
 21
536.25069834741328
 31
0.0
  0
SOLID
  5
5962
  8
0
 62
     7
 10
2284.1514907389951
 20
541.25069834741305
 30
0.0
 11
2284.1514907389951
 21
531.25069834741305
 31
0.0
 12
2314.1514907389951
 22
536.25069834741316
 32
0.0
 13
2314.1514907389951
 23
536.25069834741316
 33
0.0
  0
TEXT
  5
5966
  8
0
 62
     7
 10
1674.40570214167
 20
523.75069834741225
 30
0.0
 40
25.0
  1
1114 O/A
  0
LINE
  5
5967
  8
0
 62
     7
 10
2778.0806195327918
 20
621.06233216087196
 30
0.0
 11
2778.0806195327918
 21
516.25069834741305
 31
0.0
  0
LINE
  5
5968
  8
0
 62
     7
 10
2808.0806195327909
 20
536.25069834741316
 30
0.0
 11
3085.72616330764
 21
536.25069834741328
 31
0.0
  0
SOLID
  5
5969
  8
0
 62
     7
 10
2808.0806195327909
 20
541.25069834741305
 30
0.0
 11
2808.0806195327909
 21
531.25069834741305
 31
0.0
 12
2778.0806195327918
 22
536.25069834741316
 32
0.0
 13
2778.0806195327918
 23
536.25069834741316
 33
0.0
  0
LINE
  5
596A
  8
0
 62
     7
 10
3562.078619532791
 20
650.32633216087231
 30
0.0
 11
3562.078619532791
 21
516.25069834741305
 31
0.0
  0
LINE
  5
596B
  8
0
 62
     7
 10
3532.0786195327919
 20
536.25069834741316
 30
0.0
 11
3264.8928299743061
 21
536.25069834741328
 31
0.0
  0
SOLID
  5
596C
  8
0
 62
     7
 10
3532.0786195327919
 20
541.25069834741305
 30
0.0
 11
3532.0786195327919
 21
531.25069834741305
 31
0.0
 12
3562.078619532791
 22
536.25069834741316
 32
0.0
 13
3562.078619532791
 23
536.25069834741316
 33
0.0
  0
TEXT
  5
596E
  8
0
 62
     7
 10
3091.9769872533288
 20
523.75069834741225
 30
0.0
 40
25.0
  1
784 O/A
  0
LINE
  5
59BF
  8
0
 62
     7
 10
2220.8414907389952
 20
1695.938199152077
 30
0.0
 11
2220.8414907389952
 21
1517.653822581141
 31
0.0
  0
LINE
  5
59C0
  8
0
 62
     7
 10
2190.8414907389952
 20
1537.653822581143
 30
0.0
 11
1841.5150798699401
 21
1537.653822581143
 31
0.0
  0
SOLID
  5
59C1
  8
0
 62
     7
 10
2190.8414907389952
 20
1542.653822581143
 30
0.0
 11
2190.8414907389952
 21
1532.653822581143
 31
0.0
 12
2220.8414907389952
 22
1537.653822581143
 32
0.0
 13
2220.8414907389952
 23
1537.653822581143
 33
0.0
  0
LINE
  5
59C2
  8
0
 62
     7
 10
1247.3514907389949
 20
1537.653822581143
 30
0.0
 11
1595.6817465366071
 21
1537.653822581143
 31
0.0
  0
SOLID
  5
59C3
  8
0
 62
     7
 10
1251.3514907389949
 20
1542.653822581143
 30
0.0
 11
1251.3514907389949
 21
1532.653822581143
 31
0.0
 12
1221.3514907389949
 22
1537.653822581143
 32
0.0
 13
1221.3514907389949
 23
1537.653822581143
 33
0.0
  0
TEXT
  5
59C4
  8
0
 62
     7
 10
1601.932570482295
 20
1524.953822581142
 30
0.0
 40
25.0
  1
999.5 CTRS
  0
LINE
  5
5A12
  8
0
 62
     7
 10
2843.3666195327919
 20
1071.8623321608729
 30
0.0
 11
2843.3666195327919
 21
1137.4921560517321
 31
0.0
  0
LINE
  5
5A13
  8
0
 62
     7
 10
2873.3666195327919
 20
1117.4921560517309
 30
0.0
 11
3049.9782654327241
 21
1117.4921560517309
 31
0.0
  0
SOLID
  5
5A14
  8
0
 62
     7
 10
2873.3666195327919
 20
1122.4921560517321
 30
0.0
 11
2873.3666195327919
 21
1112.4921560517321
 31
0.0
 12
2843.3666195327919
 22
1117.4921560517309
 32
0.0
 13
2843.3666195327919
 23
1117.4921560517309
 33
0.0
  0
LINE
  5
5A15
  8
0
 62
     7
 10
3487.578619532791
 20
1071.8623321608729
 30
0.0
 11
3487.578619532791
 21
1137.4921560517321
 31
0.0
  0
LINE
  5
5A16
  8
0
 62
     7
 10
3457.5786195327919
 20
1117.4921560517309
 30
0.0
 11
3287.4782654327232
 21
1117.4921560517309
 31
0.0
  0
SOLID
  5
5A17
  8
0
 62
     7
 10
3457.5786195327919
 20
1122.4921560517321
 30
0.0
 11
3457.5786195327919
 21
1112.4921560517321
 31
0.0
 12
3487.578619532791
 22
1117.4921560517309
 32
0.0
 13
3487.578619532791
 23
1117.4921560517309
 33
0.0
  0
TEXT
  5
5A18
  8
0
 62
     7
 10
3056.2290893784129
 20
1105.3921560517319
 30
0.0
 40
25.0
  1
644.2 CTRS
  0
LINE
  5
5A67
  8
0
 62
     7
 10
1204.4014907389951
 20
2380.1501991520781
 30
0.0
 11
1204.4014907389951
 21
2572.9594809006189
 31
0.0
  0
LINE
  5
5A68
  8
0
 62
     7
 10
1234.4014907389951
 20
2552.959480900618
 30
0.0
 11
1626.5545112492571
 21
2552.959480900618
 31
0.0
  0
SOLID
  5
5A69
  8
0
 62
     7
 10
1234.4014907389951
 20
2557.9594809006189
 30
0.0
 11
1234.4014907389951
 21
2547.959480900618
 31
0.0
 12
1204.4014907389951
 22
2552.959480900618
 32
0.0
 13
1204.4014907389951
 23
2552.959480900618
 33
0.0
  0
TEXT
  5
5A6A
  8
0
 62
     7
 10
1632.8053351949461
 20
2540.8594809006181
 30
0.0
 40
25.0
  1
1077.3 CTRS
  0
LINE
  5
5A6C
  8
0
 62
     7
 10
2281.7014907389948
 20
2380.1501991520781
 30
0.0
 11
2281.7014907389948
 21
2572.9594809006189
 31
0.0
  0
LINE
  5
5A6D
  8
0
 62
     7
 10
2251.7014907389948
 20
2552.959480900618
 30
0.0
 11
1876.5545112492559
 21
2552.959480900618
 31
0.0
  0
SOLID
  5
5A6E
  8
0
 62
     7
 10
2251.7014907389948
 20
2557.9594809006189
 30
0.0
 11
2251.7014907389948
 21
2547.959480900618
 31
0.0
 12
2281.7014907389948
 22
2552.959480900618
 32
0.0
 13
2281.7014907389948
 23
2552.959480900618
 33
0.0
  0
LINE
  5
5ABC
  8
0
 62
     7
 10
1172.901490738994
 20
956.26233216087019
 30
0.0
 11
1172.901490738994
 21
1219.9668517125181
 31
0.0
  0
LINE
  5
5ABD
  8
0
 62
     7
 10
1202.901490738994
 20
1199.966851712519
 30
0.0
 11
1368.568488735184
 21
1199.966851712519
 31
0.0
  0
SOLID
  5
5ABE
  8
0
 62
     7
 10
1202.901490738994
 20
1204.9668517125181
 30
0.0
 11
1202.901490738994
 21
1194.9668517125181
 31
0.0
 12
1172.901490738994
 22
1199.966851712519
 32
0.0
 13
1172.901490738994
 23
1199.966851712519
 33
0.0
  0
LINE
  5
5AC0
  8
0
 62
     7
 10
2313.2014907389962
 20
956.26233216087019
 30
0.0
 11
2313.2014907389962
 21
1219.9668517125181
 31
0.0
  0
LINE
  5
5AC1
  8
0
 62
     7
 10
2283.2014907389962
 20
1199.966851712519
 30
0.0
 11
2131.068488735184
 21
1199.9668517125201
 31
0.0
  0
SOLID
  5
5AC2
  8
0
 62
     7
 10
2283.2014907389962
 20
1204.9668517125181
 30
0.0
 11
2283.2014907389962
 21
1194.9668517125181
 31
0.0
 12
2313.2014907389962
 22
1199.966851712519
 32
0.0
 13
2313.2014907389962
 23
1199.966851712519
 33
0.0
  0
TEXT
  5
5B12
  8
0
 62
     7
 10
1374.819312680874
 20
1187.4668517125181
 30
0.0
 40
25.0
  1
1133.7 (SPRING MTG CTRS - OPTION)
  0
LINE
  5
5B5F
  8
0
 62
     7
 10
1189.851490738994
 20
956.26233216086996
 30
0.0
 11
1189.851490738994
 21
1160.815077715861
 31
0.0
  0
LINE
  5
5B61
  8
0
 62
     7
 10
1219.851490738994
 20
1140.8150777158619
 30
0.0
 11
1336.3559277991351
 21
1140.8150777158619
 31
0.0
  0
SOLID
  5
5B62
  8
0
 62
     7
 10
1219.851490738994
 20
1145.815077715861
 30
0.0
 11
1219.851490738994
 21
1135.815077715861
 31
0.0
 12
1189.851490738994
 22
1140.8150777158619
 32
0.0
 13
1189.851490738994
 23
1140.8150777158619
 33
0.0
  0
TEXT
  5
5B63
  8
0
 62
     7
 10
1338.6067517448239
 20
1128.315077715861
 30
0.0
 40
25.0
  1
1062.5 (SPRING MTG CTRS - OPTION)
  0
LINE
  5
5B65
  8
0
 62
     7
 10
2252.3414907389961
 20
956.26233216087019
 30
0.0
 11
2252.3414907389961
 21
1160.815077715861
 31
0.0
  0
LINE
  5
5B66
  8
0
 62
     7
 10
2222.3414907389961
 20
1140.815077715863
 30
0.0
 11
2099.0225944658018
 21
1140.815077715863
 31
0.0
  0
SOLID
  5
5B67
  8
0
 62
     7
 10
2222.3414907389961
 20
1145.815077715861
 30
0.0
 11
2222.3414907389961
 21
1135.815077715861
 31
0.0
 12
2252.3414907389961
 22
1140.815077715863
 32
0.0
 13
2252.3414907389961
 23
1140.815077715863
 33
0.0
  0
LINE
  5
5C66
  8
0
 62
     7
 10
1221.3514907389949
 20
1695.938199152077
 30
0.0
 11
1221.3514907389949
 21
1517.653822581141
 31
0.0
  0
ENDSEC
  0
EOF
