  0
SECTION
  2
HEADER
  9
$ACADVER
  1
AC1009
  9
$INSBASE
 10
0.0
 20
0.0
 30
0.0
  9
$EXTMIN
 10
7109.7350229542244
 20
499.37736922780459
 30
0.0
  9
$EXTMAX
 10
11357.23511369673
 20
4823.1018969235538
 30
0.0
  9
$LIMMIN
 10
0.0
 20
0.0
  9
$LIMMAX
 10
7780.0
 20
5320.0
  9
$ORTHOMODE
 70
     1
  9
$REGENMODE
 70
     1
  9
$FILLMODE
 70
     1
  9
$QTEXTMODE
 70
     0
  9
$MIRRTEXT
 70
     0
  9
$DRAGMODE
 70
     2
  9
$LTSCALE
 40
100.0
  9
$OSMODE
 70
     0
  9
$ATTMODE
 70
     1
  9
$TEXTSIZE
 40
45.0
  9
$TRACEWID
 40
0.05
  9
$TEXTSTYLE
  7
TITLE3
  9
$CLAYER
  8
OUTLINE
  9
$CELTYPE
  6
BYLAYER
  9
$CECOLOR
 62
   256
  9
$DIMSCALE
 40
1.0
  9
$DIMASZ
 40
0.12
  9
$DIMEXO
 40
0.05
  9
$DIMDLI
 40
0.5
  9
$DIMRND
 40
0.0
  9
$DIMDLE
 40
0.0
  9
$DIMEXE
 40
0.1
  9
$DIMTP
 40
0.1
  9
$DIMTM
 40
0.1
  9
$DIMTXT
 40
0.12
  9
$DIMCEN
 40
0.0
  9
$DIMTSZ
 40
0.0
  9
$DIMTOL
 70
     0
  9
$DIMLIM
 70
     0
  9
$DIMTIH
 70
     1
  9
$DIMTOH
 70
     1
  9
$DIMSE1
 70
     0
  9
$DIMSE2
 70
     0
  9
$DIMTAD
 70
     0
  9
$DIMZIN
 70
     7
  9
$DIMBLK
  1

  9
$DIMASO
 70
     0
  9
$DIMSHO
 70
     0
  9
$DIMPOST
  1

  9
$DIMAPOST
  1
mm
  9
$DIMALT
 70
     0
  9
$DIMALTD
 70
     2
  9
$DIMALTF
 40
25.399999999999999
  9
$DIMLFAC
 40
1.0
  9
$DIMTOFL
 70
     0
  9
$DIMTVP
 40
0.0
  9
$DIMTIX
 70
     0
  9
$DIMSOXD
 70
     0
  9
$DIMSAH
 70
     0
  9
$DIMBLK1
  1

  9
$DIMBLK2
  1

  9
$DIMSTYLE
  2
AM_ANSI
  9
$DIMCLRD
 70
   256
  9
$DIMCLRE
 70
   256
  9
$DIMCLRT
 70
     2
  9
$DIMTFAC
 40
0.71
  9
$DIMGAP
 40
0.06
  9
$LUNITS
 70
     2
  9
$LUPREC
 70
     2
  9
$SKETCHINC
 40
0.1
  9
$FILLETRAD
 40
0.0
  9
$AUNITS
 70
     0
  9
$AUPREC
 70
     2
  9
$MENU
  1
\acad12\support\cnc
  9
$ELEVATION
 40
0.0
  9
$PELEVATION
 40
0.0
  9
$THICKNESS
 40
0.0
  9
$LIMCHECK
 70
     0
  9
$BLIPMODE
 70
     0
  9
$CHAMFERA
 40
0.0
  9
$CHAMFERB
 40
0.0
  9
$SKPOLY
 70
     0
  9
$TDCREATE
 40
2451402.5558215282
  9
$TDUPDATE
 40
2455818.7103492818
  9
$TDINDWG
 40
0.2279571528
  9
$TDUSRTIMER
 40
0.2279553009
  9
$USRTIMER
 70
     1
  9
$ANGBASE
 50
0.0
  9
$ANGDIR
 70
     0
  9
$PDMODE
 70
     2
  9
$PDSIZE
 40
15.0
  9
$PLINEWID
 40
0.0
  9
$COORDS
 70
     1
  9
$SPLFRAME
 70
     0
  9
$SPLINETYPE
 70
     6
  9
$SPLINESEGS
 70
     8
  9
$ATTDIA
 70
     1
  9
$ATTREQ
 70
     1
  9
$HANDLING
 70
     1
  9
$HANDSEED
  5
234B
  9
$SURFTAB1
 70
     6
  9
$SURFTAB2
 70
     6
  9
$SURFTYPE
 70
     6
  9
$SURFU
 70
     6
  9
$SURFV
 70
     6
  9
$UCSNAME
  2

  9
$UCSORG
 10
0.0
 20
0.0
 30
0.0
  9
$UCSXDIR
 10
1.0
 20
0.0
 30
0.0
  9
$UCSYDIR
 10
0.0
 20
1.0
 30
0.0
  9
$PUCSNAME
  2

  9
$PUCSORG
 10
0.0
 20
0.0
 30
0.0
  9
$PUCSXDIR
 10
1.0
 20
0.0
 30
0.0
  9
$PUCSYDIR
 10
0.0
 20
1.0
 30
0.0
  9
$USERI1
 70
     0
  9
$USERI2
 70
     0
  9
$USERI3
 70
     0
  9
$USERI4
 70
     0
  9
$USERI5
 70
     0
  9
$USERR1
 40
0.0
  9
$USERR2
 40
0.0
  9
$USERR3
 40
0.0
  9
$USERR4
 40
0.0
  9
$USERR5
 40
0.0
  9
$WORLDVIEW
 70
     1
  9
$SHADEDGE
 70
     3
  9
$SHADEDIF
 70
    70
  9
$TILEMODE
 70
     1
  9
$MAXACTVP
 70
    16
  9
$PLIMCHECK
 70
     0
  9
$PEXTMIN
 10
1.0000000000000000E+020
 20
1.0000000000000000E+020
 30
1.0000000000000000E+020
  9
$PEXTMAX
 10
-1.0000000000000000E+020
 20
-1.0000000000000000E+020
 30
-1.0000000000000000E+020
  9
$PLIMMIN
 10
0.0
 20
0.0
  9
$PLIMMAX
 10
12.0
 20
9.0
  9
$UNITMODE
 70
     0
  9
$VISRETAIN
 70
     0
  9
$PLINEGEN
 70
     0
  9
$PSLTSCALE
 70
     0
  0
ENDSEC
  0
SECTION
  2
TABLES
  0
TABLE
  2
VPORT
 70
     1
  0
VPORT
  2
*ACTIVE
 70
     0
 10
0.0
 20
0.0
 11
1.0
 21
1.0
 12
9233.6675363143186
 22
2661.2176637551961
 13
0.0
 23
0.0
 14
50.0
 24
50.0
 15
100.0
 25
100.0
 16
0.0
 26
0.0
 36
1.0
 17
0.0
 27
0.0
 37
0.0
 40
4351.1773643802562
 41
1.6307692307692301
 42
50.0
 43
0.0
 44
0.0
 50
0.0
 51
0.0
 71
     0
 72
   100
 73
     1
 74
     0
 75
     0
 76
     0
 77
     0
 78
     0
  0
ENDTAB
  0
TABLE
  2
LTYPE
 70
    17
  0
LTYPE
  2
CONTINUOUS
 70
     0
  3
Solid line
 72
    65
 73
     0
 40
0.0
  0
LTYPE
  2
PHANTOM
 70
     0
  3
______  __  __  ______  __  __  ______  __  __ 
 72
    65
 73
     6
 40
2.5
 49
1.25
 49
-0.25
 49
0.25
 49
-0.25
 49
0.25
 49
-0.25
  0
LTYPE
  2
HIDDEN
 70
     0
  3
Hidden __ __ __ __ __ __ __ __ __ __ __ __ __ _
 72
    65
 73
     2
 40
0.375
 49
0.25
 49
-0.125
  0
LTYPE
  2
PHANTOM2
 70
     0
  3
Phantom (.5x) ___ _ _ ___ _ _ ___ _ _ ___ _ _
 72
    65
 73
     6
 40
1.25
 49
0.625
 49
-0.125
 49
0.125
 49
-0.125
 49
0.125
 49
-0.125
  0
LTYPE
  2
CENTER
 70
     0
  3
Center ____ _ ____ _ ____ _ ____ _ ____ _ ____
 72
    65
 73
     4
 40
2.0
 49
1.25
 49
-0.25
 49
0.25
 49
-0.25
  0
LTYPE
  2
AM_ISO02W050
 70
     0
  3
__ __ __ __ __ __ __ __ __ __ __ __ __ __ __
 72
    65
 73
     2
 40
7.5
 49
6.0
 49
-1.5
  0
LTYPE
  2
AM_ISO08W050
 70
     0
  3
____ . ____ . ____ . ____ . ____ . ____ . ____
 72
    65
 73
     4
 40
18.0
 49
12.0
 49
-1.5
 49
3.0
 49
-1.5
  0
LTYPE
  2
AM_ISO09W050
 70
     0
  3
_____ . . _____ . . _____ . . ____ .. ____
 72
    65
 73
     6
 40
22.5
 49
12.0
 49
-1.5
 49
3.0
 49
-1.5
 49
3.0
 49
-1.5
  0
LTYPE
  2
AMCONSTR
 70
     0
  3
_______________________
 72
    65
 73
     2
 40
9999.0
 49
9999.0
 49
0.0
  0
LTYPE
  2
AM_ISO08W050X2
 70
     0
  3
__ . __ . __ . __ . __ . __
 72
    65
 73
     4
 40
9.0
 49
6.0
 49
-0.75
 49
1.5
 49
-0.75
  0
LTYPE
  2
AM_ISO02W050X2
 70
     0
  3
 _ _ _ _ _ _ _ _ _ _ _ _
 72
    65
 73
     2
 40
3.75
 49
3.0
 49
-0.75
  0
LTYPE
  2
AMZIGZAG
 70
     0
  3
/\/-/\/-/\/-/\/-/\/-/\/
 72
    65
 73
     2
 40
11.0001
 49
0.0001
 49
-11.0
  0
LTYPE
  2
CENTER2
 70
     0
  3
Center (.5x) ___ _ ___ _ ___ _ ___ _ ___ _ ___
 72
    65
 73
     4
 40
1.125
 49
0.75
 49
-0.125
 49
0.125
 49
-0.125
  0
LTYPE
  2
HIDDEN2
 70
     0
  3
Hidden (.5x) _ _ _ _ _ _ _ _ _ _ _ _ _ _ _ _ _
 72
    65
 73
     2
 40
0.1875
 49
0.125
 49
-0.0625
  0
LTYPE
  2
AMZIGZAG2
 70
     0
  3
/\/-/\/-/\/-/\/-/\/-/\/
 72
    65
 73
     2
 40
0.4401
 49
0.0001
 49
-0.4400000000000003
  0
LTYPE
  2
ACANSTGB
 70
     0
  3
__ . . __ . .
 72
    65
 73
     6
 40
0.35433070866
 49
0.15748031496
 49
-0.03937007874
 49
0.03937007874
 49
-0.03937007874
 49
0.03937007874
 49
-0.03937007874
  0
LTYPE
  2
ACANSTGL
 70
     0
  3
_ _ _ _ _
 72
    65
 73
     2
 40
0.11811023622
 49
0.07874015748
 49
-0.03937007874
  0
ENDTAB
  0
TABLE
  2
LAYER
 70
     7
  0
LAYER
  2
0
 70
     0
 62
     7
  6
CONTINUOUS
  0
LAYER
  2
OUTLINE
 70
     0
 62
     7
  6
CONTINUOUS
  0
LAYER
  2
TEXT
 70
     0
 62
   100
  6
CONTINUOUS
  0
LAYER
  2
DIM
 70
     0
 62
     2
  6
CONTINUOUS
  0
LAYER
  2
MTG-FEET
 70
     0
 62
    30
  6
CONTINUOUS
  0
LAYER
  2
OVERLAY-A3
 70
     0
 62
     7
  6
CONTINUOUS
  0
LAYER
  2
CLEAR
 70
     0
 62
     1
  6
PHANTOM
  0
ENDTAB
  0
TABLE
  2
STYLE
 70
     8
  0
STYLE
  2
STANDARD
 70
     0
 40
0.0
 41
1.0
 50
0.0
 71
     0
 42
0.2
  3
txt
  4

  0
STYLE
  2
ANNOTATIVE
 70
     0
 40
0.0
 41
1.0
 50
0.0
 71
     0
 42
0.2
  3
txt
  4

  0
STYLE
  2
TITLE3
 70
     0
 40
45.0
 41
1.0
 50
0.0
 71
     0
 42
45.0
  3
SIMPLEX
  4

  0
STYLE
  2
TITLE5
 70
     0
 40
75.0
 41
1.0
 50
0.0
 71
     0
 42
100.0
  3
SIMPLEX
  4

  0
STYLE
  2
SIMPLEX
 70
     0
 40
60.0
 41
1.0
 50
0.0
 71
     0
 42
60.0
  3
simplex
  4

  0
STYLE
  2

 70
     1
 40
0.0
 41
1.0
 50
0.0
 71
     0
 42
45.0
  3
genltshp.shx
  4

  0
STYLE
  2
ACANSTS
 70
     0
 40
1.0
 41
1.0
 50
0.0
 71
     0
 42
45.0
  3
romans.shx
  4

  0
STYLE
  2
ACANSGDT
 70
     0
 40
0.0
 41
1.0
 50
0.0
 71
     0
 42
45.0
  3
amgdt.shx
  4

  0
ENDTAB
  0
TABLE
  2
VIEW
 70
     0
  0
ENDTAB
  0
TABLE
  2
UCS
 70
     0
  0
ENDTAB
  0
TABLE
  2
APPID
 70
    14
  0
APPID
  2
ACAD
 70
     0
  0
APPID
  2
ACADANNOTATIVE
 70
     0
  0
APPID
  2
ACAD_PSEXT
 70
     0
  0
APPID
  2
ACAD_MLEADERVER
 70
     0
  0
APPID
  2
MCAD_NO_VIS
 70
     0
  0
APPID
  2
ACAD_TEMP_GRAPHIC
 70
     0
  0
APPID
  2
AD_DRAW
 70
     0
  0
APPID
  2
ACATTRIBSERVICES
 70
     0
  0
APPID
  2
DESIGNERASSEMBLIES
 70
     0
  0
APPID
  2
ACADM_DIM_EDIT
 70
     0
  0
APPID
  2
AMDT_DM_ADJ
 70
     0
  0
APPID
  2
ACAD_DSTYLE_DIMBREAK
 70
     0
  0
APPID
  2
ACAD_DSTYLE_DIMJAG
 70
     0
  0
APPID
  2
ACAD_EXEMPT_FROM_CAD_STANDARDS
 70
     0
  0
ENDTAB
  0
TABLE
  2
DIMSTYLE
 70
     8
  0
DIMSTYLE
  2
STANDARD
 70
     0
  3

  4

  5

  6

  7

 40
1.0
 41
0.18
 42
0.0625
 43
0.38
 44
0.18
 45
0.0
 46
0.0
 47
0.0
 48
0.0
140
0.18
141
0.09
142
0.0
143
25.399999999999999
144
1.0
145
0.0
146
1.0
147
0.09
 71
     0
 72
     0
 73
     1
 74
     1
 75
     0
 76
     0
 77
     0
 78
     0
170
     0
171
     2
172
     0
173
     0
174
     0
175
     0
176
     0
177
     0
178
     0
  0
DIMSTYLE
  2
ANNOTATIVE
 70
     0
  3

  4

  5

  6

  7

 40
1.0
 41
0.18
 42
0.0625
 43
0.38
 44
0.18
 45
0.0
 46
0.0
 47
0.0
 48
0.0
140
0.18
141
0.09
142
0.0
143
25.399999999999999
144
1.0
145
0.0
146
1.0
147
0.09
 71
     0
 72
     0
 73
     1
 74
     1
 75
     0
 76
     0
 77
     0
 78
     0
170
     0
171
     2
172
     0
173
     0
174
     0
175
     0
176
     0
177
     0
178
     0
  0
DIMSTYLE
  2
AM_ANSI
 70
     0
  3

  4
mm
  5

  6

  7

 40
1.0
 41
0.12
 42
0.05
 43
0.5
 44
0.1
 45
0.0
 46
0.0
 47
0.1
 48
0.1
140
0.12
141
0.0
142
0.0
143
25.399999999999999
144
1.0
145
0.0
146
0.71
147
0.06
 71
     0
 72
     0
 73
     1
 74
     1
 75
     0
 76
     0
 77
     0
 78
     7
170
     0
171
     2
172
     0
173
     0
174
     0
175
     0
176
   256
177
   256
178
     2
  0
DIMSTYLE
  2
AM_ANSI$3
 70
     0
  3

  4
mm
  5

  6

  7

 40
1.0
 41
0.12
 42
0.05
 43
0.5
 44
0.1
 45
0.0
 46
0.0
 47
0.1
 48
0.1
140
0.12
141
0.0
142
0.0
143
25.399999999999999
144
1.0
145
0.0
146
0.71
147
0.06
 71
     0
 72
     0
 73
     1
 74
     1
 75
     0
 76
     0
 77
     0
 78
     7
170
     0
171
     2
172
     0
173
     0
174
     0
175
     0
176
   256
177
   256
178
     2
  0
DIMSTYLE
  2
AM_ANSI$4
 70
     0
  3

  4
mm
  5

  6

  7

 40
1.0
 41
0.12
 42
0.05
 43
0.5
 44
0.1
 45
0.0
 46
0.0
 47
0.1
 48
0.1
140
0.12
141
0.0
142
0.0
143
25.399999999999999
144
1.0
145
0.0
146
0.71
147
0.06
 71
     0
 72
     0
 73
     1
 74
     1
 75
     0
 76
     0
 77
     0
 78
     7
170
     0
171
     2
172
     0
173
     0
174
     0
175
     0
176
   256
177
   256
178
     2
  0
DIMSTYLE
  2
AM_ANSI$7
 70
     0
  3

  4
mm
  5

  6

  7

 40
1.0
 41
0.12
 42
0.05
 43
0.5
 44
0.1
 45
0.0
 46
0.0
 47
0.1
 48
0.1
140
0.12
141
0.0
142
0.0
143
25.399999999999999
144
1.0
145
0.0
146
0.71
147
0.06
 71
     0
 72
     0
 73
     1
 74
     1
 75
     0
 76
     0
 77
     0
 78
     7
170
     0
171
     2
172
     0
173
     0
174
     0
175
     0
176
   256
177
   256
178
     2
  0
DIMSTYLE
  2
AM_ANSI$SF
 70
     0
  3

  4
mm
  5

  6

  7

 40
1.0
 41
0.12
 42
0.05
 43
0.5
 44
0.1
 45
0.0
 46
0.0
 47
0.1
 48
0.1
140
0.12
141
0.0
142
0.0
143
25.399999999999999
144
1.0
145
0.0
146
0.71
147
0.06
 71
     0
 72
     0
 73
     1
 74
     1
 75
     1
 76
     1
 77
     0
 78
     7
170
     0
171
     2
172
     0
173
     0
174
     0
175
     0
176
   256
177
   256
178
     2
  0
DIMSTYLE
  2
AM_ANSI$SH
 70
     0
  3

  4
mm
  5

  6

  7

 40
1.0
 41
0.12
 42
0.05
 43
0.5
 44
0.1
 45
0.0
 46
0.0
 47
0.1
 48
0.1
140
0.12
141
0.0
142
0.0
143
25.399999999999999
144
1.0
145
0.0
146
0.71
147
0.06
 71
     0
 72
     0
 73
     1
 74
     1
 75
     1
 76
     1
 77
     0
 78
     7
170
     0
171
     2
172
     0
173
     1
174
     0
175
     0
176
   256
177
   256
178
     2
  0
ENDTAB
  0
ENDSEC
  0
SECTION
  2
BLOCKS
  0
BLOCK
  8
0
  2
$MODEL_SPACE
 70
     0
 10
0.0
 20
0.0
 30
0.0
  3
$MODEL_SPACE
  1

  0
ENDBLK
  5
2252
  8
0
  0
BLOCK
 67
     1
  8
0
  2
$PAPER_SPACE
 70
     0
 10
0.0
 20
0.0
 30
0.0
  3
$PAPER_SPACE
  1

  0
ENDBLK
  5
224E
 67
     1
  8
0
  0
BLOCK
  8
0
  2
LINES
 70
     0
 10
0.0
 20
0.0
 30
0.0
  3
LINES
  1

  0
ENDBLK
  5
F67
  8
0
  0
BLOCK
  8
0
  2
NEW_BLOCK
 70
     0
 10
0.0
 20
0.0
 30
0.0
  3
NEW_BLOCK
  1

  0
TEXT
  5
F6A
  8
TEXT
 10
27.285946821803002
 20
25.27142175952417
 30
0.0
 40
40.0
  1
available on request
  7
TITLE3
  0
TEXT
  5
F6B
  8
TEXT
 10
27.285946821803002
 20
93.842850330952714
 30
0.0
 40
40.0
  1
Certified dimensions
  7
TITLE3
  0
TEXT
  5
F6C
  8
TEXT
 10
27.285946821803002
 20
162.4142789023812
 30
0.0
 40
40.0
  1
without notice or obligation.
  7
TITLE3
  0
TEXT
  5
F6D
  8
TEXT
 10
27.285946821803002
 20
230.9857074738097
 30
0.0
 40
40.0
  1
specifications at any time
  7
TITLE3
  0
TEXT
  5
F6E
  8
TEXT
 10
27.285946821803002
 20
299.55713604523839
 30
0.0
 40
40.0
  1
the right to change 
  7
TITLE3
  0
TEXT
  5
F6F
  8
TEXT
 10
27.285946821803002
 20
436.69999318809488
 30
0.0
 40
40.0
  1
NOTE
  7
TITLE3
  0
TEXT
  5
F70
  8
TEXT
 10
27.285946821803002
 20
368.12856461666678
 30
0.0
 40
40.0
  1
The manufacturer reserves
  7
TITLE3
  0
ENDBLK
  5
F71
  8
0
  0
BLOCK
  8
0
  2
GENAXEH
 70
     0
 10
0.0
 20
0.0
 30
0.0
  3
GENAXEH
  1

  0
LINE
  5
1192
  8
0
 10
-1.0
 20
0.0
 30
0.0
 11
1.0
 21
0.0
 31
0.0
  0
ENDBLK
  5
1194
  8
0
  0
ENDSEC
  0
SECTION
  2
ENTITIES
  0
INSERT
  5
FCE
  8
MTG-FEET
  2
LINES
 10
637.42319439946073
 20
2246.7294005091198
 30
0.0
  0
LINE
  5
13AC
  8
OUTLINE
 10
7531.2815133998138
 20
749.04607947175589
 30
0.0
 11
8655.2815133998138
 21
749.04607947175589
 31
0.0
  0
TEXT
  5
13AD
  8
TEXT
 10
9935.8065422681593
 20
906.4402582021612
 30
0.0
 40
75.0
  1
temperzone OSA 114
  7
TITLE5
 72
     1
 11
10532.23511369673
 21
906.4402582021612
 31
0.0
  0
TEXT
  5
13AE
  8
TEXT
 10
10689.442153747739
 20
606.37604918790805
 30
0.0
 40
40.499999999999993
  1
OSA114
 41
1.8288288288288199
  7
TITLE3
 72
     5
 11
11080.942153747739
 21
606.37604918790805
 31
0.0
  0
LINE
  5
13B0
  8
OUTLINE
 10
8655.2815133998138
 20
1682.046079471756
 30
0.0
 11
8655.2815133998138
 21
749.04607947175589
 31
0.0
  0
LINE
  5
13B1
  8
OUTLINE
 10
7531.2815133998138
 20
1682.046079471756
 30
0.0
 11
7531.2815133998138
 21
749.04607947175589
 31
0.0
  0
TEXT
  5
13B2
  8
DIM
 10
8155.1061088818578
 20
3797.8337672003859
 30
0.0
 40
45.0
  1
FLOW
 50
90.0
  7
SIMPLEX
  0
TEXT
  5
13B3
  8
DIM
 10
8036.4738274589408
 20
3792.157798015377
 30
0.0
 40
45.0
  1
AIR
 50
90.0
  7
SIMPLEX
  0
LINE
  5
13B4
  8
DIM
 10
8083.3423474995043
 20
3765.8164887498692
 30
0.0
 11
8083.3423474995043
 21
3827.5357800884531
 31
0.0
  0
LINE
  5
13B5
  8
DIM
 10
8110.5631259084766
 20
3765.8164887498692
 30
0.0
 11
8083.3423474995043
 21
3765.8164887498692
 31
0.0
  0
LINE
  5
13B6
  8
DIM
 10
8070.6815203325377
 20
3733.0577879624661
 30
0.0
 11
8110.5631259084766
 21
3765.8164887498692
 31
0.0
  0
LINE
  5
13B7
  8
DIM
 10
8058.0206931655748
 20
3827.5357800884531
 30
0.0
 11
8083.3423474995043
 21
3827.5357800884531
 31
0.0
  0
LINE
  5
13B8
  8
DIM
 10
8058.0206931655748
 20
3765.8164887498692
 30
0.0
 11
8058.0206931655748
 21
3827.5357800884531
 31
0.0
  0
LINE
  5
13B9
  8
DIM
 10
8030.7999147566043
 20
3765.8164887498692
 30
0.0
 11
8058.0206931655748
 21
3765.8164887498692
 31
0.0
  0
LINE
  5
13BA
  8
DIM
 10
8070.6815203325377
 20
3733.0577879624661
 30
0.0
 11
8030.7999147566043
 21
3765.8164887498692
 31
0.0
  0
LINE
  5
13BB
  8
DIM
 10
8656.4815133998181
 20
1715.046079471756
 30
0.0
 11
8656.4815133998181
 21
1843.0775281501401
 31
0.0
  0
LINE
  5
13BC
  8
DIM
 10
7530.0815133998158
 20
1715.046079471756
 30
0.0
 11
7530.0815133998158
 21
1843.0775281501401
 31
0.0
  0
LINE
  5
13BD
  8
DIM
 10
8611.4815133998163
 20
1813.077528150139
 30
0.0
 11
8227.5250120204691
 21
1813.077528150139
 31
0.0
  0
LINE
  5
13BE
  8
DIM
 10
7581.0815133998194
 20
1813.077528150139
 30
0.0
 11
8026.0964405918958
 21
1813.077528150139
 31
0.0
  0
SOLID
  5
13BF
  8
DIM
 10
8611.4815133998163
 20
1820.5775281501401
 30
0.0
 11
8611.4815133998163
 21
1805.5775281501401
 31
0.0
 12
8656.4815133998181
 22
1813.077528150139
 32
0.0
 13
8656.4815133998181
 23
1813.077528150139
 33
0.0
  0
SOLID
  5
13C0
  8
DIM
 10
7575.0815133998149
 20
1820.5775281501401
 30
0.0
 11
7575.0815133998149
 21
1805.5775281501401
 31
0.0
 12
7530.0815133998158
 22
1813.077528150139
 32
0.0
 13
7530.0815133998158
 23
1813.077528150139
 33
0.0
  0
TEXT
  5
13C1
  8
DIM
 10
8055.0250120204628
 20
1790.577528150139
 30
0.0
 40
45.0
  1
1124
  7
TITLE3
 72
     1
 11
8126.8107263061784
 21
1813.077528150139
 31
0.0
 73
     2
  0
LINE
  5
13C2
  8
DIM
 10
8686.4815133998163
 20
1682.046079471756
 30
0.0
 11
8833.7101016554952
 21
1682.046079471756
 31
0.0
  0
LINE
  5
13C3
  8
DIM
 10
8554.5603606083569
 20
716.04607947175612
 30
0.0
 11
8833.7101016554952
 21
716.04607947175612
 31
0.0
  0
LINE
  5
13C4
  8
DIM
 10
8803.7101016554952
 20
1640.046079471756
 30
0.0
 11
8803.7101016554952
 21
1272.199009480184
 31
0.0
  0
LINE
  5
13C5
  8
DIM
 10
8803.7101016554952
 20
761.04607947175589
 30
0.0
 11
8803.7101016554952
 21
1133.984723765898
 31
0.0
  0
SOLID
  5
13C6
  8
DIM
 10
8796.2101016554934
 20
1637.046079471756
 30
0.0
 11
8811.2101016554952
 21
1637.046079471756
 31
0.0
 12
8803.7101016554952
 22
1682.046079471756
 32
0.0
 13
8803.7101016554952
 23
1682.046079471756
 33
0.0
  0
SOLID
  5
13C7
  8
DIM
 10
8796.2101016554934
 20
761.04607947175589
 30
0.0
 11
8811.2101016554952
 21
761.04607947175589
 31
0.0
 12
8803.7101016554952
 22
716.04607947175612
 32
0.0
 13
8803.7101016554952
 23
716.04607947175612
 33
0.0
  0
TEXT
  5
13C8
  8
DIM
 10
8826.2101016554952
 20
1145.236206868138
 30
0.0
 40
45.0
  1
967
 50
90.0
  7
TITLE3
 72
     4
 11
8803.7101016554952
 21
1203.0933497252811
 31
0.0
  0
LINE
  5
13C9
  8
DIM
 10
7716.9815133998136
 20
701.24248290450305
 30
0.0
 11
7716.9815133998136
 21
573.62094472393665
 31
0.0
  0
LINE
  5
13CA
  8
DIM
 10
7716.9815133998136
 20
603.62094472393665
 30
0.0
 11
7920.9331715726903
 21
603.62094472393665
 31
0.0
  0
LINE
  5
13CB
  8
DIM
 10
8422.3815133998141
 20
603.62094472393665
 30
0.0
 11
8421.1449685280986
 21
603.62094472393665
 31
0.0
  0
SOLID
  5
13CC
  8
DIM
 10
7761.9815133998118
 20
611.12094472393665
 30
0.0
 11
7761.9815133998118
 21
596.1209447239371
 31
0.0
 12
7716.9815133998136
 22
603.62094472393665
 32
0.0
 13
7716.9815133998136
 23
603.62094472393665
 33
0.0
  0
SOLID
  5
13CD
  8
DIM
 10
8422.3815133998141
 20
611.12094472393665
 30
0.0
 11
8422.3815133998141
 21
596.1209447239371
 31
0.0
 12
8467.3815133998141
 22
603.62094472393665
 32
0.0
 13
8467.3815133998141
 23
603.62094472393665
 33
0.0
  0
TEXT
  5
13CE
  8
DIM
 10
7932.1846546749302
 20
581.12094472393676
 30
0.0
 40
45.0
  1
750 CTRS
  7
TITLE3
 72
     1
 11
8096.1132261035009
 21
603.62094472393665
 31
0.0
 73
     2
  0
LINE
  5
13CF
  8
DIM
 10
8467.3815133998141
 20
701.24248290450305
 30
0.0
 11
8467.3815133998141
 21
573.62094472393665
 31
0.0
  0
LINE
  5
13D0
  8
DIM
 10
8271.2903144298307
 20
603.62094472393665
 30
0.0
 11
8467.3815133998141
 21
603.62094472393665
 31
0.0
  0
SOLID
  5
13D1
  8
DIM
 10
8422.3815133998141
 20
611.12094472393665
 30
0.0
 11
8422.3815133998141
 21
596.1209447239371
 31
0.0
 12
8467.3815133998141
 22
603.62094472393665
 32
0.0
 13
8467.3815133998141
 23
603.62094472393665
 33
0.0
  0
SOLID
  5
13D2
  8
DIM
 10
7486.2815133998147
 20
611.12094472393665
 30
0.0
 11
7486.2815133998147
 21
596.1209447239371
 31
0.0
 12
7531.2815133998138
 22
603.62094472393665
 32
0.0
 13
7531.2815133998138
 23
603.62094472393665
 33
0.0
  0
LINE
  5
13D3
  8
DIM
 10
7531.2815133998138
 20
735.64607947175614
 30
0.0
 11
7531.2815133998138
 21
573.62094472393665
 31
0.0
  0
LINE
  5
13D4
  8
DIM
 10
7486.2815133998147
 20
603.62094472393665
 30
0.0
 11
7441.2815133998183
 21
603.62094472393665
 31
0.0
  0
TEXT
  5
13D5
  8
DIM
 10
7572.7388311069726
 20
585.81271880043175
 30
0.0
 40
45.0
  1
186
  7
TITLE3
 72
     1
 11
7625.2388311069717
 21
608.31271880043175
 31
0.0
 73
     2
  0
LINE
  5
13D6
  8
DIM
 10
9789.3530935331019
 20
4026.5604532349089
 30
0.0
 11
9704.8564702016483
 21
4026.5604532349089
 31
0.0
  0
LINE
  5
13D7
  8
DIM
 10
9789.3530935331019
 20
4404.9604532349049
 30
0.0
 11
9704.8564702016483
 21
4404.9604532349049
 31
0.0
  0
LINE
  5
13D8
  8
DIM
 10
9734.856470201652
 20
4071.560453234908
 30
0.0
 11
9734.856470201652
 21
4128.824718469572
 31
0.0
  0
LINE
  5
13D9
  8
DIM
 10
9734.856470201652
 20
4359.9604532349067
 30
0.0
 11
9734.856470201652
 21
4306.7914997375101
 31
0.0
  0
SOLID
  5
13DA
  8
DIM
 10
9727.3564702016538
 20
4071.560453234908
 30
0.0
 11
9742.3564702016483
 21
4071.560453234908
 31
0.0
 12
9734.856470201652
 22
4026.5604532349089
 32
0.0
 13
9734.856470201652
 23
4026.5604532349089
 33
0.0
  0
SOLID
  5
13DB
  8
DIM
 10
9727.3564702016538
 20
4359.9604532349067
 30
0.0
 11
9742.3564702016483
 21
4359.9604532349067
 31
0.0
 12
9734.856470201652
 22
4404.9604532349049
 32
0.0
 13
9734.856470201652
 23
4404.9604532349049
 33
0.0
  0
TEXT
  5
13DC
  8
DIM
 10
9757.3564702016538
 20
4169.950966246397
 30
0.0
 40
45.0
  1
378
 50
90.0
  7
TITLE3
 72
     1
 11
9734.856470201652
 21
4227.8081091035401
 31
0.0
 73
     2
  0
LINE
  5
13DD
  8
OUTLINE
 10
7661.2815133998147
 20
4005.560453234908
 30
0.0
 11
7772.6815133998134
 21
4005.560453234908
 31
0.0
  0
LINE
  5
13DE
  8
OUTLINE
 10
7651.6815133998089
 20
4026.5604532349089
 30
0.0
 11
7651.6815133998089
 21
4015.1604532349079
 31
0.0
  0
LINE
  5
13DF
  8
OUTLINE
 10
7651.6815133998089
 20
4015.1604532349079
 30
0.0
 11
7661.2815133998147
 21
4005.560453234908
 31
0.0
  0
LINE
  5
13E0
  8
OUTLINE
 10
7782.2815133998147
 20
4015.1604532349079
 30
0.0
 11
7772.6815133998134
 21
4005.560453234908
 31
0.0
  0
LINE
  5
13E1
  8
OUTLINE
 10
7782.2815133998147
 20
4015.1604532349102
 30
0.0
 11
7782.2815133998147
 21
4026.5604532349089
 31
0.0
  0
LINE
  5
13E2
  8
OUTLINE
 10
7702.9815133998109
 20
4427.5604532349089
 30
0.0
 11
7661.2815133998147
 21
4427.5604532349089
 31
0.0
  0
LINE
  5
13E3
  8
OUTLINE
 10
7651.6815133998089
 20
4417.9604532349067
 30
0.0
 11
7651.6815133998089
 21
4404.9604532349049
 31
0.0
  0
LINE
  5
13E4
  8
OUTLINE
 10
7651.6815133998089
 20
4417.9604532349067
 30
0.0
 11
7661.2815133998147
 21
4427.5604532349089
 31
0.0
  0
LINE
  5
13E5
  8
OUTLINE
 10
7782.2815133998147
 20
4417.9604532349067
 30
0.0
 11
7772.6815133998134
 21
4427.5604532349089
 31
0.0
  0
LINE
  5
13E6
  8
OUTLINE
 10
7772.6815133998134
 20
4427.5604532349089
 30
0.0
 11
7730.9815133998109
 21
4427.5604532349089
 31
0.0
  0
LINE
  5
13E7
  8
OUTLINE
 10
7702.9815133998109
 20
4427.5604532349089
 30
0.0
 11
7710.9815133998136
 21
4419.5604532349071
 31
0.0
  0
LINE
  5
13E8
  8
OUTLINE
 10
7730.9815133998109
 20
4427.5604532349089
 30
0.0
 11
7722.9815133998118
 21
4419.5604532349071
 31
0.0
  0
LINE
  5
13E9
  8
OUTLINE
 10
7710.9815133998136
 20
4404.9604532349049
 30
0.0
 11
7710.9815133998136
 21
4419.5604532349071
 31
0.0
  0
LINE
  5
13EA
  8
OUTLINE
 10
7722.9815133998118
 20
4404.9604532349049
 30
0.0
 11
7722.9815133998118
 21
4419.5604532349071
 31
0.0
  0
LINE
  5
13EB
  8
OUTLINE
 10
7782.2815133998147
 20
4404.9604532349049
 30
0.0
 11
7782.2815133998147
 21
4417.9604532349067
 31
0.0
  0
LINE
  5
13EC
  8
OUTLINE
 10
10790.3530935331
 20
4005.5604532349089
 30
0.0
 11
10790.3530935331
 21
4427.5604532349089
 31
0.0
  0
LINE
  5
13ED
  8
OUTLINE
 10
10790.3530935331
 20
4005.5604532349089
 30
0.0
 11
10788.3530935331
 21
4005.5604532349089
 31
0.0
  0
LINE
  5
13EE
  8
OUTLINE
 10
10777.4530935331
 20
4031.7858467797541
 30
0.0
 11
10756.2530935331
 21
4031.7858467797541
 31
0.0
  0
LINE
  5
13F0
  8
OUTLINE
 10
10777.4530935331
 20
4396.2604532349078
 30
0.0
 11
10756.2530935331
 21
4396.2604532349069
 31
0.0
  0
LINE
  5
13F1
  8
DIM
 10
10820.3530935331
 20
4005.5604532349089
 30
0.0
 11
11168.8708416474
 21
4005.5604532349089
 31
0.0
  0
LINE
  5
13F2
  8
DIM
 10
10820.3530935331
 20
4427.5604532349089
 30
0.0
 11
11168.8708416474
 21
4427.5604532349089
 31
0.0
  0
LINE
  5
13F3
  8
DIM
 10
11138.8708416474
 20
4053.060453234908
 30
0.0
 11
11138.8708416474
 21
4162.4115875617408
 31
0.0
  0
LINE
  5
13F4
  8
DIM
 10
11138.8708416474
 20
4272.9830161331693
 30
0.0
 11
11138.8708416474
 21
4382.7721188140004
 31
0.0
  0
SOLID
  5
13F5
  8
DIM
 10
11131.3708416474
 20
4050.5604532349089
 30
0.0
 11
11146.3708416474
 21
4050.5604532349089
 31
0.0
 12
11138.8708416474
 22
4005.5604532349089
 32
0.0
 13
11138.8708416474
 23
4005.5604532349089
 33
0.0
  0
SOLID
  5
13F6
  8
DIM
 10
11131.3708416474
 20
4382.5604532349071
 30
0.0
 11
11146.3708416474
 21
4382.5604532349071
 31
0.0
 12
11138.8708416474
 22
4427.5604532349089
 32
0.0
 13
11138.8708416474
 23
4427.5604532349089
 33
0.0
  0
TEXT
  5
13F7
  8
DIM
 10
11156.44281139978
 20
4171.4127740435342
 30
0.0
 40
36.0
  1
422
 50
90.0
  7
TITLE3
 72
     1
 11
11138.44281139978
 21
4217.698488329248
 31
0.0
 73
     2
  0
TEXT
  5
13F8
  8
TEXT
 10
9967.8088828685813
 20
664.37736922780448
 30
0.0
 40
45.0
  1
12-09-11
 41
0.7516778523489937
  7
TITLE3
 72
     5
 11
10207.80888286858
 21
664.37736922780448
 31
0.0
  0
TEXT
  5
13F9
  8
OVERLAY-A3
 10
9794.5804481386058
 20
665.62419001795604
 30
0.0
 40
36.0
  1
Date
  7
SIMPLEX
  0
TEXT
  5
13FA
  8
OVERLAY-A3
 10
11141.40190225713
 20
693.63232226292143
 30
0.0
 40
36.0
  1
Revision
 41
0.7812095035935113
  7
SIMPLEX
 72
     5
 11
11299.42942469833
 21
693.63232226292143
 31
0.0
  0
LINE
  5
13FB
  8
OVERLAY-A3
 10
11123.972138681969
 20
530.64110850028032
 30
0.0
 11
11123.972138681969
 21
751.78035279062465
 31
0.0
  0
LINE
  5
13FC
  8
OVERLAY-A3
 10
9751.2624078824501
 20
1005.203997474637
 30
0.0
 11
9751.2624078824501
 21
530.64110850028032
 31
0.0
  0
LINE
  5
13FD
  8
OVERLAY-A3
 10
10647.605630716371
 20
530.64110850028032
 30
0.0
 11
10647.605630716371
 21
751.78035279062465
 31
0.0
  0
LINE
  5
13FE
  8
OVERLAY-A3
 10
10647.605630716371
 20
639.34626813199986
 30
0.0
 11
9751.2624078824501
 21
639.34626813199986
 31
0.0
  0
LINE
  5
13FF
  8
OVERLAY-A3
 10
11314.598311553489
 20
751.78035279062465
 30
0.0
 11
9751.2624078824501
 21
751.78035279062465
 31
0.0
  0
LINE
  5
1400
  8
OVERLAY-A3
 10
9751.2624078824501
 20
530.64110850028032
 30
0.0
 11
11314.15205078596
 21
530.64110850028032
 31
0.0
  0
LINE
  5
1401
  8
OVERLAY-A3
 10
11314.15205078596
 20
530.64110850028032
 30
0.0
 11
11314.15205078596
 21
1005.203997474637
 31
0.0
  0
LINE
  5
1402
  8
OVERLAY-A3
 10
11314.15205078596
 20
1005.203997474637
 30
0.0
 11
9751.2624078824501
 21
1005.203997474637
 31
0.0
  0
TEXT
  5
1403
  8
OVERLAY-A3
 10
9788.9599423513973
 20
571.26110132584085
 30
0.0
 40
30.0
  1
Scale
 41
1.3701747965659621
  7
SIMPLEX
 72
     5
 11
9939.6791699736532
 21
571.26110132584085
 31
0.0
  0
TEXT
  5
1404
  8
OVERLAY-A3
 10
10734.523799097909
 20
692.71751648786881
 30
0.0
 40
30.0
  1
Drawing No.
  7
SIMPLEX
 72
     2
 11
10995.95237052648
 21
692.71751648786881
 31
0.0
  0
LINE
  5
1405
  8
OVERLAY-A3
 10
7109.7350229542244
 20
499.37736922780459
 30
0.0
 11
11357.23511369673
 21
499.37736922780459
 31
0.0
  0
LINE
  5
1406
  8
OVERLAY-A3
 10
11357.23511369673
 20
499.37736922780459
 30
0.0
 11
11357.23511369673
 21
4823.1018969235529
 31
0.0
  0
LINE
  5
1407
  8
OVERLAY-A3
 10
11357.23511369673
 20
4823.1018969235529
 30
0.0
 11
7109.7350229542244
 21
4823.1018969235538
 31
0.0
  0
LINE
  5
1408
  8
OVERLAY-A3
 10
7109.7350229542244
 20
4823.1018969235538
 30
0.0
 11
7109.7350229542244
 21
499.37736922780459
 31
0.0
  0
TEXT
  5
1409
  8
TEXT
 10
10021.37841915169
 20
573.58742625116145
 30
0.0
 40
45.0
  1
1:20
  7
TITLE3
  0
LINE
  5
140B
  8
OUTLINE
 10
7531.2815133998138
 20
1682.046079471756
 30
0.0
 11
8655.2815133998138
 21
1682.046079471756
 31
0.0
  0
LINE
  5
140C
  8
OUTLINE
 10
8398.3815133998141
 20
749.04607947175589
 30
0.0
 11
8398.3815133998141
 21
714.94607947175564
 31
0.0
  0
LINE
  5
140D
  8
OUTLINE
 10
8536.3815133998141
 20
748.64607947175614
 30
0.0
 11
8536.3815133998141
 21
714.94607947175564
 31
0.0
  0
LINE
  5
140F
  8
OUTLINE
 10
7647.9815133998136
 20
749.04607947175589
 30
0.0
 11
7647.9815133998136
 21
714.94607947175564
 31
0.0
  0
LINE
  5
1410
  8
OUTLINE
 10
7785.9815133998136
 20
749.04607947175589
 30
0.0
 11
7785.9815133998136
 21
714.94607947175564
 31
0.0
  0
LINE
  5
1411
  8
DIM
 10
10823.64887017332
 20
4026.0604532349089
 30
0.0
 11
11007.497648963081
 21
4026.0604532349089
 31
0.0
  0
LINE
  5
1412
  8
DIM
 10
10823.64887017332
 20
4401.0604532349071
 30
0.0
 11
11007.497648963081
 21
4401.0604532349071
 31
0.0
  0
LINE
  5
1413
  8
DIM
 10
10977.497648963081
 20
4472.5604532349098
 30
0.0
 11
10977.497648963081
 21
4517.5604532349089
 31
0.0
  0
SOLID
  5
1414
  8
DIM
 10
10969.99764896309
 20
4472.5604532349098
 30
0.0
 11
10984.997648963081
 21
4472.5604532349098
 31
0.0
 12
10977.497648963081
 22
4427.5604532349089
 32
0.0
 13
10977.497648963081
 23
4427.5604532349089
 33
0.0
  0
TEXT
  5
1415
  8
DIM
 10
10947.064799358581
 20
4083.5180486098861
 30
0.0
 40
36.0
  1
375 CTRS
 50
90.0
  7
TITLE3
  0
LINE
  5
1416
  8
CLEAR
 10
7431.2815133998138
 20
4026.5604532349089
 30
0.0
 11
7431.2815133998138
 21
4504.9604532349058
 31
0.0
  0
LINE
  5
1417
  8
CLEAR
 10
7431.2815133998138
 20
4026.5604532349089
 30
0.0
 11
7496.8721658820214
 21
4026.5604532349089
 31
0.0
  0
LINE
  5
1418
  8
CLEAR
 10
7531.2815133998138
 20
2026.5604532349089
 30
0.0
 11
7531.2815133998138
 21
3977.345070375763
 31
0.0
  0
LINE
  5
1419
  8
CLEAR
 10
9405.2815133998156
 20
4026.5604532349089
 30
0.0
 11
8694.3887758593828
 21
4026.5604532349089
 31
0.0
  0
TEXT
  5
141A
  8
TEXT
 10
8237.0618658048734
 20
1469.1859722602101
 30
0.0
 40
60.0
  1
OSA114
  7
TITLE5
 72
     1
 11
8395.6332943763027
 21
1469.1859722602101
 31
0.0
  0
TEXT
  5
141B
  8
TEXT
 10
7706.7066379444423
 20
4543.2088894557919
 30
0.0
 40
45.0
  1
100 min CLEARANCE
  7
TITLE3
  0
TEXT
  5
141C
  8
TEXT
 10
7742.8344390792172
 20
2073.0063636502568
 30
0.0
 40
45.0
  1
2000 min CLEARANCE
  7
TITLE3
  0
TEXT
  5
141D
  8
TEXT
 10
7333.7930384854826
 20
4105.4066565294161
 30
0.0
 40
45.0
  1
100 min
 50
90.0
  7
TITLE3
  0
TEXT
  5
141E
  8
TEXT
 10
7410.9358956283359
 20
4054.7514208568391
 30
0.0
 40
45.0
  1
CLEARANCE
 50
90.0
  7
TITLE3
  0
TEXT
  5
141F
  8
TEXT
 10
9298.5660951811788
 20
4102.2908185824372
 30
0.0
 40
45.0
  1
750 min
 50
90.0
  7
TITLE3
  0
TEXT
  5
1420
  8
TEXT
 10
9375.7089523240356
 20
4051.6355829098579
 30
0.0
 40
45.0
  1
CLEARANCE
 50
90.0
  7
TITLE3
  0
TEXT
  5
1421
  8
TEXT
 10
10049.11033329957
 20
4177.2953560933756
 30
0.0
 40
75.0
  1
OSA114
  7
TITLE5
 72
     1
 11
10247.32461901386
 21
4177.2953560933756
 31
0.0
  0
TEXT
  5
1422
  8
TEXT
 10
7911.2861040065563
 20
4180.2040825586846
 30
0.0
 40
75.0
  1
OSA114
  7
TITLE5
 72
     1
 11
8109.5003897208417
 21
4180.2040825586846
 31
0.0
  0
LINE
  5
1423
  8
CLEAR
 10
8655.2815133998138
 20
2026.5604532349089
 30
0.0
 11
8655.2815133998138
 21
3977.345070375763
 31
0.0
  0
LINE
  5
1424
  8
OUTLINE
 10
8411.6815133998152
 20
4005.560453234908
 30
0.0
 11
8523.0815133998149
 21
4005.560453234908
 31
0.0
  0
LINE
  5
1425
  8
OUTLINE
 10
8402.0815133998149
 20
4026.5604532349089
 30
0.0
 11
8402.0815133998149
 21
4015.1604532349079
 31
0.0
  0
LINE
  5
1426
  8
OUTLINE
 10
8402.0815133998149
 20
4015.1604532349079
 30
0.0
 11
8411.6815133998152
 21
4005.560453234908
 31
0.0
  0
LINE
  5
1427
  8
OUTLINE
 10
8532.6815133998152
 20
4015.1604532349079
 30
0.0
 11
8523.0815133998149
 21
4005.560453234908
 31
0.0
  0
LINE
  5
1428
  8
OUTLINE
 10
8532.6815133998152
 20
4015.1604532349102
 30
0.0
 11
8532.6815133998152
 21
4026.5604532349089
 31
0.0
  0
LINE
  5
1429
  8
OUTLINE
 10
8453.3815133998105
 20
4427.5604532349089
 30
0.0
 11
8411.6815133998152
 21
4427.5604532349089
 31
0.0
  0
LINE
  5
142A
  8
OUTLINE
 10
8402.0815133998149
 20
4417.9604532349067
 30
0.0
 11
8402.0815133998149
 21
4404.9604532349049
 31
0.0
  0
LINE
  5
142B
  8
OUTLINE
 10
8402.0815133998149
 20
4417.9604532349067
 30
0.0
 11
8411.6815133998152
 21
4427.5604532349089
 31
0.0
  0
LINE
  5
142C
  8
OUTLINE
 10
8532.6815133998152
 20
4417.9604532349067
 30
0.0
 11
8523.0815133998149
 21
4427.5604532349089
 31
0.0
  0
LINE
  5
142D
  8
OUTLINE
 10
8523.0815133998149
 20
4427.5604532349089
 30
0.0
 11
8481.3815133998087
 21
4427.5604532349089
 31
0.0
  0
LINE
  5
142E
  8
OUTLINE
 10
8453.3815133998105
 20
4427.5604532349089
 30
0.0
 11
8461.3815133998141
 21
4419.5604532349071
 31
0.0
  0
LINE
  5
142F
  8
OUTLINE
 10
8481.3815133998087
 20
4427.5604532349089
 30
0.0
 11
8473.3815133998087
 21
4419.5604532349071
 31
0.0
  0
LINE
  5
1430
  8
OUTLINE
 10
8461.3815133998141
 20
4404.9604532349049
 30
0.0
 11
8461.3815133998141
 21
4419.5604532349071
 31
0.0
  0
LINE
  5
1431
  8
OUTLINE
 10
8473.3815133998087
 20
4404.9604532349049
 30
0.0
 11
8473.3815133998087
 21
4419.5604532349071
 31
0.0
  0
LINE
  5
1432
  8
OUTLINE
 10
8532.6815133998152
 20
4404.960453234904
 30
0.0
 11
8532.6815133998152
 21
4417.9604532349067
 31
0.0
  0
LINE
  5
1433
  8
OUTLINE
 10
9822.3530935331019
 20
4026.5604532349089
 30
0.0
 11
10756.2530935331
 21
4026.5604532349089
 31
0.0
  0
LINE
  5
1434
  8
OUTLINE
 10
9822.3530935331019
 20
4404.9604532349049
 30
0.0
 11
10756.2530935331
 21
4404.9604532349049
 31
0.0
  0
LINE
  5
1435
  8
OUTLINE
 10
10777.4530935331
 20
4396.2604532349078
 30
0.0
 11
10788.3530935331
 21
4427.5604532349089
 31
0.0
  0
LINE
  5
1436
  8
OUTLINE
 10
10777.4530935331
 20
4031.7858467797541
 30
0.0
 11
10788.3530935331
 21
4005.5604532349089
 31
0.0
  0
TEXT
  5
1437
  8
TEXT
 10
10638.093287175539
 20
1055.9463551181591
 30
0.0
 40
28.0
  1
available on request
  7
TITLE3
  0
TEXT
  5
1438
  8
TEXT
 10
10638.093287175539
 20
1103.9463551181591
 30
0.0
 40
28.0
  1
Certified dimensions
  7
TITLE3
  0
TEXT
  5
1439
  8
TEXT
 10
10638.093287175539
 20
1151.9463551181591
 30
0.0
 40
28.0
  1
without notice or obligation.
  7
TITLE3
  0
TEXT
  5
143A
  8
TEXT
 10
10638.093287175539
 20
1199.9463551181591
 30
0.0
 40
28.0
  1
specifications at any time
  7
TITLE3
  0
TEXT
  5
143B
  8
TEXT
 10
10638.093287175539
 20
1247.9463551181591
 30
0.0
 40
28.0
  1
the right to change 
  7
TITLE3
  0
TEXT
  5
143C
  8
TEXT
 10
10638.093287175539
 20
1343.9463551181591
 30
0.0
 40
28.0
  1
NOTE
  7
TITLE3
  0
TEXT
  5
143D
  8
TEXT
 10
10638.093287175539
 20
1295.9463551181591
 30
0.0
 40
28.0
  1
The manufacturer reserves
  7
TITLE3
  0
SOLID
  5
143F
  8
DIM
 10
10969.99764896309
 20
4356.0604532349071
 30
0.0
 11
10984.997648963081
 21
4356.0604532349071
 31
0.0
 12
10977.497648963081
 22
4401.0604532349071
 32
0.0
 13
10977.497648963081
 23
4401.0604532349071
 33
0.0
  0
LINE
  5
1440
  8
DIM
 10
10977.497648963081
 20
4073.5604532349089
 30
0.0
 11
10977.497648963081
 21
4355.5604532349071
 31
0.0
  0
SOLID
  5
1441
  8
DIM
 10
10969.99764896309
 20
4071.0604532349112
 30
0.0
 11
10984.997648963081
 21
4071.0604532349112
 31
0.0
 12
10977.497648963081
 22
4026.0604532349089
 32
0.0
 13
10977.497648963081
 23
4026.0604532349089
 33
0.0
  0
TEXT
  5
1442
  8
DIM
 10
10948.99638986904
 20
4478.0688123471018
 30
0.0
 40
36.0
  1
26.5
 50
90.0
  7
TITLE3
 72
     1
 11
10930.99638986904
 21
4532.9259552042458
 31
0.0
 73
     2
  0
LINE
  5
1443
  8
DIM
 10
10786.465065313791
 20
4026.0604532349089
 30
0.0
 11
10798.64331221602
 21
4026.0604532349089
 31
0.0
  0
LINE
  5
1444
  8
DIM
 10
10786.465065313791
 20
4401.0604532349071
 30
0.0
 11
10798.64331221602
 21
4401.0604532349071
 31
0.0
  0
LINE
  5
1445
  8
OUTLINE
 10
9822.3530935331019
 20
4026.5604532349089
 30
0.0
 11
9822.3530935331019
 21
4404.9604532349049
 31
0.0
  0
LINE
  5
1446
  8
OUTLINE
 10
8655.2815133998138
 20
4404.960453234904
 30
0.0
 11
8655.2815133998138
 21
4026.5604532349089
 31
0.0
  0
LINE
  5
1447
  8
CLEAR
 10
9405.2815133998156
 20
4504.9604532349022
 30
0.0
 11
9405.2815133998156
 21
4026.5604532349089
 31
0.0
  0
LINE
  5
1448
  8
OUTLINE
 10
7531.2815133998138
 20
4404.9604532349049
 30
0.0
 11
7531.2815133998138
 21
4026.5604532349089
 31
0.0
  0
LINE
  5
1449
  8
OUTLINE
 10
7531.2815133998138
 20
4026.5604532349089
 30
0.0
 11
8655.2815133998138
 21
4026.5604532349089
 31
0.0
  0
LINE
  5
144A
  8
CLEAR
 10
7531.2815133998138
 20
2026.5604532349089
 30
0.0
 11
8655.2815133998138
 21
2026.5604532349089
 31
0.0
  0
LINE
  5
144B
  8
OUTLINE
 10
7531.2815133998138
 20
4404.9604532349049
 30
0.0
 11
8655.2815133998138
 21
4404.960453234904
 31
0.0
  0
LINE
  5
144C
  8
CLEAR
 10
7431.2815133998138
 20
4504.9604532349058
 30
0.0
 11
9405.2815133998156
 21
4504.9604532349022
 31
0.0
  0
CIRCLE
  5
174A
  8
OUTLINE
 10
7913.0815133998158
 20
1216.746079471756
 30
0.0
 40
289.0
  0
LINE
  5
1EA7
  8
OUTLINE
 10
7647.9815133998136
 20
714.94607947175564
 30
0.0
 11
7785.9815133998136
 21
714.94607947175564
 31
0.0
  0
LINE
  5
1EAA
  8
OUTLINE
 10
8398.3815133998141
 20
714.94607947175564
 30
0.0
 11
8536.3815133998141
 21
714.94607947175564
 31
0.0
  0
LINE
  5
1F11
  8
OUTLINE
 10
10756.2530935331
 20
4026.5604532349089
 30
0.0
 11
10756.2530935331
 21
4404.9604532349049
 31
0.0
  0
LINE
  5
1F13
  8
OUTLINE
 10
10790.3530935331
 20
4427.5604532349089
 30
0.0
 11
10788.3530935331
 21
4427.5604532349089
 31
0.0
  0
POINT
  5
1FCC
  8
OUTLINE
 10
7716.9815133998136
 20
4401.0604532349071
 30
0.0
  0
POINT
  5
1FCD
  8
OUTLINE
 10
7716.9815133998136
 20
4026.0604532349089
 30
0.0
  0
POINT
  5
1FCE
  8
OUTLINE
 10
8467.3815133998141
 20
4026.0604532349089
 30
0.0
  0
POINT
  5
1FCF
  8
OUTLINE
 10
8467.3815133998178
 20
4401.0604532349071
 30
0.0
  0
ENDSEC
  0
EOF
