  0
SECTION
  2
HEADER
  9
$ACADVER
  1
AC1009
  9
$INSBASE
 10
0.0
 20
0.0
 30
0.0
  9
$EXTMIN
 10
770.62790912419405
 20
-0.0814303935103453
 30
-0.0015258207003583
  9
$EXTMAX
 10
3890.118722436313
 20
2668.596165781059
 30
0.0000000349246037
  9
$LIMMIN
 10
0.0
 20
0.0
  9
$LIMMAX
 10
3890.0
 20
2660.0
  9
$ORTHOMODE
 70
     1
  9
$REGENMODE
 70
     1
  9
$FILLMODE
 70
     1
  9
$QTEXTMODE
 70
     0
  9
$MIRRTEXT
 70
     0
  9
$DRAGMODE
 70
     2
  9
$LTSCALE
 40
100.0
  9
$OSMODE
 70
  3071
  9
$ATTMODE
 70
     1
  9
$TEXTSIZE
 40
25.0
  9
$TRACEWID
 40
0.05
  9
$TEXTSTYLE
  7
TITLE3
  9
$CLAYER
  8
0
  9
$CELTYPE
  6
BYLAYER
  9
$CECOLOR
 62
   256
  9
$DIMSCALE
 40
1.0
  9
$DIMASZ
 40
0.12
  9
$DIMEXO
 40
0.05
  9
$DIMDLI
 40
0.5
  9
$DIMRND
 40
0.0
  9
$DIMDLE
 40
0.0
  9
$DIMEXE
 40
0.1
  9
$DIMTP
 40
0.1
  9
$DIMTM
 40
0.1
  9
$DIMTXT
 40
0.12
  9
$DIMCEN
 40
0.0
  9
$DIMTSZ
 40
0.0
  9
$DIMTOL
 70
     0
  9
$DIMLIM
 70
     0
  9
$DIMTIH
 70
     1
  9
$DIMTOH
 70
     1
  9
$DIMSE1
 70
     0
  9
$DIMSE2
 70
     0
  9
$DIMTAD
 70
     0
  9
$DIMZIN
 70
     7
  9
$DIMBLK
  1

  9
$DIMASO
 70
     0
  9
$DIMSHO
 70
     0
  9
$DIMPOST
  1

  9
$DIMAPOST
  1
mm
  9
$DIMALT
 70
     0
  9
$DIMALTD
 70
     2
  9
$DIMALTF
 40
25.399999999999999
  9
$DIMLFAC
 40
1.0
  9
$DIMTOFL
 70
     0
  9
$DIMTVP
 40
0.0
  9
$DIMTIX
 70
     0
  9
$DIMSOXD
 70
     0
  9
$DIMSAH
 70
     0
  9
$DIMBLK1
  1

  9
$DIMBLK2
  1

  9
$DIMSTYLE
  2
AM_ANSI
  9
$DIMCLRD
 70
   256
  9
$DIMCLRE
 70
   256
  9
$DIMCLRT
 70
     2
  9
$DIMTFAC
 40
0.71
  9
$DIMGAP
 40
0.06
  9
$LUNITS
 70
     2
  9
$LUPREC
 70
     2
  9
$SKETCHINC
 40
0.1
  9
$FILLETRAD
 40
0.0
  9
$AUNITS
 70
     0
  9
$AUPREC
 70
     2
  9
$MENU
  1
\acad12\support\cnc
  9
$ELEVATION
 40
0.0
  9
$PELEVATION
 40
0.0
  9
$THICKNESS
 40
0.0
  9
$LIMCHECK
 70
     0
  9
$BLIPMODE
 70
     0
  9
$CHAMFERA
 40
0.0
  9
$CHAMFERB
 40
0.0
  9
$SKPOLY
 70
     0
  9
$TDCREATE
 40
2450764.4272488421
  9
$TDUPDATE
 40
2455945.357580313
  9
$TDINDWG
 40
1.0787091435
  9
$TDUSRTIMER
 40
1.0787029860999999
  9
$USRTIMER
 70
     1
  9
$ANGBASE
 50
0.0
  9
$ANGDIR
 70
     0
  9
$PDMODE
 70
     2
  9
$PDSIZE
 40
10.0
  9
$PLINEWID
 40
0.0
  9
$COORDS
 70
     1
  9
$SPLFRAME
 70
     0
  9
$SPLINETYPE
 70
     6
  9
$SPLINESEGS
 70
     8
  9
$ATTDIA
 70
     0
  9
$ATTREQ
 70
     1
  9
$HANDLING
 70
     1
  9
$HANDSEED
  5
67CC
  9
$SURFTAB1
 70
     6
  9
$SURFTAB2
 70
     6
  9
$SURFTYPE
 70
     6
  9
$SURFU
 70
     6
  9
$SURFV
 70
     6
  9
$UCSNAME
  2

  9
$UCSORG
 10
0.0
 20
0.0
 30
0.0
  9
$UCSXDIR
 10
1.0
 20
0.0
 30
0.0
  9
$UCSYDIR
 10
0.0
 20
1.0
 30
0.0
  9
$PUCSNAME
  2

  9
$PUCSORG
 10
0.0
 20
0.0
 30
0.0
  9
$PUCSXDIR
 10
1.0
 20
0.0
 30
0.0
  9
$PUCSYDIR
 10
0.0
 20
1.0
 30
0.0
  9
$USERI1
 70
     0
  9
$USERI2
 70
     0
  9
$USERI3
 70
     0
  9
$USERI4
 70
     0
  9
$USERI5
 70
     0
  9
$USERR1
 40
0.0
  9
$USERR2
 40
0.0
  9
$USERR3
 40
0.0
  9
$USERR4
 40
0.0
  9
$USERR5
 40
0.0
  9
$WORLDVIEW
 70
     1
  9
$SHADEDGE
 70
     3
  9
$SHADEDIF
 70
    70
  9
$TILEMODE
 70
     1
  9
$MAXACTVP
 70
    16
  9
$PLIMCHECK
 70
     0
  9
$PEXTMIN
 10
1.0000000000000000E+020
 20
1.0000000000000000E+020
 30
1.0000000000000000E+020
  9
$PEXTMAX
 10
-1.0000000000000000E+020
 20
-1.0000000000000000E+020
 30
-1.0000000000000000E+020
  9
$PLIMMIN
 10
0.0
 20
0.0
  9
$PLIMMAX
 10
12.0
 20
9.0
  9
$UNITMODE
 70
     0
  9
$VISRETAIN
 70
     0
  9
$PLINEGEN
 70
     0
  9
$PSLTSCALE
 70
     0
  0
ENDSEC
  0
SECTION
  2
TABLES
  0
TABLE
  2
VPORT
 70
     1
  0
VPORT
  2
*ACTIVE
 70
     0
 10
0.0
 20
0.0
 11
1.0
 21
1.0
 12
-44.923046852957661
 22
162.4172010194811
 13
0.0
 23
0.0
 14
25.0
 24
25.0
 15
100.0
 25
100.0
 16
0.0
 26
0.0
 36
1.0
 17
2375.2963626332112
 27
1171.840166674293
 37
0.0
 40
2686.2732726328632
 41
2.106710671067106
 42
50.0
 43
0.0
 44
0.0
 50
0.0
 51
0.0
 71
     0
 72
   100
 73
     1
 74
     0
 75
     0
 76
     0
 77
     0
 78
     0
  0
ENDTAB
  0
TABLE
  2
LTYPE
 70
    23
  0
LTYPE
  2
CONTINUOUS
 70
     0
  3
Solid line
 72
    65
 73
     0
 40
0.0
  0
LTYPE
  2
PHANTOM
 70
     0
  3
Phantom ______  __  __  ______  __  __  ______
 72
    65
 73
     6
 40
2.5
 49
1.25
 49
-0.25
 49
0.25
 49
-0.25
 49
0.25
 49
-0.25
  0
LTYPE
  2
HIDDEN
 70
     0
  3
__ __ __ __ __ __ __ __ __ __ __ __ __ __ __ __
 72
    65
 73
     2
 40
0.375
 49
0.25
 49
-0.125
  0
ENDTAB
  0
TABLE
  2
LAYER
 70
     1
  0
LAYER
  2
0
 70
     0
 62
     7
  6
CONTINUOUS
  0
ENDTAB
  0
TABLE
  2
STYLE
 70
     8
  0
STYLE
  2
STANDARD
 70
     0
 40
0.0
 41
1.0
 50
0.0
 71
     0
 42
0.2
  3
txt
  4

  0
STYLE
  2
TITLE3
 70
     0
 40
25.0
 41
1.0
 50
0.0
 71
     0
 42
25.0
  3
SIMPLEX.shx
  4

  0
STYLE
  2
SIMPLEX
 70
     0
 40
40.0
 41
1.0
 50
0.0
 71
     0
 42
25.0
  3
SIMPLEX
  4

  0
STYLE
  2
TITLE5
 70
     0
 40
25.0
 41
1.0
 50
0.0
 71
     0
 42
25.0
  3
SIMPLEX
  4

  0
ENDTAB
  0
TABLE
  2
VIEW
 70
     0
  0
ENDTAB
  0
TABLE
  2
UCS
 70
     0
  0
ENDTAB
  0
TABLE
  2
APPID
 70
    32
  0
APPID
  2
ACAD
 70
     0
  0
APPID
  2
ACADANNOTATIVE
 70
     0
  0
APPID
  2
ACAD_MLEADERVER
 70
     0
  0
APPID
  2
ACAD_EXEMPT_FROM_CAD_STANDARDS
 70
     0
  0
APPID
  2
ACAECLAYERSTANDARD
 70
     0
  0
APPID
  2
ACAD_DSTYLE_DIMTEXT_FILL
 70
     0
  0
APPID
  2
ACAD_DSTYLE_DIMEXT_LENGTH
 70
     0
  0
APPID
  2
ACAD_DSTYLE_DIMEXT_ENABLED
 70
     0
  0
APPID
  2
ACAD_DSTYLE_DIM_LINETYPE
 70
     0
  0
APPID
  2
ACAD_DSTYLE_DIM_EXT1_LINETYPE
 70
     0
  0
APPID
  2
ACAD_DSTYLE_DIM_EXT2_LINETYPE
 70
     0
  0
APPID
  2
ACAD_DSTYLE_DIMJOGGED_JOGA
 70
     0
  0
APPID
  2
ACAD_DSTYLE_DIMARC_LENGTH_
 70
     0
  0
APPID
  2
ACAD_PSEXT
 70
     0
  0
APPID
  2
CONTENTBLOCKICON
 70
     0
  0
APPID
  2
GENIUS_GENDIM_13
 70
     0
  0
APPID
  2
GENIUS_GENDTOL_13
 70
     0
  0
APPID
  2
GENIUS_GE3DTOL_13
 70
     0
  0
APPID
  2
MCAD_NO_VIS
 70
     0
  0
APPID
  2
ACAD_TEMP_GRAPHIC
 70
     0
  0
APPID
  2
AD_DRAW
 70
     0
  0
APPID
  2
ACATTRIBSERVICES
 70
     0
  0
APPID
  2
ASURF_PCURVE_APPNAME
 70
     0
  0
APPID
  2
AMG_3D2D_5_0
 70
     0
  0
APPID
  2
DESIGNERASSEMBLIES
 70
     0
  0
APPID
  2
ACADM_DIM_EDIT
 70
     0
  0
APPID
  2
AMDT_DM_ADJ
 70
     0
  0
APPID
  2
AMG_3D2D_5_00
 70
     0
  0
APPID
  2
AMG_3D2D_5_01
 70
     0
  0
APPID
  2
ACAD_DSTYLE_DIMBREAK
 70
     0
  0
APPID
  2
ACAD_DSTYLE_DIMJAG
 70
     0
  0
APPID
  2
ACAD_NAV_VCDISPLAY
 70
     0
  0
ENDTAB
  0
TABLE
  2
DIMSTYLE
 70
    10
  0
DIMSTYLE
  2
STANDARD
 70
     0
  3

  4

  5

  6

  7

 40
1.0
 41
0.18
 42
0.0625
 43
0.38
 44
0.18
 45
0.0
 46
0.0
 47
0.0
 48
0.0
140
0.18
141
0.09
142
0.0
143
25.399999999999999
144
1.0
145
0.0
146
1.0
147
0.09
 71
     0
 72
     0
 73
     1
 74
     1
 75
     0
 76
     0
 77
     0
 78
     0
170
     0
171
     2
172
     0
173
     0
174
     0
175
     0
176
     0
177
     0
178
     0
  0
DIMSTYLE
  2
AM_ANSI
 70
     0
  3

  4
mm
  5

  6

  7

 40
1.0
 41
0.12
 42
0.05
 43
0.5
 44
0.1
 45
0.0
 46
0.0
 47
0.1
 48
0.1
140
0.12
141
0.0
142
0.0
143
25.399999999999999
144
1.0
145
0.0
146
0.71
147
0.06
 71
     0
 72
     0
 73
     1
 74
     1
 75
     0
 76
     0
 77
     0
 78
     7
170
     0
171
     2
172
     0
173
     0
174
     0
175
     0
176
   256
177
   256
178
     2
  0
ENDTAB
  0
ENDSEC
  0
SECTION
  2
BLOCKS
  0
BLOCK
  8
0
  2
$MODEL_SPACE
 70
     0
 10
0.0
 20
0.0
 30
0.0
  3
$MODEL_SPACE
  1

  0
ENDBLK
  5
6601
  8
0
  0
BLOCK
 67
     1
  8
0
  2
$PAPER_SPACE
 70
     0
 10
0.0
 20
0.0
 30
0.0
  3
$PAPER_SPACE
  1

  0
ENDBLK
  5
65FD
 67
     1
  8
0
  0
ENDSEC
  0
SECTION
  2
ENTITIES
  0
LINE
  5
23F5
  8
0
 62
     7
 10
1533.572910258873
 20
2324.206208406431
 30
0.0
 11
1505.0403082734881
 21
2292.0329757792429
 31
0.0
  0
LINE
  5
23F7
  8
0
 62
     7
 10
1494.990334295961
 20
2341.672009245443
 30
0.0
 11
1515.0902822510161
 21
2341.672009245443
 31
0.0
  0
LINE
  5
23F8
  8
0
 62
     7
 10
1515.0902822510161
 20
2341.672009245443
 30
0.0
 11
1515.0902822510161
 21
2324.2062084064291
 31
0.0
  0
LINE
  5
23F9
  8
0
 62
     7
 10
1515.0902822510161
 20
2324.2062084064291
 30
0.0
 11
1533.572910258873
 21
2324.206208406431
 31
0.0
  0
LINE
  5
23FD
  8
0
 62
     7
 10
1476.5077062881051
 20
2324.206208406431
 30
0.0
 11
1505.0403082734881
 21
2292.0329757792429
 31
0.0
  0
LINE
  5
23FE
  8
0
 62
     7
 10
1494.990334295961
 20
2341.672009245443
 30
0.0
 11
1494.990334295961
 21
2324.2062084064291
 31
0.0
  0
LINE
  5
23FF
  8
0
 62
     7
 10
1494.990334295961
 20
2324.2062084064291
 30
0.0
 11
1476.5077062881051
 21
2324.206208406431
 31
0.0
  0
LINE
  5
2400
  8
0
 62
     7
 10
1629.5729102588721
 20
1758.8422027783661
 30
0.0
 11
1601.0403082734881
 21
1726.6689701511791
 31
0.0
  0
LINE
  5
2401
  8
0
 62
     7
 10
1590.9903342959601
 20
1776.3080036173769
 30
0.0
 11
1611.0902822510161
 21
1776.3080036173769
 31
0.0
  0
LINE
  5
2402
  8
0
 62
     7
 10
1611.0902822510161
 20
1776.3080036173769
 30
0.0
 11
1611.0902822510161
 21
1758.8422027783661
 31
0.0
  0
LINE
  5
2403
  8
0
 62
     7
 10
1611.0902822510161
 20
1758.8422027783661
 30
0.0
 11
1629.5729102588721
 21
1758.8422027783661
 31
0.0
  0
LINE
  5
2404
  8
0
 62
     7
 10
1572.507706288103
 20
1758.8422027783661
 30
0.0
 11
1601.0403082734881
 21
1726.6689701511791
 31
0.0
  0
LINE
  5
2405
  8
0
 62
     7
 10
1590.9903342959601
 20
1776.3080036173769
 30
0.0
 11
1590.9903342959601
 21
1758.8422027783661
 31
0.0
  0
LINE
  5
2406
  8
0
 62
     7
 10
1590.9903342959601
 20
1758.8422027783661
 30
0.0
 11
1572.507706288103
 21
1758.8422027783661
 31
0.0
  0
LINE
  5
30F6
  8
0
 62
     7
 10
3890.000000000156
 20
0.0
 30
0.0
 11
770.69435074341663
 21
0.0
 31
0.0
  0
LINE
  5
30F7
  8
0
 62
     7
 10
770.69435074341663
 20
0.0
 30
0.0
 11
770.69435074341663
 21
2668.514722961309
 31
0.0
  0
LINE
  5
30F8
  8
0
 62
     7
 10
770.69435074341663
 20
2668.5147229613081
 30
0.0
 11
3890.000000000156
 21
2668.5147229613081
 31
0.0
  0
LINE
  5
30F9
  8
0
 62
     7
 10
3890.000000000156
 20
2668.5147229613081
 30
0.0
 11
3890.000000000156
 21
0.0
 31
0.0
  0
TEXT
  5
3AC8
  8
0
 62
     7
 10
918.51797040702866
 20
51.50540564507029
 30
0.0
 40
33.599999999996733
  1
available on request
  7
TITLE3
  0
TEXT
  5
3AC9
  8
0
 62
     7
 10
918.51797040702866
 20
109.10540564506459
 30
0.0
 40
33.599999999996733
  1
Certified dimensions
  7
TITLE3
  0
TEXT
  5
3ACA
  8
0
 62
     7
 10
918.51797040702866
 20
166.70540564505899
 30
0.0
 40
33.599999999996733
  1
without notice or obligation.
  7
TITLE3
  0
TEXT
  5
3ACB
  8
0
 62
     7
 10
918.51797040702866
 20
224.3054056450533
 30
0.0
 40
33.599999999996733
  1
specifications at any time
  7
TITLE3
  0
TEXT
  5
3ACC
  8
0
 62
     7
 10
918.51797040702866
 20
281.90540564504778
 30
0.0
 40
33.599999999996733
  1
the right to change 
  7
TITLE3
  0
TEXT
  5
3ACD
  8
0
 62
     7
 10
918.51797040702866
 20
397.10540564503611
 30
0.0
 40
33.599999999996733
  1
NOTE
  7
TITLE3
  0
TEXT
  5
3ACE
  8
0
 62
     7
 10
918.51797040702866
 20
339.50540564504212
 30
0.0
 40
33.599999999996733
  1
The manufacturer reserves
  7
TITLE3
  0
TEXT
  5
430A
  8
0
 62
     7
 10
2339.9562436667161
 20
1924.5196667207481
 30
0.0
 40
25.0
  1
ELECTRIC
  7
TITLE3
  0
TEXT
  5
430B
  8
0
 62
     7
 10
2339.9562436667161
 20
1882.85300005408
 30
0.0
 40
25.0
  1
BOX
  7
TITLE3
  0
SOLID
  5
430C
  8
0
 62
     7
 10
2250.2005787433618
 20
1891.911272728785
 30
0.0
 11
2220.9335768057499
 21
1883.638268583748
 31
0.0
 12
2245.9354421591529
 22
1900.956083943953
 32
0.0
 13
2245.9354421591529
 23
1900.956083943953
 33
0.0
  0
TEXT
  5
4438
  8
0
 62
     7
 10
2564.0397805119551
 20
346.72214982266092
 30
0.0
 40
62.5
  1
temperzone ISD 184KY
 41
1.149692010929819
  7
TITLE5
 72
     5
 11
3812.9611614327409
 21
346.72214982266092
 31
0.0
  0
TEXT
  5
4439
  8
0
 62
     7
 10
3315.000000000156
 20
87.5
 30
0.0
 40
37.5
  1
ISD 184KY
 41
1.2608695652173909
  7
TITLE3
 72
     5
 11
3677.500000000156
 21
87.5
 31
0.0
  0
TEXT
  5
443A
  8
0
 62
     7
 10
2748.958007352584
 20
137.5
 30
0.0
 40
37.5
  1
18-01-12
 41
0.7272727272727289
  7
TITLE3
 72
     5
 11
2948.9580073525849
 21
137.5
 31
0.0
  0
TEXT
  5
443B
  8
0
 62
     7
 10
2583.941228961347
 20
138.53901732512611
 30
0.0
 40
30.0
  1
Date
  7
SIMPLEX
  0
TEXT
  5
443C
  8
0
 62
     7
 10
3710.1389904671569
 20
161.879127529264
 30
0.0
 40
30.0
  1
Revision
 41
0.7812095035934841
  7
SIMPLEX
 72
     5
 11
3841.828592501487
 21
161.879127529264
 31
0.0
  0
LINE
  5
443D
  8
0
 62
     7
 10
3695.614187487854
 20
26.053116060396409
 30
0.0
 11
3695.614187487854
 21
210.3358196356829
 31
0.0
  0
LINE
  5
443E
  8
0
 62
     7
 10
2551.6894118215901
 20
433.29949611692632
 30
0.0
 11
2551.6894118215901
 21
26.053116060396409
 31
0.0
  0
LINE
  5
443F
  8
0
 62
     7
 10
3298.6420975165261
 20
26.053116060396409
 30
0.0
 11
3298.6420975165261
 21
210.3358196356829
 31
0.0
  0
LINE
  5
4440
  8
0
 62
     7
 10
3298.6420975165261
 20
116.6407490868297
 30
0.0
 11
2551.6894118215901
 21
116.6407490868297
 31
0.0
  0
LINE
  5
4441
  8
0
 62
     7
 10
3854.4693315474578
 20
210.3358196356829
 30
0.0
 11
2551.6894118215901
 21
210.3358196356829
 31
0.0
  0
LINE
  5
4442
  8
0
 62
     7
 10
2551.6894118215901
 20
26.053116060396409
 30
0.0
 11
3854.0974475745211
 21
26.053116060396409
 31
0.0
  0
LINE
  5
4443
  8
0
 62
     7
 10
3854.0974475745211
 20
26.053116060396409
 30
0.0
 11
3854.0974475745211
 21
433.29949611692632
 31
0.0
  0
LINE
  5
4444
  8
0
 62
     7
 10
3854.0974475745211
 20
433.29949611692632
 30
0.0
 11
2551.6894118215901
 21
433.29949611692632
 31
0.0
  0
TEXT
  5
4445
  8
0
 62
     7
 10
2583.1040238790438
 20
59.903110081697093
 30
0.0
 40
25.0
  1
Scale
 41
1.3701747965659681
  7
SIMPLEX
 72
     5
 11
2708.7033802309238
 21
59.903110081697093
 31
0.0
  0
TEXT
  5
4446
  8
0
 62
     7
 10
3371.0739045011542
 20
161.1167893833869
 30
0.0
 40
25.0
  1
Drawing No.
  7
SIMPLEX
 72
     2
 11
3588.9310473582959
 21
161.1167893833869
 31
0.0
  0
TEXT
  5
444B
  8
0
 62
     7
 10
2766.9599802419848
 20
58.608558680249381
 30
0.0
 40
37.5
  1
1:10
  7
TITLE3
  0
LINE
  5
446A
  8
0
 62
     7
 10
2248.068010451258
 20
1896.433678336371
 30
0.0
 11
2289.9562436667161
 21
1916.1863333874139
 31
0.0
  0
LINE
  5
446B
  8
0
 62
     7
 10
2289.9562436667161
 20
1916.1863333874139
 30
0.0
 11
2319.9562436667152
 21
1916.1863333874139
 31
0.0
  0
LINE
  5
50D1
  8
0
 10
906.80797616622704
 20
2375.6501991520772
 30
0.0
 11
2308.807976166227
 21
2375.6501991520772
 31
0.0
  0
LINE
  5
50D2
  8
0
 10
2308.807976166227
 20
2375.6501991520772
 30
0.0
 11
2308.807976166227
 21
2122.7001991520769
 31
0.0
  0
LINE
  5
50D3
  8
0
 10
886.85797616622733
 20
2122.7001991520769
 30
0.0
 11
2328.7579761662269
 21
2122.7001991520769
 31
0.0
  0
LINE
  5
50D6
  8
0
 10
906.80797616622704
 20
2375.6501991520772
 30
0.0
 11
906.80797616622704
 21
2122.7001991520769
 31
0.0
  0
LINE
  5
50D9
  8
0
 10
951.9579761662269
 20
2434.6501991520772
 30
0.0
 11
2238.9579761662271
 21
2434.6501991520772
 31
0.0
  0
LINE
  5
50DA
  8
0
 10
951.9579761662269
 20
2434.6501991520772
 30
0.0
 11
951.9579761662269
 21
2375.6501991520772
 31
0.0
  0
LINE
  5
50DB
  8
0
 10
2238.9579761662271
 20
2434.6501991520772
 30
0.0
 11
2238.9579761662271
 21
2375.6501991520772
 31
0.0
  0
LINE
  5
50DC
  8
0
 10
886.85797616622733
 20
2385.600199152077
 30
0.0
 11
886.85797616622733
 21
2374.1501991520781
 31
0.0
  0
LINE
  5
50DD
  8
0
 10
2328.7579761662269
 20
2385.600199152077
 30
0.0
 11
2328.7579761662269
 21
2374.1501991520781
 31
0.0
  0
LINE
  5
50DE
  8
0
 10
886.85797616622733
 20
2385.600199152077
 30
0.0
 11
951.9579761662269
 21
2385.600199152077
 31
0.0
  0
LINE
  5
50DF
  8
0
 10
2238.9579761662271
 20
2385.600199152077
 30
0.0
 11
2328.7579761662269
 21
2385.600199152077
 31
0.0
  0
LINE
  5
50E7
  8
0
 10
2328.7579761662269
 20
2332.1501991520781
 30
0.0
 11
2328.7579761662269
 21
2322.000199152078
 31
0.0
  0
LINE
  5
513A
  8
0
 10
2356.7579761662269
 20
2262.1751991520769
 30
0.0
 11
2356.7579761662269
 21
2246.1751991520769
 31
0.0
  0
LINE
  5
513C
  8
0
 10
2328.7579761662269
 20
2262.1751991520791
 30
0.0
 11
2356.7579761662269
 21
2262.1751991520791
 31
0.0
  0
LINE
  5
513D
  8
0
 10
2328.7579761662269
 20
2246.1751991520791
 30
0.0
 11
2356.7579761662269
 21
2246.1751991520769
 31
0.0
  0
LINE
  5
513F
  8
0
 10
2308.807976166227
 20
2160.7601991520769
 30
0.0
 11
2350.751976166227
 21
2160.7601991520769
 31
0.0
  0
LINE
  5
5140
  8
0
 10
2308.807976166227
 20
2140.760199152076
 30
0.0
 11
2350.751976166227
 21
2140.7601991520769
 31
0.0
  0
LINE
  5
5141
  8
0
 10
2350.751976166227
 20
2160.7601991520769
 30
0.0
 11
2350.751976166227
 21
2140.7601991520769
 31
0.0
  0
LINE
  5
5142
  8
0
 10
2328.7579761662269
 20
2140.7601991520769
 30
0.0
 11
2328.7579761662269
 21
2122.7001991520769
 31
0.0
  0
LINE
  5
518F
  8
0
 10
2338.307976166227
 20
2374.1501991520781
 30
0.0
 11
2338.307976166227
 21
2346.1501991520772
 31
0.0
  0
LINE
  5
5190
  8
0
 10
2308.807976166227
 20
2374.1501991520781
 30
0.0
 11
2338.307976166227
 21
2374.1501991520781
 31
0.0
  0
LINE
  5
5191
  8
0
 10
2308.807976166227
 20
2346.1501991520772
 30
0.0
 11
2338.307976166227
 21
2346.1501991520772
 31
0.0
  0
POINT
  5
5193
  8
0
 10
2324.307976166227
 20
2360.1501991520772
 30
0.0
  0
LINE
  5
51E5
  8
0
 10
906.80797616622704
 20
2374.1501991520781
 30
0.0
 11
877.30797616622715
 21
2374.1501991520781
 31
0.0
  0
LINE
  5
51E6
  8
0
 10
906.80797616622704
 20
2346.1501991520772
 30
0.0
 11
877.30797616622715
 21
2346.1501991520772
 31
0.0
  0
LINE
  5
51E7
  8
0
 10
877.30797616622715
 20
2374.1501991520781
 30
0.0
 11
877.30797616622715
 21
2346.1501991520772
 31
0.0
  0
POINT
  5
51E8
  8
0
 10
891.30797616622692
 20
2360.1501991520772
 30
0.0
 50
180.0
  0
LINE
  5
51EE
  8
0
 10
886.85797616622733
 20
2346.1501991520772
 30
0.0
 11
886.85797616622733
 21
2122.7001991520769
 31
0.0
  0
LINE
  5
5287
  8
0
 10
2133.7479761662239
 20
2122.7001991520769
 30
0.0
 11
2133.7479761662271
 21
1697.488199152077
 31
0.0
  0
LINE
  5
5288
  8
0
 10
1031.2579761662259
 20
1697.488199152077
 30
0.0
 11
2133.7479761662239
 21
1697.488199152077
 31
0.0
  0
LINE
  5
5289
  8
0
 10
1031.2579761662259
 20
2122.7001991520769
 30
0.0
 11
1031.2579761662259
 21
1697.488199152077
 31
0.0
  0
LINE
  5
528A
  8
0
 10
1037.2079761662269
 20
1697.488199152077
 30
0.0
 11
1037.2079761662269
 21
1650.6521991520769
 31
0.0
  0
LINE
  5
528B
  8
0
 10
1037.2079761662269
 20
1650.6521991520769
 30
0.0
 11
2131.7979761662268
 21
1650.6521991520769
 31
0.0
  0
LINE
  5
528D
  8
0
 10
2131.7979761662268
 20
1697.488199152077
 30
0.0
 11
2131.7979761662268
 21
1650.6521991520769
 31
0.0
  0
LINE
  5
528F
  8
0
 10
2133.7479761662271
 20
1729.938199152077
 30
0.0
 11
2163.2479761662271
 21
1729.938199152077
 31
0.0
  0
LINE
  5
5290
  8
0
 10
2133.7479761662271
 20
1701.938199152077
 30
0.0
 11
2163.2479761662271
 21
1701.938199152077
 31
0.0
  0
LINE
  5
5291
  8
0
 10
2163.2479761662271
 20
1729.938199152077
 30
0.0
 11
2163.2479761662271
 21
1701.938199152077
 31
0.0
  0
POINT
  5
5292
  8
0
 10
2149.2479761662271
 20
1715.938199152077
 30
0.0
  0
LINE
  5
5293
  8
0
 10
1031.2579761662259
 20
1729.938199152077
 30
0.0
 11
1005.7579761662259
 21
1729.938199152077
 31
0.0
  0
LINE
  5
5294
  8
0
 10
1031.2579761662259
 20
1701.938199152077
 30
0.0
 11
1005.7579761662259
 21
1701.938199152077
 31
0.0
  0
LINE
  5
5295
  8
0
 10
1005.7579761662259
 20
1729.938199152077
 30
0.0
 11
1005.7579761662259
 21
1701.938199152077
 31
0.0
  0
POINT
  5
5296
  8
0
 10
1019.7579761662259
 20
1715.938199152077
 30
0.0
 50
180.0
  0
LINE
  5
52E3
  8
0
 10
2220.557976166227
 20
2071.4801991520771
 30
0.0
 11
2220.557976166227
 21
1738.938199152077
 31
0.0
  0
LINE
  5
52E4
  8
0
 10
2133.7479761662239
 20
1738.938199152077
 30
0.0
 11
2220.557976166227
 21
1738.938199152077
 31
0.0
  0
LINE
  5
52E5
  8
0
 10
2133.7479761662239
 20
2071.4801991520771
 30
0.0
 11
2220.557976166227
 21
2071.4801991520771
 31
0.0
  0
LINE
  5
536B
  8
0
 10
3503.0786195327919
 20
1044.162332160872
 30
0.0
 11
3503.0786195327919
 21
649.16233216087176
 31
0.0
  0
LINE
  5
536C
  8
0
 10
3250.1286195327898
 20
1044.162332160872
 30
0.0
 11
3250.1286195327898
 21
624.16233216087176
 31
0.0
  0
LINE
  5
536D
  8
0
 10
3513.0286195327908
 20
624.16233216087176
 30
0.0
 11
3250.1286195327898
 21
624.16233216087176
 31
0.0
  0
LINE
  5
536E
  8
0
 10
3503.0786195327919
 20
1044.162332160872
 30
0.0
 11
3501.5786195327919
 21
1044.162332160872
 31
0.0
  0
LINE
  5
536F
  8
0
 10
3513.0286195327908
 20
649.16233216087232
 30
0.0
 11
3513.0286195327908
 21
624.16233216087176
 31
0.0
  0
LINE
  5
5370
  8
0
 10
3513.0286195327908
 20
649.16233216087176
 30
0.0
 11
3290.88861953279
 21
649.16233216087176
 31
0.0
  0
LINE
  5
5371
  8
0
 10
3562.078619532791
 20
1026.5423321608721
 30
0.0
 11
3562.078619532791
 21
671.1623321608721
 31
0.0
  0
LINE
  5
5372
  8
0
 10
3562.078619532791
 20
671.1623321608721
 30
0.0
 11
3503.0786195327919
 21
671.1623321608721
 31
0.0
  0
LINE
  5
5373
  8
0
 10
3562.078619532791
 20
1026.5423321608721
 30
0.0
 11
3503.0786195327901
 21
1026.5423321608721
 31
0.0
  0
CIRCLE
  5
53C2
  8
0
 10
3381.6036195327902
 20
632.99833216087211
 30
0.0
 40
8.0
  0
ARC
  5
5412
  8
0
 10
3278.1886195327911
 20
649.16233216087176
 30
0.0
 40
12.699999999999999
 50
180.0
 51
0.0
  0
LINE
  5
5413
  8
0
 10
3265.4886195327908
 20
649.16233216087176
 30
0.0
 11
3250.1286195327898
 21
649.16233216087176
 31
0.0
  0
CIRCLE
  5
5415
  8
0
 10
3278.1886195327911
 20
649.82633216087231
 30
0.0
 40
10.0
  0
LINE
  5
54B4
  8
0
 10
3501.5786195327919
 20
1046.862332160872
 30
0.0
 11
3501.5786195327919
 21
959.76233216087235
 31
0.0
  0
LINE
  5
54B5
  8
0
 10
3473.578619532791
 20
1046.862332160872
 30
0.0
 11
3473.578619532791
 21
959.76233216087235
 31
0.0
  0
LINE
  5
54B6
  8
0
 10
3473.578619532791
 20
959.76233216087235
 30
0.0
 11
3501.5786195327919
 21
959.76233216087235
 31
0.0
  0
LINE
  5
54B7
  8
0
 10
3473.578619532791
 20
1046.862332160872
 30
0.0
 11
3501.5786195327919
 21
1046.862332160872
 31
0.0
  0
LINE
  5
54B8
  8
0
 10
3473.578619532791
 20
1044.362332160872
 30
0.0
 11
3501.5786195327919
 21
1044.362332160872
 31
0.0
  0
LINE
  5
54BB
  8
0
 10
3487.578619532791
 20
1039.362332160872
 30
0.0
 11
3487.578619532791
 21
1051.862332160872
 31
0.0
  0
LINE
  5
54BD
  8
0
 10
3473.578619532791
 20
1044.162332160872
 30
0.0
 11
3250.1286195327898
 21
1044.162332160872
 31
0.0
  0
CIRCLE
  5
54CA
  8
0
 10
3487.578619532791
 20
968.26233216087235
 30
0.0
 40
7.8499999999999988
  0
CIRCLE
  5
54CB
  8
0
 10
3487.578619532791
 20
1018.262332160872
 30
0.0
 40
6.0
  0
CIRCLE
  5
54CC
  8
0
 10
3487.578619532791
 20
998.26233216087235
 30
0.0
 40
7.8499999999999988
  0
LINE
  5
551A
  8
0
 10
3250.1286195327898
 20
635.11233216087226
 30
0.0
 11
2824.9166195327912
 21
635.11233216087226
 31
0.0
  0
LINE
  5
551B
  8
0
 10
2824.9166195327912
 20
1033.2123321608719
 30
0.0
 11
2824.9166195327912
 21
635.11233216087226
 31
0.0
  0
LINE
  5
551C
  8
0
 10
3250.1286195327898
 20
1033.2123321608719
 30
0.0
 11
2857.3666195327919
 21
1033.2123321608719
 31
0.0
  0
LINE
  5
551D
  8
0
 10
2824.9166195327912
 20
641.06233216087207
 30
0.0
 11
2778.0806195327918
 21
641.06233216087207
 31
0.0
  0
LINE
  5
551E
  8
0
 10
2778.0806195327918
 20
903.05533216087235
 30
0.0
 11
2778.0806195327918
 21
641.06233216087207
 31
0.0
  0
LINE
  5
551F
  8
0
 10
2824.9166195327912
 20
903.05533216087235
 30
0.0
 11
2778.0806195327918
 21
903.05533216087235
 31
0.0
  0
LINE
  5
5520
  8
0
 10
2866.3666195327928
 20
1028.477332160872
 30
0.0
 11
2866.3666195327892
 21
639.88733216087212
 31
0.0
  0
LINE
  5
5521
  8
0
 10
3198.9086195327918
 20
1028.477332160872
 30
0.0
 11
3198.9086195327918
 21
639.88733216087212
 31
0.0
  0
LINE
  5
5522
  8
0
 10
3198.9086195327918
 20
639.88733216087212
 30
0.0
 11
2866.3666195327892
 21
639.88733216087212
 31
0.0
  0
LINE
  5
5523
  8
0
 10
3198.9086195327918
 20
1028.477332160872
 30
0.0
 11
2866.3666195327928
 21
1028.477332160872
 31
0.0
  0
LINE
  5
5524
  8
0
 10
2858.8666195327919
 20
1044.162332160872
 30
0.0
 11
2857.3666195327919
 21
1044.162332160872
 31
0.0
  0
LINE
  5
5525
  8
0
 10
2857.3666195327919
 20
1046.862332160872
 30
0.0
 11
2857.3666195327919
 21
959.76233216087235
 31
0.0
  0
LINE
  5
5526
  8
0
 10
2829.366619532791
 20
1046.862332160872
 30
0.0
 11
2829.366619532791
 21
959.76233216087235
 31
0.0
  0
LINE
  5
5527
  8
0
 10
2829.366619532791
 20
959.76233216087235
 30
0.0
 11
2857.3666195327919
 21
959.76233216087235
 31
0.0
  0
LINE
  5
5528
  8
0
 10
2829.366619532791
 20
1046.862332160872
 30
0.0
 11
2857.3666195327919
 21
1046.862332160872
 31
0.0
  0
LINE
  5
5529
  8
0
 10
2829.366619532791
 20
1044.362332160872
 30
0.0
 11
2857.3666195327919
 21
1044.362332160872
 31
0.0
  0
LINE
  5
552A
  8
0
 10
2843.3666195327919
 20
1039.362332160872
 30
0.0
 11
2843.3666195327919
 21
1051.862332160872
 31
0.0
  0
CIRCLE
  5
552B
  8
0
 10
2843.3666195327919
 20
968.26233216087235
 30
0.0
 40
7.8499999999999988
  0
CIRCLE
  5
552C
  8
0
 10
2843.3666195327919
 20
1018.262332160872
 30
0.0
 40
6.0
  0
CIRCLE
  5
552D
  8
0
 10
2843.3666195327919
 20
998.26233216087235
 30
0.0
 40
7.8499999999999988
  0
LINE
  5
552E
  8
0
 10
2829.366619532791
 20
1033.2123321608719
 30
0.0
 11
2824.9166195327912
 21
1033.2123321608719
 31
0.0
  0
TEXT
  5
57D9
  8
0
 10
1461.3394623702479
 20
1908.321484178045
 30
0.0
 40
37.5
  1
ISD184KY
  7
TITLE3
  0
TEXT
  5
57DA
  8
0
 10
2927.0976872129741
 20
900.24687402189466
 30
0.0
 40
37.5
  1
ISD184KY
  7
TITLE3
  0
LINE
  5
57DB
  8
0
 62
     7
 10
951.9579761662269
 20
2454.6501991520781
 30
0.0
 11
951.9579761662269
 21
2520.280023042938
 31
0.0
  0
LINE
  5
57DC
  8
0
 62
     7
 10
981.95797616622679
 20
2500.2800230429361
 30
0.0
 11
1451.097845978165
 21
2500.2800230429361
 31
0.0
  0
SOLID
  5
57DD
  8
0
 62
     7
 10
981.95797616622679
 20
2505.280023042938
 30
0.0
 11
981.95797616622679
 21
2495.280023042937
 31
0.0
 12
951.9579761662269
 22
2500.2800230429361
 32
0.0
 13
951.9579761662269
 23
2500.2800230429361
 33
0.0
  0
LINE
  5
57E1
  8
0
 62
     7
 10
2238.9579761662271
 20
2454.6501991520781
 30
0.0
 11
2238.9579761662271
 21
2520.280023042938
 31
0.0
  0
LINE
  5
57E2
  8
0
 62
     7
 10
2208.957976166228
 20
2500.2800230429361
 30
0.0
 11
1542.7645126448319
 21
2500.2800230429361
 31
0.0
  0
SOLID
  5
57E3
  8
0
 62
     7
 10
2208.957976166228
 20
2505.280023042938
 30
0.0
 11
2208.957976166228
 21
2495.280023042937
 31
0.0
 12
2238.9579761662271
 22
2500.2800230429361
 32
0.0
 13
2238.9579761662271
 23
2500.2800230429361
 33
0.0
  0
TEXT
  5
57EE
  8
0
 62
     7
 10
1457.348669923854
 20
2488.180023042938
 30
0.0
 40
25.0
  1
1287
  0
LINE
  5
57EF
  8
0
 62
     7
 10
1037.2079761662269
 20
1630.6521991520769
 30
0.0
 11
1037.2079761662269
 21
1562.0439384885631
 31
0.0
  0
LINE
  5
57F0
  8
0
 62
     7
 10
1067.2079761662269
 20
1582.043938488564
 30
0.0
 11
1546.7327060946459
 21
1582.043938488564
 31
0.0
  0
SOLID
  5
57F1
  8
0
 62
     7
 10
1067.2079761662269
 20
1587.043938488564
 30
0.0
 11
1067.2079761662269
 21
1577.0439384885649
 31
0.0
 12
1037.2079761662269
 22
1582.043938488564
 32
0.0
 13
1037.2079761662269
 23
1582.043938488564
 33
0.0
  0
LINE
  5
57F3
  8
0
 62
     7
 10
2131.7979761662268
 20
1630.6521991520769
 30
0.0
 11
2131.7979761662268
 21
1562.0439384885631
 31
0.0
  0
LINE
  5
57F4
  8
0
 62
     7
 10
2101.797976166225
 20
1582.043938488564
 30
0.0
 11
1638.399372761312
 21
1582.043938488564
 31
0.0
  0
SOLID
  5
57F5
  8
0
 62
     7
 10
2101.797976166225
 20
1587.043938488564
 30
0.0
 11
2101.797976166225
 21
1577.0439384885649
 31
0.0
 12
2131.7979761662268
 22
1582.043938488564
 32
0.0
 13
2131.7979761662268
 23
1582.043938488564
 33
0.0
  0
TEXT
  5
57F9
  8
0
 62
     7
 10
1552.983530040334
 20
1569.3439384885639
 30
0.0
 40
25.0
  1
1095
  0
LINE
  5
57FA
  8
0
 62
     7
 10
2913.5550404436808
 20
742.83141917514513
 30
0.0
 11
2881.3818078164932
 21
771.36402116053023
 31
0.0
  0
LINE
  5
57FB
  8
0
 62
     7
 10
2931.0208412826928
 20
781.41399513805663
 30
0.0
 11
2931.0208412826928
 21
761.31404718300109
 31
0.0
  0
LINE
  5
57FC
  8
0
 62
     7
 10
2931.0208412826928
 20
761.31404718300109
 30
0.0
 11
2913.5550404436808
 21
761.31404718300109
 31
0.0
  0
LINE
  5
57FD
  8
0
 62
     7
 10
2913.5550404436808
 20
761.31404718300109
 30
0.0
 11
2913.5550404436808
 21
742.83141917514513
 31
0.0
  0
LINE
  5
57FE
  8
0
 62
     7
 10
2913.5550404436808
 20
799.89662314591351
 30
0.0
 11
2881.3818078164932
 21
771.36402116053023
 31
0.0
  0
LINE
  5
57FF
  8
0
 62
     7
 10
2931.0208412826928
 20
781.41399513805663
 30
0.0
 11
2913.5550404436808
 21
781.41399513805663
 31
0.0
  0
LINE
  5
5800
  8
0
 62
     7
 10
2913.5550404436808
 20
781.41399513805663
 30
0.0
 11
2913.5550404436808
 21
799.89662314591351
 31
0.0
  0
LINE
  5
5801
  8
0
 62
     7
 10
3468.5620376283009
 20
819.93655950172251
 30
0.0
 11
3436.3888050011151
 21
848.46916148710784
 31
0.0
  0
LINE
  5
5802
  8
0
 62
     7
 10
3486.0278384673138
 20
858.51913546463379
 30
0.0
 11
3486.0278384673138
 21
838.41918750957848
 31
0.0
  0
LINE
  5
5803
  8
0
 62
     7
 10
3486.0278384673138
 20
838.41918750957848
 30
0.0
 11
3468.5620376283009
 21
838.41918750957848
 31
0.0
  0
LINE
  5
5804
  8
0
 62
     7
 10
3468.5620376283009
 20
838.41918750957848
 30
0.0
 11
3468.5620376283009
 21
819.93655950172251
 31
0.0
  0
LINE
  5
5805
  8
0
 62
     7
 10
3468.5620376283009
 20
877.00176347249078
 30
0.0
 11
3436.3888050011151
 21
848.46916148710784
 31
0.0
  0
LINE
  5
5806
  8
0
 62
     7
 10
3486.0278384673138
 20
858.51913546463379
 30
0.0
 11
3468.5620376283009
 21
858.51913546463379
 31
0.0
  0
LINE
  5
5807
  8
0
 62
     7
 10
3468.5620376283009
 20
858.51913546463379
 30
0.0
 11
3468.5620376283009
 21
877.00176347249078
 31
0.0
  0
LINE
  5
5808
  8
0
 62
     7
 10
2758.0806195327909
 20
903.05533216087235
 30
0.0
 11
2694.542532033619
 21
903.05533216087235
 31
0.0
  0
LINE
  5
5809
  8
0
 62
     7
 10
2714.5425320336199
 20
873.05533216087224
 30
0.0
 11
2714.5425320336162
 21
812.65912758561763
 31
0.0
  0
SOLID
  5
580A
  8
0
 62
     7
 10
2709.542532033619
 20
873.05533216087224
 30
0.0
 11
2719.542532033619
 21
873.05533216087224
 31
0.0
 12
2714.5425320336199
 22
903.05533216087235
 32
0.0
 13
2714.5425320336199
 23
903.05533216087235
 33
0.0
  0
TEXT
  5
580B
  8
0
 62
     7
 10
2727.042532033619
 20
739.74328486464037
 30
0.0
 40
25.0
  1
262
 50
90.0
  0
LINE
  5
580C
  8
0
 62
     7
 10
2758.0806195327909
 20
641.06233216087207
 30
0.0
 11
2694.542532033619
 21
641.06233216087207
 31
0.0
  0
LINE
  5
580D
  8
0
 62
     7
 10
2714.542532033618
 20
671.06233216087196
 30
0.0
 11
2714.542532033618
 21
733.49246091895145
 31
0.0
  0
SOLID
  5
580E
  8
0
 62
     7
 10
2709.542532033619
 20
671.06233216087196
 30
0.0
 11
2719.542532033619
 21
671.06233216087196
 31
0.0
 12
2714.542532033618
 22
641.06233216087207
 32
0.0
 13
2714.542532033618
 23
641.06233216087207
 33
0.0
  0
LINE
  5
585C
  8
0
 62
     7
 10
3582.078619532791
 20
1026.5423321608721
 30
0.0
 11
3648.684446369421
 21
1026.5423321608721
 31
0.0
  0
LINE
  5
585D
  8
0
 62
     7
 10
3628.6844463694242
 20
996.54233216087232
 30
0.0
 11
3628.684446369421
 21
885.79960987752565
 31
0.0
  0
SOLID
  5
585E
  8
0
 62
     7
 10
3623.6844463694201
 20
996.54233216087232
 30
0.0
 11
3633.6844463694242
 21
996.54233216087232
 31
0.0
 12
3628.6844463694242
 22
1026.5423321608721
 32
0.0
 13
3628.6844463694242
 23
1026.5423321608721
 33
0.0
  0
TEXT
  5
585F
  8
0
 62
     7
 10
3641.184446369421
 20
812.88376715654772
 30
0.0
 40
25.0
  1
355
 50
90.0
  0
LINE
  5
5860
  8
0
 62
     7
 10
3582.0786195327919
 20
671.16233216087312
 30
0.0
 11
3648.6844463694219
 21
671.16233216087312
 31
0.0
  0
LINE
  5
5861
  8
0
 62
     7
 10
3628.6844463694242
 20
701.16233216087301
 30
0.0
 11
3628.6844463694242
 21
806.6329432108588
 31
0.0
  0
SOLID
  5
5862
  8
0
 62
     7
 10
3623.6844463694219
 20
701.16233216087301
 30
0.0
 11
3633.6844463694242
 21
701.16233216087301
 31
0.0
 12
3628.6844463694242
 22
671.16233216087312
 32
0.0
 13
3628.6844463694242
 23
671.16233216087312
 33
0.0
  0
LINE
  5
58B4
  8
0
 62
     7
 10
3521.578619532791
 20
1046.862332160872
 30
0.0
 11
3690.7330122880162
 21
1046.862332160872
 31
0.0
  0
LINE
  5
58B5
  8
0
 62
     7
 10
3670.7330122880171
 20
1016.862332160872
 30
0.0
 11
3670.7330122880139
 21
926.08841044381347
 31
0.0
  0
SOLID
  5
58B6
  8
0
 62
     7
 10
3665.7330122880148
 20
1016.862332160872
 30
0.0
 11
3675.7330122880171
 21
1016.862332160872
 31
0.0
 12
3670.7330122880171
 22
1046.862332160872
 32
0.0
 13
3670.7330122880171
 23
1046.862332160872
 33
0.0
  0
LINE
  5
58B8
  8
0
 62
     7
 10
3533.0286195327922
 20
624.16233216087176
 30
0.0
 11
3690.7330122880162
 21
624.16233216087176
 31
0.0
  0
LINE
  5
58B9
  8
0
 62
     7
 10
3670.733012288018
 20
654.1623321608721
 30
0.0
 11
3670.733012288018
 21
746.92174377714684
 31
0.0
  0
SOLID
  5
58BA
  8
0
 62
     7
 10
3665.7330122880148
 20
654.1623321608721
 30
0.0
 11
3675.7330122880171
 21
654.1623321608721
 31
0.0
 12
3670.733012288018
 22
624.16233216087176
 32
0.0
 13
3670.733012288018
 23
624.16233216087176
 33
0.0
  0
TEXT
  5
58BB
  8
0
 62
     7
 10
3683.2330122880171
 20
753.17256772283599
 30
0.0
 40
25.0
  1
423 O/A
 50
90.0
  0
LINE
  5
5909
  8
0
  6
PHANTOM
 62
     7
 10
2856.7579761662269
 20
1400.6521991520769
 30
0.0
 11
2856.7579761662269
 21
2385.600199152077
 31
0.0
  0
LINE
  5
590A
  8
0
  6
PHANTOM
 62
     7
 10
2856.7579761662269
 20
2385.600199152077
 30
0.0
 11
2342.336981353616
 21
2385.600199152077
 31
0.0
  0
TEXT
  5
590B
  8
0
 62
     7
 10
2898.0477268084219
 20
1687.9818970912761
 30
0.0
 40
25.0
  1
500 mm CLEARENCE
 50
90.0
  7
TITLE3
  0
LINE
  5
590C
  8
0
  6
PHANTOM
 62
     7
 10
2131.7979761662268
 20
1400.6521991520769
 30
0.0
 11
2856.7579761662269
 21
1400.6521991520769
 31
0.0
  0
LINE
  5
590E
  8
0
  6
PHANTOM
 62
     7
 10
2131.7979761662268
 20
1400.6521991520769
 30
0.0
 11
2131.7979761662268
 21
1548.4649333011739
 31
0.0
  0
TEXT
  5
590F
  8
0
 62
     7
 10
2254.2359873227801
 20
1358.255303204239
 30
0.0
 40
25.0
  1
250 mm CLEARENCE
  7
TITLE3
  0
LINE
  5
5967
  8
0
 62
     7
 10
2778.0806195327918
 20
621.06233216087196
 30
0.0
 11
2778.0806195327918
 21
516.25069834741305
 31
0.0
  0
LINE
  5
5968
  8
0
 62
     7
 10
2808.0806195327909
 20
536.25069834741316
 30
0.0
 11
3085.72616330764
 21
536.25069834741328
 31
0.0
  0
SOLID
  5
5969
  8
0
 62
     7
 10
2808.0806195327909
 20
541.25069834741305
 30
0.0
 11
2808.0806195327909
 21
531.25069834741305
 31
0.0
 12
2778.0806195327918
 22
536.25069834741316
 32
0.0
 13
2778.0806195327918
 23
536.25069834741316
 33
0.0
  0
LINE
  5
596A
  8
0
 62
     7
 10
3562.078619532791
 20
650.32633216087231
 30
0.0
 11
3562.078619532791
 21
516.25069834741305
 31
0.0
  0
LINE
  5
596B
  8
0
 62
     7
 10
3532.0786195327919
 20
536.25069834741316
 30
0.0
 11
3264.8928299743061
 21
536.25069834741328
 31
0.0
  0
SOLID
  5
596C
  8
0
 62
     7
 10
3532.0786195327919
 20
541.25069834741305
 30
0.0
 11
3532.0786195327919
 21
531.25069834741305
 31
0.0
 12
3562.078619532791
 22
536.25069834741316
 32
0.0
 13
3562.078619532791
 23
536.25069834741316
 33
0.0
  0
TEXT
  5
596E
  8
0
 62
     7
 10
3091.9769872533288
 20
523.75069834741225
 30
0.0
 40
25.0
  1
784 O/A
  0
LINE
  5
59BF
  8
0
 62
     7
 10
2149.2479761662271
 20
1695.938199152077
 30
0.0
 11
2149.2479761662271
 21
1517.653822581141
 31
0.0
  0
LINE
  5
59C0
  8
0
 62
     7
 10
2119.2479761662271
 20
1537.653822581143
 30
0.0
 11
1705.921565297172
 21
1537.653822581143
 31
0.0
  0
SOLID
  5
59C1
  8
0
 62
     7
 10
2119.2479761662271
 20
1542.653822581143
 30
0.0
 11
2119.2479761662271
 21
1532.653822581143
 31
0.0
 12
2149.2479761662271
 22
1537.653822581143
 32
0.0
 13
2149.2479761662271
 23
1537.653822581143
 33
0.0
  0
LINE
  5
59C2
  8
0
 62
     7
 10
1049.7579761662259
 20
1537.653822581143
 30
0.0
 11
1464.088231963839
 21
1537.653822581143
 31
0.0
  0
SOLID
  5
59C3
  8
0
 62
     7
 10
1049.7579761662259
 20
1542.653822581143
 30
0.0
 11
1049.7579761662259
 21
1532.653822581143
 31
0.0
 12
1019.7579761662259
 22
1537.653822581143
 32
0.0
 13
1019.7579761662259
 23
1537.653822581143
 33
0.0
  0
TEXT
  5
59C4
  8
0
 62
     7
 10
1466.3390559095269
 20
1524.953822581142
 30
0.0
 40
25.0
  1
1129.5 CTRS
  0
LINE
  5
5A12
  8
0
 62
     7
 10
2843.3666195327919
 20
1071.8623321608729
 30
0.0
 11
2843.3666195327919
 21
1137.4921560517321
 31
0.0
  0
LINE
  5
5A13
  8
0
 62
     7
 10
2873.3666195327919
 20
1117.4921560517309
 30
0.0
 11
3049.9782654327241
 21
1117.4921560517309
 31
0.0
  0
SOLID
  5
5A14
  8
0
 62
     7
 10
2873.3666195327919
 20
1122.4921560517321
 30
0.0
 11
2873.3666195327919
 21
1112.4921560517321
 31
0.0
 12
2843.3666195327919
 22
1117.4921560517309
 32
0.0
 13
2843.3666195327919
 23
1117.4921560517309
 33
0.0
  0
LINE
  5
5A15
  8
0
 62
     7
 10
3487.578619532791
 20
1071.8623321608729
 30
0.0
 11
3487.578619532791
 21
1137.4921560517321
 31
0.0
  0
LINE
  5
5A16
  8
0
 62
     7
 10
3457.5786195327919
 20
1117.4921560517309
 30
0.0
 11
3287.4782654327232
 21
1117.4921560517309
 31
0.0
  0
SOLID
  5
5A17
  8
0
 62
     7
 10
3457.5786195327919
 20
1122.4921560517321
 30
0.0
 11
3457.5786195327919
 21
1112.4921560517321
 31
0.0
 12
3487.578619532791
 22
1117.4921560517309
 32
0.0
 13
3487.578619532791
 23
1117.4921560517309
 33
0.0
  0
TEXT
  5
5A18
  8
0
 62
     7
 10
3056.2290893784129
 20
1105.3921560517319
 30
0.0
 40
25.0
  1
644.2 CTRS
  0
LINE
  5
5A67
  8
0
 62
     7
 10
891.30797616622692
 20
2380.1501991520781
 30
0.0
 11
891.30797616622692
 21
2572.9594809006189
 31
0.0
  0
TEXT
  5
5A6A
  8
0
 62
     7
 10
1402.211820622178
 20
2540.8594809006181
 30
0.0
 40
25.0
  1
1433 CTRS
  0
LINE
  5
5A6C
  8
0
 62
     7
 10
2324.307976166227
 20
2380.1501991520781
 30
0.0
 11
2324.307976166227
 21
2572.9594809006189
 31
0.0
  0
LINE
  5
5A6D
  8
0
 62
     7
 10
2294.307976166227
 20
2552.959480900618
 30
0.0
 11
1645.9609966764881
 21
2552.959480900618
 31
0.0
  0
SOLID
  5
5A6E
  8
0
 62
     7
 10
2294.307976166227
 20
2557.9594809006189
 30
0.0
 11
2294.307976166227
 21
2547.959480900618
 31
0.0
 12
2324.307976166227
 22
2552.959480900618
 32
0.0
 13
2324.307976166227
 23
2552.959480900618
 33
0.0
  0
LINE
  5
5D99
  8
0
 62
     7
 10
921.30797616622692
 20
2552.9594809006171
 30
0.0
 11
1395.960996676489
 21
2552.9594809006171
 31
0.0
  0
SOLID
  5
5D9A
  8
0
 62
     7
 10
921.30797616622692
 20
2557.9594809006189
 30
0.0
 11
921.30797616622692
 21
2547.959480900618
 31
0.0
 12
891.30797616622692
 22
2552.9594809006171
 32
0.0
 13
891.30797616622692
 23
2552.9594809006171
 33
0.0
  0
LINE
  5
5D9B
  8
0
 10
2328.7579761662269
 20
624.16233216087176
 30
0.0
 11
886.85797616622733
 21
624.16233216087176
 31
0.0
  0
LINE
  5
5D9C
  8
0
 10
2308.807976166227
 20
1044.162332160872
 30
0.0
 11
2041.2479761662271
 21
1044.162332160872
 31
0.0
  0
LINE
  5
5D9E
  8
0
 10
886.85797616622733
 20
649.16233216087176
 30
0.0
 11
886.85797616622733
 21
624.16233216087176
 31
0.0
  0
LINE
  5
5D9F
  8
0
 10
2328.7579761662269
 20
649.16233216087176
 30
0.0
 11
2328.7579761662269
 21
624.16233216087176
 31
0.0
  0
LINE
  5
5DA0
  8
0
 10
906.80797616622704
 20
1046.862332160872
 30
0.0
 11
906.80797616622704
 21
624.16233216087176
 31
0.0
  0
LINE
  5
5DA1
  8
0
 10
906.80797616622704
 20
649.16233216087176
 30
0.0
 11
886.85797616622733
 21
649.16233216087176
 31
0.0
  0
LINE
  5
5DA2
  8
0
 10
2316.2579761662269
 20
677.392332160872
 30
0.0
 11
2340.7579761662269
 21
677.392332160872
 31
0.0
  0
LINE
  5
5DA3
  8
0
 10
2340.7579761662269
 20
676.39233216087246
 30
0.0
 11
2356.7579761662269
 21
676.39233216087246
 31
0.0
  0
LINE
  5
5DA4
  8
0
 10
2316.2579761662269
 20
699.39233216087223
 30
0.0
 11
2340.7579761662269
 21
699.39233216087223
 31
0.0
  0
LINE
  5
5DA5
  8
0
 10
2340.7579761662269
 20
700.39233216087155
 30
0.0
 11
2356.7579761662269
 21
700.39233216087155
 31
0.0
  0
LINE
  5
5DA6
  8
0
 10
2356.7579761662269
 20
700.39233216087155
 30
0.0
 11
2356.7579761662269
 21
676.39233216087246
 31
0.0
  0
LINE
  5
5DA7
  8
0
 10
2340.7579761662269
 20
700.39233216087155
 30
0.0
 11
2340.7579761662269
 21
676.39233216087246
 31
0.0
  0
LINE
  5
5DA8
  8
0
 10
2316.2579761662269
 20
776.64233216087223
 30
0.0
 11
2344.057976166227
 21
776.64233216087246
 31
0.0
  0
LINE
  5
5DA9
  8
0
 10
2344.057976166227
 20
775.64233216087223
 30
0.0
 11
2356.7579761662269
 21
775.64233216087223
 31
0.0
  0
LINE
  5
5DAA
  8
0
 10
2316.2579761662269
 20
789.34233216087216
 30
0.0
 11
2344.057976166227
 21
789.34233216087262
 31
0.0
  0
LINE
  5
5DAB
  8
0
 10
2344.057976166227
 20
790.3423321608725
 30
0.0
 11
2356.7579761662269
 21
790.3423321608725
 31
0.0
  0
LINE
  5
5DAD
  8
0
 10
2356.7579761662269
 20
790.3423321608725
 30
0.0
 11
2356.7579761662269
 21
775.64233216087223
 31
0.0
  0
LINE
  5
5DAE
  8
0
 10
2328.7579761662269
 20
624.99833216087245
 30
0.0
 11
2356.7579761662269
 21
624.99833216087211
 31
0.0
  0
LINE
  5
5DAF
  8
0
 10
2350.751976166227
 20
640.99833216087245
 30
0.0
 11
2356.7579761662269
 21
640.99833216087245
 31
0.0
  0
LINE
  5
5DB0
  8
0
 10
2356.7579761662269
 20
640.99833216087211
 30
0.0
 11
2356.7579761662269
 21
624.998332160872
 31
0.0
  0
LINE
  5
5DB1
  8
0
 10
2328.7579761662269
 20
639.16233216087187
 30
0.0
 11
2350.751976166227
 21
639.1623321608721
 31
0.0
  0
LINE
  5
5DB2
  8
0
 10
2316.2579761662282
 20
659.1623321608721
 30
0.0
 11
2350.751976166227
 21
659.1623321608721
 31
0.0
  0
LINE
  5
5DB3
  8
0
 10
2350.751976166227
 20
659.1623321608721
 30
0.0
 11
2350.751976166227
 21
639.1623321608721
 31
0.0
  0
LINE
  5
5DB5
  8
0
 10
2308.807976166227
 20
1046.862332160872
 30
0.0
 11
2338.307976166227
 21
1046.862332160872
 31
0.0
  0
LINE
  5
5DB6
  8
0
 10
2311.307976166227
 20
1044.362332160872
 30
0.0
 11
2338.307976166227
 21
1044.362332160872
 31
0.0
  0
LINE
  5
5DB7
  8
0
 10
2338.307976166227
 20
1046.862332160872
 30
0.0
 11
2338.307976166227
 21
1044.362332160872
 31
0.0
  0
LINE
  5
5DB8
  8
0
 10
2324.307976166227
 20
1051.862332160872
 30
0.0
 11
2324.307976166227
 21
1039.362332160872
 31
0.0
  0
LINE
  5
5DB9
  8
0
 10
904.30797616622795
 20
1044.362332160872
 30
0.0
 11
904.30797616622795
 21
959.76233216087235
 31
0.0
  0
LINE
  5
5DBA
  8
0
 10
906.80797616622704
 20
1046.862332160872
 30
0.0
 11
877.30797616622715
 21
1046.862332160872
 31
0.0
  0
LINE
  5
5DBB
  8
0
 10
904.30797616622795
 20
1044.362332160872
 30
0.0
 11
877.30797616622715
 21
1044.362332160872
 31
0.0
  0
LINE
  5
5DBD
  8
0
 10
877.30797616622715
 20
1046.862332160872
 30
0.0
 11
877.30797616622715
 21
1044.362332160872
 31
0.0
  0
LINE
  5
5DBE
  8
0
 10
891.30797616622692
 20
1051.862332160872
 30
0.0
 11
891.30797616622692
 21
1039.362332160872
 31
0.0
  0
LINE
  5
5DBF
  8
0
 10
2133.7479761662239
 20
1033.2123321608719
 30
0.0
 11
2133.7479761662271
 21
635.11233216087226
 31
0.0
  0
LINE
  5
5DC0
  8
0
 10
1031.2579761662259
 20
1033.2123321608719
 30
0.0
 11
1031.2579761662259
 21
635.11233216087226
 31
0.0
  0
LINE
  5
5DC1
  8
0
 10
2133.7479761662271
 20
635.11233216087226
 30
0.0
 11
1031.2579761662259
 21
635.11233216087226
 31
0.0
  0
LINE
  5
5DC2
  8
0
 10
2133.7479761662239
 20
1033.2123321608719
 30
0.0
 11
1031.2579761662259
 21
1033.2123321608719
 31
0.0
  0
LINE
  5
5DC3
  8
0
 10
2131.7979761662268
 20
641.06233216087207
 30
0.0
 11
1037.2079761662269
 21
641.06233216087207
 31
0.0
  0
LINE
  5
5DC4
  8
0
 10
2131.7979761662268
 20
903.05533216087235
 30
0.0
 11
1037.2079761662269
 21
903.05533216087235
 31
0.0
  0
LINE
  5
5DC5
  8
0
 10
1037.2079761662269
 20
903.05533216087235
 30
0.0
 11
1037.2079761662269
 21
641.06233216087207
 31
0.0
  0
LINE
  5
5DC6
  8
0
 10
2131.7979761662268
 20
903.05533216087235
 30
0.0
 11
2131.7979761662268
 21
641.06233216087207
 31
0.0
  0
LINE
  5
5DC7
  8
0
 10
2316.2579761662269
 20
639.88733216087212
 30
0.0
 11
2133.7479761662271
 21
639.88733216087064
 31
0.0
  0
LINE
  5
5DC8
  8
0
 10
2316.2579761662269
 20
1028.477332160872
 30
0.0
 11
2041.2479761662271
 21
1028.477332160872
 31
0.0
  0
LINE
  5
5DCA
  8
0
 10
2308.807976166227
 20
1044.162332160872
 30
0.0
 11
2308.807976166227
 21
1028.477332160872
 31
0.0
  0
LINE
  5
5DCB
  8
0
 10
1035.2579761662259
 20
1046.862332160872
 30
0.0
 11
1035.2579761662259
 21
959.76233216087235
 31
0.0
  0
LINE
  5
5DD3
  8
0
 10
2133.7479761662239
 20
1046.862332160872
 30
0.0
 11
2133.7479761662239
 21
959.76233216087235
 31
0.0
  0
LINE
  5
5DD4
  8
0
 10
2136.2479761662271
 20
1044.362332160872
 30
0.0
 11
2136.2479761662271
 21
959.76233216087223
 31
0.0
  0
LINE
  5
5DD5
  8
0
 10
2133.7479761662239
 20
1046.862332160872
 30
0.0
 11
2163.2479761662271
 21
1046.862332160872
 31
0.0
  0
LINE
  5
5DD6
  8
0
 10
2136.2479761662271
 20
1044.362332160872
 30
0.0
 11
2163.2479761662271
 21
1044.362332160872
 31
0.0
  0
LINE
  5
5DD7
  8
0
 10
2163.2479761662271
 20
1046.862332160872
 30
0.0
 11
2163.2479761662271
 21
1044.362332160872
 31
0.0
  0
LINE
  5
5DD8
  8
0
 10
2133.7479761662239
 20
959.76233216087235
 30
0.0
 11
2136.2479761662271
 21
959.76233216087223
 31
0.0
  0
LINE
  5
5DD9
  8
0
 10
2149.2479761662271
 20
1051.862332160872
 30
0.0
 11
2149.2479761662271
 21
1039.362332160872
 31
0.0
  0
LINE
  5
5DDA
  8
0
 10
2134.2379761662241
 20
1044.162332160872
 30
0.0
 11
907.29797616622693
 21
1044.162332160872
 31
0.0
  0
LINE
  5
5DE8
  8
0
  6
HIDDEN
 62
     7
 10
2133.7479761662239
 20
958.76233216087041
 30
0.0
 11
2133.7479761662239
 21
1006.26233216087
 31
0.0
  0
LINE
  5
5E06
  8
0
  6
HIDDEN
 62
     7
 10
1035.2579761662259
 20
958.76233216087041
 30
0.0
 11
1035.2579761662259
 21
1006.26233216087
 31
0.0
  0
TEXT
  5
5E17
  8
0
 10
1461.3394623702479
 20
758.7444947434517
 30
0.0
 40
37.5
  1
ISD184KY
  7
TITLE3
  0
LINE
  5
5E18
  8
0
 62
     7
 10
886.85797616622733
 20
604.1623321608721
 30
0.0
 11
886.85797616622733
 21
516.25069834741305
 31
0.0
  0
LINE
  5
5E19
  8
0
 62
     7
 10
916.85797616622699
 20
536.25069834741316
 30
0.0
 11
1437.5613636232131
 21
536.25069834741328
 31
0.0
  0
SOLID
  5
5E1A
  8
0
 62
     7
 10
916.85797616622699
 20
541.25069834741305
 30
0.0
 11
916.85797616622699
 21
531.25069834741305
 31
0.0
 12
886.85797616622733
 22
536.25069834741316
 32
0.0
 13
886.85797616622733
 23
536.25069834741316
 33
0.0
  0
LINE
  5
5E1B
  8
0
 62
     7
 10
2356.7579761662269
 20
604.1623321608721
 30
0.0
 11
2356.7579761662269
 21
516.25069834741305
 31
0.0
  0
LINE
  5
5E1C
  8
0
 62
     7
 10
2326.7579761662269
 20
536.25069834741316
 30
0.0
 11
1616.7280302898801
 21
536.25069834741328
 31
0.0
  0
SOLID
  5
5E1D
  8
0
 62
     7
 10
2326.7579761662269
 20
541.25069834741305
 30
0.0
 11
2326.7579761662269
 21
531.25069834741305
 31
0.0
 12
2356.7579761662269
 22
536.25069834741316
 32
0.0
 13
2356.7579761662269
 23
536.25069834741316
 33
0.0
  0
TEXT
  5
5E1E
  8
0
 62
     7
 10
1443.8121875689019
 20
523.75069834741225
 30
0.0
 40
25.0
  1
1470 O/A
  0
LINE
  5
5E33
  8
0
 10
2316.2579761662269
 20
1028.477332160872
 30
0.0
 11
2316.2579761662269
 21
639.88733216087212
 31
0.0
  0
LINE
  5
5E36
  8
0
 10
2328.7579761662269
 20
649.16233216087176
 30
0.0
 11
2316.2579761662282
 21
649.16233216087176
 31
0.0
  0
LINE
  5
5E37
  8
0
 10
2308.8079761662252
 20
1046.862332160872
 30
0.0
 11
2308.8079761662252
 21
1028.477332160872
 31
0.0
  0
LINE
  5
5E38
  8
0
 10
2311.307976166227
 20
1044.362332160872
 30
0.0
 11
2311.307976166227
 21
1028.477332160872
 31
0.0
  0
LINE
  5
5E3A
  8
0
  6
HIDDEN
 62
     7
 10
2308.8079761662252
 20
958.76233216087041
 30
0.0
 11
2308.8079761662252
 21
1006.26233216087
 31
0.0
  0
LINE
  5
5F0B
  8
0
 62
     7
 10
859.80797616622544
 20
956.26233216087019
 30
0.0
 11
859.80797616622544
 21
1219.9668517125181
 31
0.0
  0
LINE
  5
5F0C
  8
0
 62
     7
 10
889.80797616622544
 20
1199.966851712519
 30
0.0
 11
1154.6269882444151
 21
1199.966851712519
 31
0.0
  0
SOLID
  5
5F0D
  8
0
 62
     7
 10
889.80797616622544
 20
1204.9668517125181
 30
0.0
 11
889.80797616622544
 21
1194.9668517125181
 31
0.0
 12
859.80797616622544
 22
1199.966851712519
 32
0.0
 13
859.80797616622544
 23
1199.966851712519
 33
0.0
  0
LINE
  5
5F0E
  8
0
 62
     7
 10
2355.8079761662252
 20
956.26233216087019
 30
0.0
 11
2355.8079761662252
 21
1219.9668517125181
 31
0.0
  0
LINE
  5
5F0F
  8
0
 62
     7
 10
2325.8079761662239
 20
1199.966851712519
 30
0.0
 11
1917.1269882444151
 21
1199.9668517125201
 31
0.0
  0
SOLID
  5
5F10
  8
0
 62
     7
 10
2325.8079761662239
 20
1204.9668517125181
 30
0.0
 11
2325.8079761662239
 21
1194.9668517125181
 31
0.0
 12
2355.8079761662252
 22
1199.966851712519
 32
0.0
 13
2355.8079761662252
 23
1199.966851712519
 33
0.0
  0
TEXT
  5
5F11
  8
0
 62
     7
 10
1160.8778121901039
 20
1187.4668517125181
 30
0.0
 40
25.0
  1
1496 (SPRING MTG CTRS - OPTION)
  0
LINE
  5
5F12
  8
0
 62
     7
 10
986.74797616622516
 20
956.26233216086951
 30
0.0
 11
986.74797616622516
 21
1160.815077715861
 31
0.0
  0
LINE
  5
5F13
  8
0
 62
     7
 10
1016.747976166225
 20
1140.8150777158619
 30
0.0
 11
1183.885168571072
 21
1140.8150777158619
 31
0.0
  0
SOLID
  5
5F14
  8
0
 62
     7
 10
1016.747976166225
 20
1145.815077715861
 30
0.0
 11
1016.747976166225
 21
1135.815077715861
 31
0.0
 12
986.74797616622516
 22
1140.8150777158619
 32
0.0
 13
986.74797616622516
 23
1140.8150777158619
 33
0.0
  0
TEXT
  5
5F15
  8
0
 62
     7
 10
1191.6459925167619
 20
1128.315077715861
 30
0.0
 40
25.0
  1
1194 (SPRING MTG CTRS - OPTION)
  0
LINE
  5
5F16
  8
0
 62
     7
 10
2180.7479761662248
 20
956.26233216086905
 30
0.0
 11
2180.7479761662248
 21
1160.8150777158601
 31
0.0
  0
LINE
  5
5F17
  8
0
 62
     7
 10
2150.7479761662271
 20
1140.8150777158619
 30
0.0
 11
1952.0618352377401
 21
1140.8150777158619
 31
0.0
  0
SOLID
  5
5F18
  8
0
 62
     7
 10
2150.7479761662271
 20
1145.8150777158601
 30
0.0
 11
2150.7479761662271
 21
1135.8150777158601
 31
0.0
 12
2180.7479761662248
 22
1140.8150777158619
 32
0.0
 13
2180.7479761662248
 23
1140.8150777158619
 33
0.0
  0
ARC
  5
5F1C
  8
0
  6
HIDDEN
 62
     7
 10
884.30797616622681
 20
958.76233216087007
 30
0.0
 40
22.5
 50
270.0
 51
0.000000000000007
  0
ARC
  5
5F1D
  8
0
  6
HIDDEN
 62
     7
 10
884.30797616622681
 20
958.76233216087007
 30
0.0
 40
10.0
 50
270.0
 51
0.000000000000007
  0
LINE
  5
5F1E
  8
0
  6
HIDDEN
 62
     7
 10
884.30797616622681
 20
948.76233216087007
 30
0.0
 11
841.80797616622544
 21
948.76233216087007
 31
0.0
  0
LINE
  5
5F1F
  8
0
  6
HIDDEN
 62
     7
 10
877.30797616622715
 20
929.26233216087201
 30
0.0
 11
842.30797616622681
 21
929.26233216087201
 31
0.0
  0
LINE
  5
5F20
  8
0
  6
HIDDEN
 62
     7
 10
884.30797616622681
 20
936.26233216087212
 30
0.0
 11
841.80797616622544
 21
936.26233216087212
 31
0.0
  0
LINE
  5
5F21
  8
0
  6
HIDDEN
 62
     7
 10
841.80797616622544
 20
936.26233216087212
 30
0.0
 11
841.80797616622544
 21
948.76233216087007
 31
0.0
  0
LINE
  5
5F22
  8
0
  6
HIDDEN
 62
     7
 10
842.30797616622681
 20
929.26233216087007
 30
0.0
 11
842.30797616622681
 21
932.26233216087201
 31
0.0
  0
ARC
  5
5F23
  8
0
  6
HIDDEN
 62
     7
 10
846.30797616622669
 20
932.26233216087201
 30
0.0
 40
4.0
 50
90.0
 51
180.0
  0
LINE
  5
5F24
  8
0
  6
HIDDEN
 62
     7
 10
859.80797616622544
 20
929.26233216087201
 30
0.0
 11
859.80797616622544
 21
938.93453320645767
 31
0.0
  0
ARC
  5
5F26
  8
0
  6
HIDDEN
 62
     7
 10
873.30797616622669
 20
932.26233216087201
 30
0.0
 40
4.0
 50
0.000000000000007
 51
90.0
  0
LINE
  5
5F27
  8
0
  6
HIDDEN
 62
     7
 10
906.80797616622704
 20
1006.26233216087
 30
0.0
 11
894.30797616622726
 21
1006.26233216087
 31
0.0
  0
LINE
  5
5F28
  8
0
  6
HIDDEN
 62
     7
 10
894.30797616622726
 20
958.76233216087007
 30
0.0
 11
894.30797616622726
 21
1006.26233216087
 31
0.0
  0
POINT
  5
5F2A
  8
0
  6
HIDDEN
 62
     7
 10
859.80797616622544
 20
936.26233216087212
 30
0.0
 50
0.000000000000007
  0
LINE
  5
5F2B
  8
0
 10
1032.7579761662259
 20
1044.362332160872
 30
0.0
 11
1032.7579761662259
 21
959.76233216087235
 31
0.0
  0
LINE
  5
5F2C
  8
0
 10
1035.747976166226
 20
1046.862332160872
 30
0.0
 11
1006.247976166226
 21
1046.862332160872
 31
0.0
  0
LINE
  5
5F2D
  8
0
 10
1033.247976166226
 20
1044.362332160872
 30
0.0
 11
1006.247976166226
 21
1044.362332160872
 31
0.0
  0
LINE
  5
5F2E
  8
0
 10
1035.2579761662259
 20
959.76233216087235
 30
0.0
 11
1032.7579761662259
 21
959.76233216087235
 31
0.0
  0
LINE
  5
5F2F
  8
0
 10
1006.247976166226
 20
1046.862332160872
 30
0.0
 11
1006.247976166226
 21
1044.362332160872
 31
0.0
  0
LINE
  5
5F30
  8
0
 10
1020.247976166226
 20
1051.862332160872
 30
0.0
 11
1020.247976166226
 21
1039.362332160872
 31
0.0
  0
LINE
  5
5F31
  8
0
  6
HIDDEN
 62
     7
 10
1035.2579761662259
 20
958.76233216087007
 30
0.0
 11
1035.2579761662259
 21
1006.26233216087
 31
0.0
  0
ARC
  5
5F32
  8
0
  6
HIDDEN
 62
     7
 10
1011.247976166226
 20
958.76233216087007
 30
0.0
 40
22.5
 50
270.0
 51
0.000000000000007
  0
ARC
  5
5F33
  8
0
  6
HIDDEN
 62
     7
 10
1011.247976166226
 20
958.76233216087007
 30
0.0
 40
10.0
 50
270.0
 51
0.000000000000007
  0
LINE
  5
5F34
  8
0
  6
HIDDEN
 62
     7
 10
1011.247976166226
 20
948.76233216087007
 30
0.0
 11
968.74797616622561
 21
948.76233216087007
 31
0.0
  0
LINE
  5
5F35
  8
0
  6
HIDDEN
 62
     7
 10
1004.247976166226
 20
929.26233216087201
 30
0.0
 11
969.24797616622595
 21
929.26233216087201
 31
0.0
  0
LINE
  5
5F36
  8
0
  6
HIDDEN
 62
     7
 10
1011.247976166226
 20
936.26233216087212
 30
0.0
 11
968.74797616622561
 21
936.26233216087212
 31
0.0
  0
LINE
  5
5F37
  8
0
  6
HIDDEN
 62
     7
 10
968.74797616622561
 20
936.26233216087212
 30
0.0
 11
968.74797616622561
 21
948.76233216087007
 31
0.0
  0
LINE
  5
5F38
  8
0
  6
HIDDEN
 62
     7
 10
969.24797616622595
 20
929.26233216087007
 30
0.0
 11
969.24797616622595
 21
932.26233216087201
 31
0.0
  0
ARC
  5
5F39
  8
0
  6
HIDDEN
 62
     7
 10
973.24797616622595
 20
932.26233216087201
 30
0.0
 40
4.0
 50
90.0
 51
180.0
  0
LINE
  5
5F3A
  8
0
  6
HIDDEN
 62
     7
 10
986.74797616622516
 20
929.26233216087201
 30
0.0
 11
986.74797616622516
 21
938.93453320645767
 31
0.0
  0
LINE
  5
5F3B
  8
0
  6
HIDDEN
 62
     7
 10
1004.247976166226
 20
929.26233216087007
 30
0.0
 11
1004.247976166226
 21
932.26233216087201
 31
0.0
  0
ARC
  5
5F3C
  8
0
  6
HIDDEN
 62
     7
 10
1000.247976166226
 20
932.26233216087201
 30
0.0
 40
4.0
 50
0.000000000000007
 51
90.0
  0
LINE
  5
5F3D
  8
0
  6
HIDDEN
 62
     7
 10
1033.747976166226
 20
1006.26233216087
 30
0.0
 11
1021.247976166226
 21
1006.26233216087
 31
0.0
  0
LINE
  5
5F3E
  8
0
  6
HIDDEN
 62
     7
 10
1021.247976166226
 20
958.76233216087007
 30
0.0
 11
1021.247976166226
 21
1006.26233216087
 31
0.0
  0
LINE
  5
5F3F
  8
0
  6
HIDDEN
 62
     7
 10
1035.2579761662259
 20
958.76233216087007
 30
0.0
 11
1035.2579761662259
 21
1006.26233216087
 31
0.0
  0
POINT
  5
5F40
  8
0
  6
HIDDEN
 62
     7
 10
986.74797616622516
 20
936.26233216087212
 30
0.0
 50
0.000000000000007
  0
LINE
  5
5F41
  8
0
  6
HIDDEN
 62
     7
 10
2308.8079761662252
 20
958.76233216087041
 30
0.0
 11
2308.8079761662252
 21
1006.26233216087
 31
0.0
  0
LINE
  5
5F42
  8
0
  6
HIDDEN
 62
     7
 10
2308.8079761662252
 20
958.76233216087007
 30
0.0
 11
2308.8079761662252
 21
1006.26233216087
 31
0.0
  0
ARC
  5
5F43
  8
0
  6
HIDDEN
 62
     7
 10
2331.3079761662239
 20
958.76233216087007
 30
0.0
 40
22.5
 50
180.0
 51
270.0
  0
ARC
  5
5F44
  8
0
  6
HIDDEN
 62
     7
 10
2331.3079761662239
 20
958.76233216087007
 30
0.0
 40
10.0
 50
180.0
 51
270.0
  0
LINE
  5
5F45
  8
0
  6
HIDDEN
 62
     7
 10
2331.3079761662239
 20
948.76233216087007
 30
0.0
 11
2373.8079761662252
 21
948.76233216087007
 31
0.0
  0
LINE
  5
5F46
  8
0
  6
HIDDEN
 62
     7
 10
2338.3079761662239
 20
929.26233216087201
 30
0.0
 11
2373.3079761662252
 21
929.26233216087201
 31
0.0
  0
LINE
  5
5F47
  8
0
  6
HIDDEN
 62
     7
 10
2331.3079761662239
 20
936.26233216087212
 30
0.0
 11
2373.8079761662252
 21
936.26233216087212
 31
0.0
  0
LINE
  5
5F48
  8
0
  6
HIDDEN
 62
     7
 10
2373.8079761662252
 20
936.26233216087212
 30
0.0
 11
2373.8079761662252
 21
948.76233216087007
 31
0.0
  0
LINE
  5
5F49
  8
0
  6
HIDDEN
 62
     7
 10
2373.3079761662252
 20
929.26233216087007
 30
0.0
 11
2373.3079761662252
 21
932.26233216087201
 31
0.0
  0
ARC
  5
5F4A
  8
0
  6
HIDDEN
 62
     7
 10
2369.3079761662252
 20
932.26233216087201
 30
0.0
 40
4.0
 50
0.000000000000007
 51
90.0
  0
LINE
  5
5F4B
  8
0
  6
HIDDEN
 62
     7
 10
2355.8079761662252
 20
929.26233216087201
 30
0.0
 11
2355.8079761662252
 21
938.93453320645767
 31
0.0
  0
LINE
  5
5F4C
  8
0
  6
HIDDEN
 62
     7
 10
2338.3079761662239
 20
929.26233216087007
 30
0.0
 11
2338.3079761662239
 21
932.26233216087201
 31
0.0
  0
ARC
  5
5F4D
  8
0
  6
HIDDEN
 62
     7
 10
2342.3079761662252
 20
932.26233216087201
 30
0.0
 40
4.0
 50
90.0
 51
180.0
  0
LINE
  5
5F4E
  8
0
  6
HIDDEN
 62
     7
 10
2308.8079761662252
 20
1006.26233216087
 30
0.0
 11
2321.3079761662239
 21
1006.26233216087
 31
0.0
  0
LINE
  5
5F4F
  8
0
  6
HIDDEN
 62
     7
 10
2321.3079761662239
 20
958.76233216087007
 30
0.0
 11
2321.3079761662239
 21
1006.26233216087
 31
0.0
  0
LINE
  5
5F50
  8
0
  6
HIDDEN
 62
     7
 10
2308.8079761662252
 20
958.76233216087007
 30
0.0
 11
2308.8079761662252
 21
1006.26233216087
 31
0.0
  0
POINT
  5
5F51
  8
0
  6
HIDDEN
 62
     7
 10
2355.8079761662252
 20
936.26233216087212
 30
0.0
 50
180.0
  0
LINE
  5
5F52
  8
0
  6
HIDDEN
 62
     7
 10
2133.7479761662239
 20
958.76233216086916
 30
0.0
 11
2133.7479761662239
 21
1006.2623321608691
 31
0.0
  0
LINE
  5
5F53
  8
0
  6
HIDDEN
 62
     7
 10
2133.7479761662239
 20
958.76233216086871
 30
0.0
 11
2133.7479761662239
 21
1006.2623321608691
 31
0.0
  0
ARC
  5
5F54
  8
0
  6
HIDDEN
 62
     7
 10
2156.2479761662248
 20
958.76233216086916
 30
0.0
 40
22.5
 50
180.0
 51
270.0
  0
ARC
  5
5F55
  8
0
  6
HIDDEN
 62
     7
 10
2156.2479761662248
 20
958.76233216086916
 30
0.0
 40
10.0
 50
180.0
 51
270.0
  0
LINE
  5
5F56
  8
0
  6
HIDDEN
 62
     7
 10
2156.2479761662248
 20
948.76233216086916
 30
0.0
 11
2198.7479761662271
 21
948.76233216086916
 31
0.0
  0
LINE
  5
5F57
  8
0
  6
HIDDEN
 62
     7
 10
2163.2479761662239
 20
929.26233216087132
 30
0.0
 11
2198.2479761662248
 21
929.26233216087132
 31
0.0
  0
LINE
  5
5F58
  8
0
  6
HIDDEN
 62
     7
 10
2156.2479761662248
 20
936.26233216087076
 30
0.0
 11
2198.7479761662271
 21
936.26233216087076
 31
0.0
  0
LINE
  5
5F59
  8
0
  6
HIDDEN
 62
     7
 10
2198.7479761662271
 20
936.26233216087076
 30
0.0
 11
2198.7479761662271
 21
948.76233216086916
 31
0.0
  0
LINE
  5
5F5A
  8
0
  6
HIDDEN
 62
     7
 10
2198.2479761662248
 20
929.26233216086916
 30
0.0
 11
2198.2479761662248
 21
932.26233216087132
 31
0.0
  0
ARC
  5
5F5B
  8
0
  6
HIDDEN
 62
     7
 10
2194.2479761662248
 20
932.26233216087132
 30
0.0
 40
4.0
 50
0.000000000000007
 51
90.0
  0
LINE
  5
5F5C
  8
0
  6
HIDDEN
 62
     7
 10
2180.7479761662248
 20
929.26233216087132
 30
0.0
 11
2180.7479761662248
 21
938.93453320645676
 31
0.0
  0
LINE
  5
5F5D
  8
0
  6
HIDDEN
 62
     7
 10
2163.2479761662239
 20
929.26233216086916
 30
0.0
 11
2163.2479761662239
 21
932.26233216087132
 31
0.0
  0
ARC
  5
5F5E
  8
0
  6
HIDDEN
 62
     7
 10
2167.2479761662239
 20
932.26233216087132
 30
0.0
 40
4.0
 50
90.0
 51
180.0
  0
LINE
  5
5F5F
  8
0
  6
HIDDEN
 62
     7
 10
2133.7479761662239
 20
1006.2623321608691
 30
0.0
 11
2146.2479761662239
 21
1006.2623321608691
 31
0.0
  0
LINE
  5
5F60
  8
0
  6
HIDDEN
 62
     7
 10
2146.2479761662239
 20
958.76233216086916
 30
0.0
 11
2146.2479761662239
 21
1006.2623321608691
 31
0.0
  0
LINE
  5
5F61
  8
0
  6
HIDDEN
 62
     7
 10
2133.7479761662239
 20
958.76233216086916
 30
0.0
 11
2133.7479761662239
 21
1006.2623321608691
 31
0.0
  0
POINT
  5
5F62
  8
0
  6
HIDDEN
 62
     7
 10
2180.7479761662248
 20
936.26233216087076
 30
0.0
 50
180.0
  0
LINE
  5
5F70
  8
0
 62
     7
 10
1019.7579761662259
 20
1695.938199152077
 30
0.0
 11
1019.7579761662259
 21
1517.653822581141
 31
0.0
  0
LINE
  5
600F
  8
0
 10
906.80797616622704
 20
2343.1501991520772
 30
0.0
 11
2308.807976166227
 21
2343.1501991520772
 31
0.0
  0
LINE
  5
62BB
  8
0
 10
2308.807976166227
 20
639.88733216087212
 30
0.0
 11
2308.807976166227
 21
624.16233216087176
 31
0.0
  0
CIRCLE
  5
635E
  8
0
 10
3470.5786195327919
 20
688.39233216087223
 30
0.0
 40
11.0
  0
CIRCLE
  5
6363
  8
0
 10
3443.0786195327919
 20
782.99233216087214
 30
0.0
 40
6.349999999999997
  0
LINE
  5
6368
  8
0
 10
2344.057976166227
 20
790.3423321608725
 30
0.0
 11
2344.057976166227
 21
775.64233216087223
 31
0.0
  0
LINE
  5
636A
  8
0
 10
2308.807976166227
 20
2332.1501991520781
 30
0.0
 11
2340.7579761662269
 21
2332.1501991520781
 31
0.0
  0
LINE
  5
636B
  8
0
 10
2340.7579761662269
 20
2331.1501991520781
 30
0.0
 11
2356.7579761662269
 21
2331.1501991520781
 31
0.0
  0
LINE
  5
636C
  8
0
 10
2338.307976166227
 20
2354.1501991520772
 30
0.0
 11
2340.7579761662269
 21
2354.1501991520781
 31
0.0
  0
LINE
  5
636D
  8
0
 10
2340.7579761662269
 20
2355.1501991520781
 30
0.0
 11
2356.7579761662269
 21
2355.1501991520781
 31
0.0
  0
LINE
  5
636E
  8
0
 10
2356.7579761662269
 20
2355.1501991520781
 30
0.0
 11
2356.7579761662269
 21
2331.1501991520781
 31
0.0
  0
LINE
  5
636F
  8
0
 10
2340.7579761662269
 20
2355.1501991520781
 30
0.0
 11
2340.7579761662269
 21
2331.1501991520781
 31
0.0
  0
LINE
  5
6371
  8
0
 10
2308.807976166227
 20
2309.3001991520769
 30
0.0
 11
2344.057976166227
 21
2309.3001991520791
 31
0.0
  0
LINE
  5
6372
  8
0
 10
2344.057976166227
 20
2308.3001991520791
 30
0.0
 11
2356.7579761662269
 21
2308.3001991520791
 31
0.0
  0
LINE
  5
6373
  8
0
 10
2308.807976166227
 20
2322.0001991520771
 30
0.0
 11
2344.057976166227
 21
2322.000199152078
 31
0.0
  0
LINE
  5
6374
  8
0
 10
2344.057976166227
 20
2323.000199152078
 30
0.0
 11
2356.7579761662269
 21
2323.000199152078
 31
0.0
  0
LINE
  5
6375
  8
0
 10
2356.7579761662269
 20
2323.000199152078
 30
0.0
 11
2356.7579761662269
 21
2308.3001991520791
 31
0.0
  0
LINE
  5
6376
  8
0
 10
2344.057976166227
 20
2323.000199152078
 30
0.0
 11
2344.057976166227
 21
2308.3001991520791
 31
0.0
  0
LINE
  5
6377
  8
0
 10
2328.7579761662269
 20
2309.3001991520791
 30
0.0
 11
2328.7579761662269
 21
2160.7601991520769
 31
0.0
  0
LINE
  5
6743
  8
0
 10
2856.7579761662269
 20
2262.1751991520769
 30
0.0
 11
2856.7579761662269
 21
2246.1751991520769
 31
0.0
  0
ENDSEC
  0
EOF
