  0
SECTION
  2
HEADER
  9
$ACADVER
  1
AC1018
  9
$ACADMAINTVER
 70
   104
  9
$DWGCODEPAGE
  3
ANSI_1252
  9
$LASTSAVEDBY
  1
dbinnie
  9
$INSBASE
 10
0.0
 20
0.0
 30
0.0
  9
$EXTMIN
 10
1695.45687548655
 20
-0.1623436061636312
 30
-0.0000000349181948
  9
$EXTMAX
 10
3890.237448495867
 20
2100.147411767352
 30
0.0000000814935746
  9
$LIMMIN
 10
0.0
 20
0.0
  9
$LIMMAX
 10
3890.0
 20
2660.0
  9
$ORTHOMODE
 70
     1
  9
$REGENMODE
 70
     1
  9
$FILLMODE
 70
     1
  9
$QTEXTMODE
 70
     0
  9
$MIRRTEXT
 70
     0
  9
$LTSCALE
 40
25.0
  9
$ATTMODE
 70
     1
  9
$TEXTSIZE
 40
25.0
  9
$TRACEWID
 40
0.05
  9
$TEXTSTYLE
  7
SIMPLEX
  9
$CLAYER
  8
DIM
  9
$CELTYPE
  6
ByLayer
  9
$CECOLOR
 62
   256
  9
$CELTSCALE
 40
1.0
  9
$DISPSILH
 70
     0
  9
$DIMSCALE
 40
1.0
  9
$DIMASZ
 40
0.12
  9
$DIMEXO
 40
0.05
  9
$DIMDLI
 40
0.5
  9
$DIMRND
 40
0.0
  9
$DIMDLE
 40
0.0
  9
$DIMEXE
 40
0.1
  9
$DIMTP
 40
0.1
  9
$DIMTM
 40
0.1
  9
$DIMTXT
 40
0.12
  9
$DIMCEN
 40
0.0
  9
$DIMTSZ
 40
0.0
  9
$DIMTOL
 70
     0
  9
$DIMLIM
 70
     0
  9
$DIMTIH
 70
     1
  9
$DIMTOH
 70
     1
  9
$DIMSE1
 70
     0
  9
$DIMSE2
 70
     0
  9
$DIMTAD
 70
     0
  9
$DIMZIN
 70
     7
  9
$DIMBLK
  1

  9
$DIMASO
 70
     0
  9
$DIMSHO
 70
     0
  9
$DIMPOST
  1

  9
$DIMAPOST
  1
mm
  9
$DIMALT
 70
     0
  9
$DIMALTD
 70
     2
  9
$DIMALTF
 40
25.4
  9
$DIMLFAC
 40
1.0
  9
$DIMTOFL
 70
     0
  9
$DIMTVP
 40
0.0
  9
$DIMTIX
 70
     0
  9
$DIMSOXD
 70
     0
  9
$DIMSAH
 70
     0
  9
$DIMBLK1
  1

  9
$DIMBLK2
  1

  9
$DIMSTYLE
  2
AM_ANSI
  9
$DIMCLRD
 70
   256
  9
$DIMCLRE
 70
   256
  9
$DIMCLRT
 70
     2
  9
$DIMTFAC
 40
0.71
  9
$DIMGAP
 40
0.06
  9
$DIMJUST
 70
     0
  9
$DIMSD1
 70
     0
  9
$DIMSD2
 70
     0
  9
$DIMTOLJ
 70
     1
  9
$DIMTZIN
 70
     0
  9
$DIMALTZ
 70
     0
  9
$DIMALTTZ
 70
     0
  9
$DIMUPT
 70
     0
  9
$DIMDEC
 70
     4
  9
$DIMTDEC
 70
     4
  9
$DIMALTU
 70
     2
  9
$DIMALTTD
 70
     2
  9
$DIMTXSTY
  7
STANDARD
  9
$DIMAUNIT
 70
     0
  9
$DIMADEC
 70
     0
  9
$DIMALTRND
 40
0.0
  9
$DIMAZIN
 70
     0
  9
$DIMDSEP
 70
    46
  9
$DIMATFIT
 70
     3
  9
$DIMFRAC
 70
     0
  9
$DIMLDRBLK
  1

  9
$DIMLUNIT
 70
     2
  9
$DIMLWD
 70
    -2
  9
$DIMLWE
 70
    -2
  9
$DIMTMOVE
 70
     0
  9
$LUNITS
 70
     2
  9
$LUPREC
 70
     2
  9
$SKETCHINC
 40
0.1
  9
$FILLETRAD
 40
0.0
  9
$AUNITS
 70
     0
  9
$AUPREC
 70
     2
  9
$MENU
  1
\acad12\support\cnc
  9
$ELEVATION
 40
0.0
  9
$PELEVATION
 40
0.0
  9
$THICKNESS
 40
0.0
  9
$LIMCHECK
 70
     0
  9
$CHAMFERA
 40
0.0
  9
$CHAMFERB
 40
0.0
  9
$CHAMFERC
 40
0.0
  9
$CHAMFERD
 40
0.0
  9
$SKPOLY
 70
     0
  9
$TDCREATE
 40
2451409.611953009
  9
$TDUCREATE
 40
2451409.070286342
  9
$TDUPDATE
 40
2455605.410586979
  9
$TDUUPDATE
 40
2455604.868920313
  9
$TDINDWG
 40
0.6096756481
  9
$TDUSRTIMER
 40
0.6096748495
  9
$USRTIMER
 70
     1
  9
$ANGBASE
 50
0.0
  9
$ANGDIR
 70
     0
  9
$PDMODE
 70
     2
  9
$PDSIZE
 40
10.0
  9
$PLINEWID
 40
0.0
  9
$SPLFRAME
 70
     0
  9
$SPLINETYPE
 70
     6
  9
$SPLINESEGS
 70
     8
  9
$HANDSEED
  5
1EBA
  9
$SURFTAB1
 70
     6
  9
$SURFTAB2
 70
     6
  9
$SURFTYPE
 70
     6
  9
$SURFU
 70
     6
  9
$SURFV
 70
     6
  9
$UCSBASE
  2

  9
$UCSNAME
  2

  9
$UCSORG
 10
0.0
 20
0.0
 30
0.0
  9
$UCSXDIR
 10
1.0
 20
0.0
 30
0.0
  9
$UCSYDIR
 10
0.0
 20
1.0
 30
0.0
  9
$UCSORTHOREF
  2

  9
$UCSORTHOVIEW
 70
     0
  9
$UCSORGTOP
 10
0.0
 20
0.0
 30
0.0
  9
$UCSORGBOTTOM
 10
0.0
 20
0.0
 30
0.0
  9
$UCSORGLEFT
 10
0.0
 20
0.0
 30
0.0
  9
$UCSORGRIGHT
 10
0.0
 20
0.0
 30
0.0
  9
$UCSORGFRONT
 10
0.0
 20
0.0
 30
0.0
  9
$UCSORGBACK
 10
0.0
 20
0.0
 30
0.0
  9
$PUCSBASE
  2

  9
$PUCSNAME
  2

  9
$PUCSORG
 10
0.0
 20
0.0
 30
0.0
  9
$PUCSXDIR
 10
1.0
 20
0.0
 30
0.0
  9
$PUCSYDIR
 10
0.0
 20
1.0
 30
0.0
  9
$PUCSORTHOREF
  2

  9
$PUCSORTHOVIEW
 70
     0
  9
$PUCSORGTOP
 10
0.0
 20
0.0
 30
0.0
  9
$PUCSORGBOTTOM
 10
0.0
 20
0.0
 30
0.0
  9
$PUCSORGLEFT
 10
0.0
 20
0.0
 30
0.0
  9
$PUCSORGRIGHT
 10
0.0
 20
0.0
 30
0.0
  9
$PUCSORGFRONT
 10
0.0
 20
0.0
 30
0.0
  9
$PUCSORGBACK
 10
0.0
 20
0.0
 30
0.0
  9
$USERI1
 70
     0
  9
$USERI2
 70
     0
  9
$USERI3
 70
     0
  9
$USERI4
 70
     0
  9
$USERI5
 70
     0
  9
$USERR1
 40
0.0
  9
$USERR2
 40
0.0
  9
$USERR3
 40
0.0
  9
$USERR4
 40
0.0
  9
$USERR5
 40
0.0
  9
$WORLDVIEW
 70
     1
  9
$SHADEDGE
 70
     3
  9
$SHADEDIF
 70
    70
  9
$TILEMODE
 70
     1
  9
$MAXACTVP
 70
    16
  9
$PINSBASE
 10
0.0
 20
0.0
 30
0.0
  9
$PLIMCHECK
 70
     0
  9
$PEXTMIN
 10
1.000000000000000E+20
 20
1.000000000000000E+20
 30
1.000000000000000E+20
  9
$PEXTMAX
 10
-1.000000000000000E+20
 20
-1.000000000000000E+20
 30
-1.000000000000000E+20
  9
$PLIMMIN
 10
0.0
 20
0.0
  9
$PLIMMAX
 10
12.0
 20
9.0
  9
$UNITMODE
 70
     0
  9
$VISRETAIN
 70
     0
  9
$PLINEGEN
 70
     0
  9
$PSLTSCALE
 70
     0
  9
$TREEDEPTH
 70
  3020
  9
$CMLSTYLE
  2
Standard
  9
$CMLJUST
 70
     0
  9
$CMLSCALE
 40
1.0
  9
$PROXYGRAPHICS
 70
     1
  9
$MEASUREMENT
 70
     0
  9
$CELWEIGHT
370
    -1
  9
$ENDCAPS
280
     0
  9
$JOINSTYLE
280
     0
  9
$LWDISPLAY
290
     0
  9
$INSUNITS
 70
     0
  9
$HYPERLINKBASE
  1

  9
$STYLESHEET
  1

  9
$XEDIT
290
     1
  9
$CEPSNTYPE
380
     0
  9
$PSTYLEMODE
290
     1
  9
$FINGERPRINTGUID
  2
{8C149A76-8F68-48B5-B3B7-20F4E338F66E}
  9
$VERSIONGUID
  2
{85221F18-36FE-4E21-A6AD-BFD08E1DE775}
  9
$EXTNAMES
290
     1
  9
$PSVPSCALE
 40
0.0
  9
$OLESTARTUP
290
     0
  9
$SORTENTS
280
   127
  9
$INDEXCTL
280
     0
  9
$HIDETEXT
280
     0
  9
$XCLIPFRAME
290
     0
  9
$HALOGAP
280
     0
  9
$OBSCOLOR
 70
   257
  9
$OBSLTYPE
280
     0
  9
$INTERSECTIONDISPLAY
280
     0
  9
$INTERSECTIONCOLOR
 70
   257
  9
$DIMASSOC
280
     0
  9
$PROJECTNAME
  1

  0
ENDSEC
  0
SECTION
  2
CLASSES
  0
CLASS
  1
ACDBDICTIONARYWDFLT
  2
AcDbDictionaryWithDefault
  3
ObjectDBX Classes
 90
        0
 91
        1
280
     0
281
     0
  0
CLASS
  1
MATERIAL
  2
AcDbMaterial
  3
ObjectDBX Classes
 90
     1153
 91
        3
280
     0
281
     0
  0
CLASS
  1
VISUALSTYLE
  2
AcDbVisualStyle
  3
ObjectDBX Classes
 90
     4095
 91
       24
280
     0
281
     0
  0
CLASS
  1
SCALE
  2
AcDbScale
  3
ObjectDBX Classes
 90
     1153
 91
       17
280
     0
281
     0
  0
CLASS
  1
TABLESTYLE
  2
AcDbTableStyle
  3
ObjectDBX Classes
 90
     4095
 91
        1
280
     0
281
     0
  0
CLASS
  1
MLEADERSTYLE
  2
AcDbMLeaderStyle
  3
ACDB_MLEADERSTYLE_CLASS
 90
     4095
 91
        1
280
     0
281
     0
  0
CLASS
  1
AMGSETTINGSOBJ
  2
AmgSettingsObj
  3
"AcadM|Product Description: AutoCAD Mechanical|Company: Autodesk, Inc."
 90
     1024
 91
        2
280
     0
281
     0
  0
CLASS
  1
ACME_DOCUMENT
  2
AcMeDbDoc
  3
AcMeServices
 90
     1024
 91
        1
280
     0
281
     0
  0
CLASS
  1
ACMESCOPE
  2
AcMeScope
  3
AcMeServices
 90
     1024
 91
        1
280
     0
281
     0
  0
CLASS
  1
ACMECOMMANDHISTORY
  2
AcMeCommandHistory
  3
AcMeServices
 90
     1024
 91
        1
280
     0
281
     0
  0
CLASS
  1
ACIMSYSVARMAN
  2
AcImSysVarManager
  3
AcMeServices
 90
     1024
 91
        4
280
     0
281
     0
  0
CLASS
  1
ACIMINTSYSVAR
  2
AcImIntSysVar
  3
AcMeServices
 90
     1024
 91
       27
280
     0
281
     0
  0
CLASS
  1
ACMESTATEMGR
  2
AcMeStateMgr
  3
AcMeServices
 90
     1024
 91
        1
280
     0
281
     0
  0
CLASS
  1
ACDBENTITYCACHE
  2
AcMeEntityCache
  3
AcMeServices
 90
     1024
 91
        1
280
     0
281
     0
  0
CLASS
  1
ACGREFMASTER
  2
AcGrefMaster
  3
AcAttribServices
 90
     1024
 91
        1
280
     0
281
     0
  0
CLASS
  1
AM_DRAWING_MGR
  2
AcDmDwgMgr
  3
AcMechDwgViewMgmt
 90
     1024
 91
        1
280
     0
281
     0
  0
CLASS
  1
AM_DWG_DOCUMENT
  2
AcDmDwgDocument
  3
AcMechDwgViewMgmt
 90
     1024
 91
        1
280
     0
281
     0
  0
CLASS
  1
AM_DWG_SHEET
  2
AcDmSheet
  3
AcMechDwgViewMgmt
 90
     1024
 91
        1
280
     0
281
     0
  0
CLASS
  1
AM_VIEWDIMPARMAP
  2
AcDmViewDimParMap
  3
AcMechDwgViewMgmt
 90
     1024
 91
        1
280
     0
281
     0
  0
CLASS
  1
AMDTINTERNALREACTOR
  2
AmdtInternalReactor
  3
AcMeServices
 90
     1024
 91
        1
280
     0
281
     0
  0
CLASS
  1
ACIMREALSYSVAR
  2
AcImRealSysVar
  3
AcMeServices
 90
     1024
 91
        1
280
     0
281
     0
  0
CLASS
  1
AM_DWGMGR_NAME
  2
AcDmDwgMgrName
  3
AcMechDwgViewMgmt
 90
     1024
 91
        1
280
     0
281
     0
  0
CLASS
  1
ACME_DATABASE
  2
AcMeDbDatabase
  3
AcMeServices
 90
     1024
 91
        1
280
     0
281
     0
  0
CLASS
  1
ACRFINSADJUSTERMGR
  2
AcRfInsAdjusterMgr
  3
AcMeServices
 90
     1024
 91
        1
280
     0
281
     0
  0
CLASS
  1
ACGREFACADMASTER
  2
AcGrefacadMaster
  3
AcGrefServices
 90
     1024
 91
        1
280
     0
281
     0
  0
CLASS
  1
AMDTMENUSTATEMGR
  2
AmdtMenuStateMgr
  3
McadcomServices
 90
     1024
 91
        1
280
     0
281
     0
  0
CLASS
  1
AMDTMCOMMENUSTATE
  2
AmdtMcomMenuState
  3
McadcomServices
 90
     1024
 91
        1
280
     0
281
     0
  0
CLASS
  1
AMIMASTER
  2
AmiMaster
  3
AmiServices
 90
     1024
 91
        1
280
     0
281
     0
  0
CLASS
  1
MAPIAMMOUDLE
  2
MApiAmModule
  3
MApiAmServices
 90
     1024
 91
        1
280
     0
281
     0
  0
CLASS
  1
ACIMSTRSYSVAR
  2
AcImStrSysVar
  3
AcMeServices
 90
     1024
 91
        5
280
     0
281
     0
  0
CLASS
  1
AMDTDMMENUSTATE
  2
AmdtDmMenuState
  3
AcMechDwgViewMgmt
 90
     1024
 91
        1
280
     0
281
     0
  0
CLASS
  1
AMDTAMMENUSTATE
  2
AmdtAmMenuState
  3
DesignerAssemblies
 90
     1024
 91
        1
280
     0
281
     0
  0
CLASS
  1
ACAMPROJECT
  2
AcAmProject
  3
DesignerAssemblies
 90
     1024
 91
        1
280
     0
281
     0
  0
CLASS
  1
ACAMGRCOMPDEF
  2
AcAmGrCompDef
  3
DesignerAssemblies
 90
     1024
 91
        1
280
     0
281
     0
  0
CLASS
  1
ACAMCOMPDEF
  2
AcAmCompDef
  3
DesignerAssemblies
 90
     1024
 91
        1
280
     0
281
     0
  0
CLASS
  1
ACAMCOMPDEFMGR
  2
AcAmCompDefMgr
  3
DesignerAssemblies
 90
     1024
 91
        1
280
     0
281
     0
  0
CLASS
  1
AMCONTEXTMGR
  2
AcAmContextMgr
  3
DesignerAssemblies
 90
     1024
 91
        1
280
     0
281
     0
  0
CLASS
  1
ACAMCONTEXTMODELER
  2
AcAmContextModeler
  3
DesignerAssemblies
 90
     1024
 91
        1
280
     0
281
     0
  0
CLASS
  1
ACMDATADICTIONARY
  2
AcmDataDictionary
  3
"AcmSymBB|Product Description: AutoCAD Mechanical|Company: Autodesk, Inc."
 90
     1024
 91
        1
280
     0
281
     0
  0
CLASS
  1
ACAMGRCOMPDEFSET
  2
AcAmGrCompDefSet
  3
DesignerAssemblies
 90
     1024
 91
        1
280
     0
281
     0
  0
CLASS
  1
AMDTBROWSERDBTAB
  2
AmdtBrowserDbTab
  3
McadcomServices
 90
     1024
 91
        1
280
     0
281
     0
  0
CLASS
  1
CBROWSERAPPOBJECT
  2
CBrowserAppObject
  3
McadcomServices
 90
     1024
 91
        2
280
     0
281
     0
  0
CLASS
  1
DM_PLACEHOLDER
  2
AcDmSelsetPlaceholder
  3
AcMechDwgViewMgmt
 90
     1024
 91
        1
280
     0
281
     0
  0
CLASS
  1
EXACXREFPANELOBJECT
  2
ExAcXREFPanelObject
  3
EXAC_ESW
 90
     1025
 91
        1
280
     0
281
     0
  0
CLASS
  1
NPOCOLLECTION
  2
AcDbImpNonPersistentObjectsCollection
  3
ObjectDBX Classes
 90
     1153
 91
        1
280
     0
281
     0
  0
CLASS
  1
ACMSTANDARDANSI
  2
AcmStandardANSI
  3
"Amdt_StdImp|Product Description: AutoCAD Mechanical|Company: Autodesk, Inc."
 90
     1024
 91
        1
280
     0
281
     0
  0
CLASS
  1
ACMSURFSTANDARDANSI
  2
AcmSurfTextStdANSI
  3
"Amdt_StdImp|Product Description: AutoCAD Mechanical|Company: Autodesk, Inc."
 90
     1024
 91
        1
280
     0
281
     0
  0
CLASS
  1
ACMFCFSTANDARDANSI
  2
AcmFCFStdANSI
  3
"Amdt_StdImp|Product Description: AutoCAD Mechanical|Company: Autodesk, Inc."
 90
     1024
 91
        1
280
     0
281
     0
  0
CLASS
  1
ACMWELDSTANDARDANSI
  2
AcmWeldingStdANSI
  3
"Amdt_StdImp|Product Description: AutoCAD Mechanical|Company: Autodesk, Inc."
 90
     1024
 91
        1
280
     0
281
     0
  0
CLASS
  1
ACMIDSTANDARDANSI
  2
AcmIdStdANSI
  3
"Amdt_StdImp|Product Description: AutoCAD Mechanical|Company: Autodesk, Inc."
 90
     1024
 91
        1
280
     0
281
     0
  0
CLASS
  1
ACMDATUMSTANDARDANSI
  2
AcmDatumStdANSI
  3
"Amdt_StdImp|Product Description: AutoCAD Mechanical|Company: Autodesk, Inc."
 90
     1024
 91
        1
280
     0
281
     0
  0
CLASS
  1
ACMBOMSTANDARDANSI
  2
AcmBOMStdANSI
  3
"Amdt_StdImp|Product Description: AutoCAD Mechanical|Company: Autodesk, Inc."
 90
     1024
 91
        1
280
     0
281
     0
  0
CLASS
  1
ACMDETAILSTANDARDANSI
  2
AmdtDetailSymStdANSI
  3
"Amdt_StdImp|Product Description: AutoCAD Mechanical|Company: Autodesk, Inc."
 90
     1024
 91
        1
280
     0
281
     0
  0
CLASS
  1
ACMSECTIONSTANDARDANSI
  2
AmdtSectionSymStdANSI
  3
"Amdt_StdImp|Product Description: AutoCAD Mechanical|Company: Autodesk, Inc."
 90
     1024
 91
        1
280
     0
281
     0
  0
CLASS
  1
ACMCENTERLINESTANDARDANSI
  2
AmdtCenterLineStdANSI
  3
"Amdt_StdImp|Product Description: AutoCAD Mechanical|Company: Autodesk, Inc."
 90
     1024
 91
        1
280
     0
281
     0
  0
CLASS
  1
ACMTHREADLINESTANDARDANSI
  2
AmdtThreadLineStdANSI
  3
"Amdt_StdImp|Product Description: AutoCAD Mechanical|Company: Autodesk, Inc."
 90
     1024
 91
        1
280
     0
281
     0
  0
CLASS
  1
ACMNOTESTANDARDANSI
  2
AmdtNoteStdANSI
  3
"Amdt_StdImp|Product Description: AutoCAD Mechanical|Company: Autodesk, Inc."
 90
     1024
 91
        1
280
     0
281
     0
  0
CLASS
  1
ACMTAPERSTANDARDANSI
  2
AcmTaperStdANSI
  3
"Amdt_StdImp|Product Description: AutoCAD Mechanical|Company: Autodesk, Inc."
 90
     1024
 91
        1
280
     0
281
     0
  0
CLASS
  1
ACMANOOTATIONVIEWSTANDARDANSI
  2
AmdtAnViewStdANSI
  3
"Amdt_StdImp|Product Description: AutoCAD Mechanical|Company: Autodesk, Inc."
 90
     1024
 91
        1
280
     0
281
     0
  0
CLASS
  1
ACAMGLAYSTD
  2
AcAmgLayStd
  3
"AmgLay|Product Description: AutoCAD Mechanical|Company: Autodesk, Inc."
 90
     1024
 91
        1
280
     0
281
     0
  0
CLASS
  1
ACAMGDIMSTD
  2
AcAmgDimStd
  3
"AmgDim|Product Description: AutoCAD Mechanical|Company: Autodesk, Inc."
 90
     1024
 91
        1
280
     0
281
     0
  0
CLASS
  1
ACAMGHOLECHARTSTDANSI
  2
AcAmgHoleChartStdANSI
  3
AmgDim|Product Description: AutoCAD Mechanical|Company: Autodesk, Inc.
 90
     1024
 91
        1
280
     0
281
     0
  0
CLASS
  1
AMGOBJPROPCFG
  2
AmgObjPropCfg
  3
"AmgLay|Product Description: AutoCAD Mechanical|Company: Autodesk, Inc."
 90
     1025
 91
        1
280
     0
281
     0
  0
CLASS
  1
ACAMGTITLESTD
  2
AcAmgTitleStd
  3
"AmgTitle|Product Description: AutoCAD Mechanical|Company: Autodesk, Inc."
 90
     4095
 91
        1
280
     0
281
     0
  0
CLASS
  1
AMDTNOTETEMPLATEDB
  2
AmdtNoteTemplateDB
  3
AcmSymBB|Product Description: AutoCAD Mechanical|Company: Autodesk, Inc.
 90
     1024
 91
        6
280
     0
281
     0
  0
CLASS
  1
ACAMGFILTERDAT
  2
AcAmgFilterDat
  3
"AcadM|Product Description: AutoCAD Mechanical|Company: Autodesk, Inc."
 90
     1024
 91
        6
280
     0
281
     0
  0
CLASS
  1
SORTENTSTABLE
  2
AcDbSortentsTable
  3
ObjectDBX Classes
 90
        0
 91
        1
280
     0
281
     0
  0
CLASS
  1
DICTIONARYVAR
  2
AcDbDictionaryVar
  3
ObjectDBX Classes
 90
        0
 91
       20
280
     0
281
     0
  0
CLASS
  1
CELLSTYLEMAP
  2
AcDbCellStyleMap
  3
ObjectDBX Classes
 90
     1152
 91
        5
280
     0
281
     0
  0
ENDSEC
  0
SECTION
  2
TABLES
  0
TABLE
  2
VPORT
  5
1B93
330
0
100
AcDbSymbolTable
 70
     1
  0
VPORT
  5
1BFC
330
1B93
100
AcDbSymbolTableRecord
100
AcDbViewportTableRecord
  2
*ACTIVE
 70
     0
 10
0.0
 20
0.0
 11
1.0
 21
1.0
 12
2792.847161991209
 22
1049.992534080594
 13
0.0
 23
0.0
 14
25.0
 24
25.0
 15
100.0
 25
100.0
 16
0.0
 26
0.0
 36
1.0
 17
0.0
 27
0.0
 37
0.0
 40
2113.519250690329
 41
1.696747114375655
 42
50.0
 43
0.0
 44
0.0
 50
0.0
 51
0.0
 71
     0
 72
   100
 73
     1
 74
     0
 75
     0
 76
     0
 77
     0
 78
     0
281
     0
 65
     0
110
0.0
120
0.0
130
0.0
111
1.0
121
0.0
131
0.0
112
0.0
122
1.0
132
0.0
 79
     0
146
0.0
  0
ENDTAB
  0
TABLE
  2
LTYPE
  5
1B90
330
0
100
AcDbSymbolTable
 70
    18
  0
LTYPE
  5
1BE5
330
1B90
100
AcDbSymbolTableRecord
100
AcDbLinetypeTableRecord
  2
ByBlock
 70
     0
  3

 72
    65
 73
     0
 40
0.0
  0
LTYPE
  5
1BE6
330
1B90
100
AcDbSymbolTableRecord
100
AcDbLinetypeTableRecord
  2
ByLayer
 70
     0
  3

 72
    65
 73
     0
 40
0.0
  0
LTYPE
  5
1BE7
330
1B90
100
AcDbSymbolTableRecord
100
AcDbLinetypeTableRecord
  2
CONTINUOUS
 70
     0
  3
Solid line
 72
    65
 73
     0
 40
0.0
  0
LTYPE
  5
1BFD
330
1B90
100
AcDbSymbolTableRecord
100
AcDbLinetypeTableRecord
  2
HIDDEN
 70
     0
  3
Hidden __ __ __ __ __ __ __ __ __ __ __ __ __ _
 72
    65
 73
     2
 40
0.375
 49
0.25
 74
     0
 49
-0.125
 74
     0
  0
LTYPE
  5
1BFE
330
1B90
100
AcDbSymbolTableRecord
100
AcDbLinetypeTableRecord
  2
PHANTOM2
 70
     0
  3
Phantom (.5x) ___ _ _ ___ _ _ ___ _ _ ___ _ _
 72
    65
 73
     6
 40
1.25
 49
0.625
 74
     0
 49
-0.125
 74
     0
 49
0.125
 74
     0
 49
-0.125
 74
     0
 49
0.125
 74
     0
 49
-0.125
 74
     0
  0
LTYPE
  5
1BFF
330
1B90
100
AcDbSymbolTableRecord
100
AcDbLinetypeTableRecord
  2
CENTER
 70
     0
  3
Center ____ _ ____ _ ____ _ ____ _ ____ _ ____
 72
    65
 73
     4
 40
2.0
 49
1.25
 74
     0
 49
-0.25
 74
     0
 49
0.25
 74
     0
 49
-0.25
 74
     0
  0
LTYPE
  5
1C00
330
1B90
100
AcDbSymbolTableRecord
100
AcDbLinetypeTableRecord
  2
AM_ISO02W050
 70
     0
  3
__ __ __ __ __ __ __ __ __ __ __ __ __ __ __
 72
    65
 73
     2
 40
7.5
 49
6.0
 74
     0
 49
-1.5
 74
     0
  0
LTYPE
  5
1C01
330
1B90
100
AcDbSymbolTableRecord
100
AcDbLinetypeTableRecord
  2
AM_ISO08W050
 70
     0
  3
____ . ____ . ____ . ____ . ____ . ____ . ____
 72
    65
 73
     4
 40
18.0
 49
12.0
 74
     0
 49
-1.5
 74
     0
 49
3.0
 74
     0
 49
-1.5
 74
     0
  0
LTYPE
  5
1C02
330
1B90
100
AcDbSymbolTableRecord
100
AcDbLinetypeTableRecord
  2
AM_ISO09W050
 70
     0
  3
_____ . . _____ . . _____ . . ____ .. ____
 72
    65
 73
     6
 40
22.5
 49
12.0
 74
     0
 49
-1.5
 74
     0
 49
3.0
 74
     0
 49
-1.5
 74
     0
 49
3.0
 74
     0
 49
-1.5
 74
     0
  0
LTYPE
  5
1C03
330
1B90
100
AcDbSymbolTableRecord
100
AcDbLinetypeTableRecord
  2
AMCONSTR
 70
     0
  3
_______________________
 72
    65
 73
     2
 40
9999.0
 49
9999.0
 74
     0
 49
0.0
 74
     0
  0
LTYPE
  5
1C04
330
1B90
100
AcDbSymbolTableRecord
100
AcDbLinetypeTableRecord
  2
AM_ISO08W050X2
 70
     0
  3
__ . __ . __ . __ . __ . __
 72
    65
 73
     4
 40
9.0
 49
6.0
 74
     0
 49
-0.75
 74
     0
 49
1.5
 74
     0
 49
-0.75
 74
     0
  0
LTYPE
  5
1C05
330
1B90
100
AcDbSymbolTableRecord
100
AcDbLinetypeTableRecord
  2
AM_ISO02W050X2
 70
     0
  3
 _ _ _ _ _ _ _ _ _ _ _ _
 72
    65
 73
     2
 40
3.75
 49
3.0
 74
     0
 49
-0.75
 74
     0
  0
LTYPE
  5
1C06
330
1B90
100
AcDbSymbolTableRecord
100
AcDbLinetypeTableRecord
  2
AMZIGZAG
 70
     0
  3
/\/-/\/-/\/-/\/-/\/-/\/
 72
    65
 73
     2
 40
11.0001
 49
0.0001
 74
     0
 49
-11.0
 74
     0
  0
LTYPE
  5
1C07
330
1B90
100
AcDbSymbolTableRecord
100
AcDbLinetypeTableRecord
  2
CENTER2
 70
     0
  3
Center (.5x) ___ _ ___ _ ___ _ ___ _ ___ _ ___
 72
    65
 73
     4
 40
1.125
 49
0.75
 74
     0
 49
-0.125
 74
     0
 49
0.125
 74
     0
 49
-0.125
 74
     0
  0
LTYPE
  5
1C08
330
1B90
100
AcDbSymbolTableRecord
100
AcDbLinetypeTableRecord
  2
HIDDEN2
 70
     0
  3
Hidden (.5x) _ _ _ _ _ _ _ _ _ _ _ _ _ _ _ _ _
 72
    65
 73
     2
 40
0.1875
 49
0.125
 74
     0
 49
-0.0625
 74
     0
  0
LTYPE
  5
1C09
330
1B90
100
AcDbSymbolTableRecord
100
AcDbLinetypeTableRecord
  2
AMZIGZAG2
 70
     0
  3
/\/-/\/-/\/-/\/-/\/-/\/
 72
    65
 73
     2
 40
0.4401
 49
0.0001
 74
     0
 49
-0.4400000000000003
 74
     0
  0
LTYPE
  5
1C0A
330
1B90
100
AcDbSymbolTableRecord
100
AcDbLinetypeTableRecord
  2
ACANSTGB
 70
     0
  3
__ . . __ . .
 72
    65
 73
     6
 40
0.35433070866
 49
0.15748031496
 74
     0
 49
-0.03937007874
 74
     0
 49
0.03937007874
 74
     0
 49
-0.03937007874
 74
     0
 49
0.03937007874
 74
     0
 49
-0.03937007874
 74
     0
  0
LTYPE
  5
1C0B
330
1B90
100
AcDbSymbolTableRecord
100
AcDbLinetypeTableRecord
  2
ACANSTGL
 70
     0
  3
_ _ _ _ _
 72
    65
 73
     2
 40
0.11811023622
 49
0.07874015748
 74
     0
 49
-0.03937007874
 74
     0
  0
ENDTAB
  0
TABLE
  2
LAYER
  5
1B8D
102
{ACAD_XDICTIONARY
360
1E76
102
}
330
0
100
AcDbSymbolTable
 70
     5
  0
LAYER
  5
1BDF
102
{ACAD_XDICTIONARY
360
1E69
102
}
330
1B8D
100
AcDbSymbolTableRecord
100
AcDbLayerTableRecord
  2
0
 70
     0
 62
     7
  6
CONTINUOUS
370
    -3
390
1B9A
  0
LAYER
  5
1BFA
102
{ACAD_XDICTIONARY
360
1E6B
102
}
330
1B8D
100
AcDbSymbolTableRecord
100
AcDbLayerTableRecord
  2
DIM
 70
     0
 62
     7
  6
CONTINUOUS
370
    -3
390
1B9A
  0
LAYER
  5
1C0C
102
{ACAD_XDICTIONARY
360
1E6D
102
}
330
1B8D
100
AcDbSymbolTableRecord
100
AcDbLayerTableRecord
  2
TEXT
 70
     0
 62
   100
  6
CONTINUOUS
370
    -3
390
1B9A
  0
LAYER
  5
1C0D
102
{ACAD_XDICTIONARY
360
1E6F
102
}
330
1B8D
100
AcDbSymbolTableRecord
100
AcDbLayerTableRecord
  2
OUTLINE
 70
     0
 62
     7
  6
CONTINUOUS
370
    -3
390
1B9A
  0
LAYER
  5
1C0E
102
{ACAD_XDICTIONARY
360
1E71
102
}
330
1B8D
100
AcDbSymbolTableRecord
100
AcDbLayerTableRecord
  2
OVERLAY-A3
 70
     0
 62
     7
  6
CONTINUOUS
370
    -3
390
1B9A
  0
ENDTAB
  0
TABLE
  2
STYLE
  5
1B8E
330
0
100
AcDbSymbolTable
 70
     8
  0
STYLE
  5
1BE0
330
1B8E
100
AcDbSymbolTableRecord
100
AcDbTextStyleTableRecord
  2
STANDARD
 70
     0
 40
0.0
 41
1.0
 50
0.0
 71
     0
 42
0.2
  3
txt
  4

  0
STYLE
  5
1BE4
330
1B8E
100
AcDbSymbolTableRecord
100
AcDbTextStyleTableRecord
  2
ANNOTATIVE
 70
     0
 40
0.0
 41
1.0
 50
0.0
 71
     0
 42
0.2
  3
txt
  4

1001
ACADANNOTATIVE
1000
AnnotativeData
1002
{
1070
     1
1070
     1
1002
}
  0
STYLE
  5
1BFB
330
1B8E
100
AcDbSymbolTableRecord
100
AcDbTextStyleTableRecord
  2
SIMPLEX
 70
     0
 40
30.0
 41
1.0
 50
0.0
 71
     0
 42
25.0
  3
SIMPLEX.shx
  4

  0
STYLE
  5
1C0F
330
1B8E
100
AcDbSymbolTableRecord
100
AcDbTextStyleTableRecord
  2
TITLE3
 70
     0
 40
25.0
 41
1.0
 50
0.0
 71
     0
 42
25.0
  3
SIMPLEX
  4

  0
STYLE
  5
1C10
330
1B8E
100
AcDbSymbolTableRecord
100
AcDbTextStyleTableRecord
  2
TITLE5
 70
     0
 40
50.0
 41
1.0
 50
0.0
 71
     0
 42
50.0
  3
SIMPLEX
  4

  0
STYLE
  5
1C11
330
1B8E
100
AcDbSymbolTableRecord
100
AcDbTextStyleTableRecord
  2

 70
     1
 40
0.0
 41
1.0
 50
0.0
 71
     0
 42
25.0
  3
genltshp.shx
  4

  0
STYLE
  5
1C12
330
1B8E
100
AcDbSymbolTableRecord
100
AcDbTextStyleTableRecord
  2
ACANSTS
 70
     0
 40
1.0
 41
1.0
 50
0.0
 71
     0
 42
25.0
  3
romans.shx
  4

  0
STYLE
  5
1C13
330
1B8E
100
AcDbSymbolTableRecord
100
AcDbTextStyleTableRecord
  2
ACANSGDT
 70
     0
 40
0.0
 41
1.0
 50
0.0
 71
     0
 42
25.0
  3
amgdt.shx
  4

  0
ENDTAB
  0
TABLE
  2
VIEW
  5
1B91
330
0
100
AcDbSymbolTable
 70
     1
  0
ENDTAB
  0
TABLE
  2
UCS
  5
1B92
330
0
100
AcDbSymbolTable
 70
     0
  0
ENDTAB
  0
TABLE
  2
APPID
  5
1B94
330
0
100
AcDbSymbolTable
 70
    13
  0
APPID
  5
1BE1
330
1B94
100
AcDbSymbolTableRecord
100
AcDbRegAppTableRecord
  2
ACAD
 70
     0
  0
APPID
  5
1BE8
330
1B94
100
AcDbSymbolTableRecord
100
AcDbRegAppTableRecord
  2
ACADANNOTATIVE
 70
     0
  0
APPID
  5
1C14
330
1B94
100
AcDbSymbolTableRecord
100
AcDbRegAppTableRecord
  2
ACAD_MLEADERVER
 70
     0
  0
APPID
  5
1C15
330
1B94
100
AcDbSymbolTableRecord
100
AcDbRegAppTableRecord
  2
MCAD_NO_VIS
 70
     0
  0
APPID
  5
1C16
330
1B94
100
AcDbSymbolTableRecord
100
AcDbRegAppTableRecord
  2
ACAD_TEMP_GRAPHIC
 70
     0
  0
APPID
  5
1C17
330
1B94
100
AcDbSymbolTableRecord
100
AcDbRegAppTableRecord
  2
AD_DRAW
 70
     0
  0
APPID
  5
1C18
330
1B94
100
AcDbSymbolTableRecord
100
AcDbRegAppTableRecord
  2
ACATTRIBSERVICES
 70
     0
  0
APPID
  5
1C19
330
1B94
100
AcDbSymbolTableRecord
100
AcDbRegAppTableRecord
  2
DESIGNERASSEMBLIES
 70
     0
  0
APPID
  5
1C1A
330
1B94
100
AcDbSymbolTableRecord
100
AcDbRegAppTableRecord
  2
ACADM_DIM_EDIT
 70
     0
  0
APPID
  5
1C1B
330
1B94
100
AcDbSymbolTableRecord
100
AcDbRegAppTableRecord
  2
AMDT_DM_ADJ
 70
     0
  0
APPID
  5
1C1C
330
1B94
100
AcDbSymbolTableRecord
100
AcDbRegAppTableRecord
  2
ACAD_EXEMPT_FROM_CAD_STANDARDS
 70
     0
  0
APPID
  5
1CBD
330
1B94
100
AcDbSymbolTableRecord
100
AcDbRegAppTableRecord
  2
ACAD_DSTYLE_DIMBREAK
 70
     0
  0
APPID
  5
1CBE
330
1B94
100
AcDbSymbolTableRecord
100
AcDbRegAppTableRecord
  2
ACAD_DSTYLE_DIMJAG
 70
     0
  0
ENDTAB
  0
TABLE
  2
DIMSTYLE
  5
1B95
330
0
100
AcDbSymbolTable
 70
     9
100
AcDbDimStyleTable
 71
     1
340
1C1D
  0
DIMSTYLE
105
1BE2
330
1B95
100
AcDbSymbolTableRecord
100
AcDbDimStyleTableRecord
  2
STANDARD
 70
     0
271
     2
272
     2
279
     2
284
     7
285
     7
286
     7
340
1BFB
  0
DIMSTYLE
105
1BE3
330
1B95
100
AcDbSymbolTableRecord
100
AcDbDimStyleTableRecord
  2
ANNOTATIVE
 70
     0
271
     2
272
     2
279
     2
284
     7
285
     7
286
     7
340
1BFB
1001
ACADANNOTATIVE
1000
AnnotativeData
1002
{
1070
     1
1070
     1
1002
}
  0
DIMSTYLE
105
1C1D
102
{ACAD_REACTORS
330
1CAD
102
}
330
1B95
100
AcDbSymbolTableRecord
100
AcDbDimStyleTableRecord
  2
AM_ANSI
 70
     0
  4
mm
 41
0.12
 42
0.05
 43
0.5
 44
0.1
 47
0.1
 48
0.1
 78
     7
140
0.12
141
0.0
146
0.71
147
0.06
176
   256
177
   256
178
     2
271
     2
272
     2
279
     2
284
     7
285
     7
286
     7
340
1BFB
  0
DIMSTYLE
105
1C1E
330
1B95
100
AcDbSymbolTableRecord
100
AcDbDimStyleTableRecord
  2
AM_ANSI$3
 70
     0
  4
mm
 41
0.12
 42
0.05
 43
0.5
 44
0.1
 47
0.1
 48
0.1
 78
     7
140
0.12
141
0.0
146
0.71
147
0.06
176
   256
177
   256
178
     2
271
     2
272
     2
279
     2
284
     7
285
     7
286
     7
340
1BFB
  0
DIMSTYLE
105
1C1F
330
1B95
100
AcDbSymbolTableRecord
100
AcDbDimStyleTableRecord
  2
AM_ANSI$4
 70
     0
  4
mm
 41
0.12
 42
0.05
 43
0.5
 44
0.1
 47
0.1
 48
0.1
 78
     7
140
0.12
141
0.0
146
0.71
147
0.06
176
   256
177
   256
178
     2
271
     2
272
     2
279
     2
284
     7
285
     7
286
     7
340
1BFB
  0
DIMSTYLE
105
1C20
330
1B95
100
AcDbSymbolTableRecord
100
AcDbDimStyleTableRecord
  2
AM_ANSI$7
 70
     0
  4
mm
 41
0.12
 42
0.05
 43
0.5
 44
0.1
 47
0.1
 48
0.1
 78
     7
140
0.12
141
0.0
146
0.71
147
0.06
176
   256
177
   256
178
     2
271
     2
272
     2
279
     2
284
     7
285
     7
286
     7
340
1BFB
  0
DIMSTYLE
105
1C21
330
1B95
100
AcDbSymbolTableRecord
100
AcDbDimStyleTableRecord
  2
AM_ANSI$SF
 70
     0
  4
mm
 41
0.12
 42
0.05
 43
0.5
 44
0.1
 47
0.1
 48
0.1
 75
     1
 76
     1
 78
     7
140
0.12
141
0.0
146
0.71
147
0.06
176
   256
177
   256
178
     2
271
     2
272
     2
279
     2
284
     7
285
     7
286
     7
340
1BFB
  0
DIMSTYLE
105
1C22
330
1B95
100
AcDbSymbolTableRecord
100
AcDbDimStyleTableRecord
  2
AM_ANSI$SH
 70
     0
  4
mm
 41
0.12
 42
0.05
 43
0.5
 44
0.1
 47
0.1
 48
0.1
 75
     1
 76
     1
 78
     7
140
0.12
141
0.0
146
0.71
147
0.06
173
     1
176
   256
177
   256
178
     2
271
     2
272
     2
279
     2
284
     7
285
     7
286
     7
340
1BFB
  0
ENDTAB
  0
TABLE
  2
BLOCK_RECORD
  5
1B8C
330
0
100
AcDbSymbolTable
 70
    28
  0
BLOCK_RECORD
  5
1BF6
102
{ACAD_XDICTIONARY
360
1D09
102
}
330
1B8C
100
AcDbSymbolTableRecord
100
AcDbBlockTableRecord
  2
*Model_Space
340
1BF9
  0
BLOCK_RECORD
  5
1BF2
330
1B8C
100
AcDbSymbolTableRecord
100
AcDbBlockTableRecord
  2
*Paper_Space
340
1BF5
  0
BLOCK_RECORD
  5
1C28
330
1B8C
100
AcDbSymbolTableRecord
100
AcDbBlockTableRecord
  2
$MODEL_SPACE
340
0
  0
BLOCK_RECORD
  5
1C2A
330
1B8C
100
AcDbSymbolTableRecord
100
AcDbBlockTableRecord
  2
$PAPER_SPACE
340
0
  0
BLOCK_RECORD
  5
1C2C
330
1B8C
100
AcDbSymbolTableRecord
100
AcDbBlockTableRecord
  2
NEW_BLOCK
340
0
102
{BLKREFS
331
C59
102
}
  0
BLOCK_RECORD
  5
1C2E
330
1B8C
100
AcDbSymbolTableRecord
100
AcDbBlockTableRecord
  2
GENAXEH
340
0
  0
BLOCK_RECORD
  5
1C30
330
1B8C
100
AcDbSymbolTableRecord
100
AcDbBlockTableRecord
  2
*U4
340
0
  0
BLOCK_RECORD
  5
1C32
330
1B8C
100
AcDbSymbolTableRecord
100
AcDbBlockTableRecord
  2
*U5
340
0
102
{BLKREFS
331
1084
102
}
  0
BLOCK_RECORD
  5
1C34
330
1B8C
100
AcDbSymbolTableRecord
100
AcDbBlockTableRecord
  2
*U6
340
0
102
{BLKREFS
331
108B
102
}
  0
BLOCK_RECORD
  5
1C36
330
1B8C
100
AcDbSymbolTableRecord
100
AcDbBlockTableRecord
  2
*U7
340
0
102
{BLKREFS
331
1092
102
}
  0
BLOCK_RECORD
  5
1C38
330
1B8C
100
AcDbSymbolTableRecord
100
AcDbBlockTableRecord
  2
*U8
340
0
102
{BLKREFS
331
1099
102
}
  0
BLOCK_RECORD
  5
1C3A
330
1B8C
100
AcDbSymbolTableRecord
100
AcDbBlockTableRecord
  2
*U9
340
0
102
{BLKREFS
331
10A0
102
}
  0
BLOCK_RECORD
  5
1C3C
330
1B8C
100
AcDbSymbolTableRecord
100
AcDbBlockTableRecord
  2
*U10
340
0
102
{BLKREFS
331
10A7
102
}
  0
BLOCK_RECORD
  5
1C3E
330
1B8C
100
AcDbSymbolTableRecord
100
AcDbBlockTableRecord
  2
*U11
340
0
102
{BLKREFS
331
10AE
102
}
  0
BLOCK_RECORD
  5
1C40
330
1B8C
100
AcDbSymbolTableRecord
100
AcDbBlockTableRecord
  2
*U12
340
0
102
{BLKREFS
331
10B5
102
}
  0
BLOCK_RECORD
  5
1C42
330
1B8C
100
AcDbSymbolTableRecord
100
AcDbBlockTableRecord
  2
*U13
340
0
102
{BLKREFS
331
10BC
102
}
  0
BLOCK_RECORD
  5
1C44
330
1B8C
100
AcDbSymbolTableRecord
100
AcDbBlockTableRecord
  2
*U14
340
0
102
{BLKREFS
331
1105
102
}
  0
BLOCK_RECORD
  5
1C46
330
1B8C
100
AcDbSymbolTableRecord
100
AcDbBlockTableRecord
  2
*U15
340
0
102
{BLKREFS
331
110C
102
}
  0
BLOCK_RECORD
  5
1C48
330
1B8C
100
AcDbSymbolTableRecord
100
AcDbBlockTableRecord
  2
*U16
340
0
102
{BLKREFS
331
1113
102
}
  0
BLOCK_RECORD
  5
1C4A
330
1B8C
100
AcDbSymbolTableRecord
100
AcDbBlockTableRecord
  2
*U17
340
0
102
{BLKREFS
331
111A
102
}
  0
BLOCK_RECORD
  5
1C4C
330
1B8C
100
AcDbSymbolTableRecord
100
AcDbBlockTableRecord
  2
*U18
340
0
  0
BLOCK_RECORD
  5
1C4E
330
1B8C
100
AcDbSymbolTableRecord
100
AcDbBlockTableRecord
  2
*U19
340
0
  0
BLOCK_RECORD
  5
1C50
330
1B8C
100
AcDbSymbolTableRecord
100
AcDbBlockTableRecord
  2
*U20
340
0
102
{BLKREFS
331
11D5
102
}
  0
BLOCK_RECORD
  5
1C52
330
1B8C
100
AcDbSymbolTableRecord
100
AcDbBlockTableRecord
  2
*U21
340
0
102
{BLKREFS
331
11DD
102
}
  0
BLOCK_RECORD
  5
1C54
330
1B8C
100
AcDbSymbolTableRecord
100
AcDbBlockTableRecord
  2
*U22
340
0
102
{BLKREFS
331
11DF
102
}
  0
BLOCK_RECORD
  5
1C56
330
1B8C
100
AcDbSymbolTableRecord
100
AcDbBlockTableRecord
  2
*U23
340
0
  0
BLOCK_RECORD
  5
1C58
330
1B8C
100
AcDbSymbolTableRecord
100
AcDbBlockTableRecord
  2
*U24
340
0
  0
BLOCK_RECORD
  5
1C5A
330
1B8C
100
AcDbSymbolTableRecord
100
AcDbBlockTableRecord
  2
*U25
340
0
  0
ENDTAB
  0
ENDSEC
  0
SECTION
  2
BLOCKS
  0
BLOCK
  5
1BF7
330
1BF6
100
AcDbEntity
  8
0
100
AcDbBlockBegin
  2
*Model_Space
 70
     0
 10
0.0
 20
0.0
 30
0.0
  3
*Model_Space
  1

  0
ENDBLK
  5
1BF8
330
1BF6
100
AcDbEntity
  8
0
100
AcDbBlockEnd
  0
BLOCK
  5
1BF3
330
1BF2
100
AcDbEntity
 67
     1
  8
0
100
AcDbBlockBegin
  2
*Paper_Space
 70
     0
 10
0.0
 20
0.0
 30
0.0
  3
*Paper_Space
  1

  0
ENDBLK
  5
1BF4
330
1BF2
100
AcDbEntity
 67
     1
  8
0
100
AcDbBlockEnd
  0
BLOCK
  5
1C29
330
1C28
100
AcDbEntity
  8
0
100
AcDbBlockBegin
  2
$MODEL_SPACE
 70
     0
 10
0.0
 20
0.0
 30
0.0
  3
$MODEL_SPACE
  1

  0
ENDBLK
  5
1A89
330
1C28
100
AcDbEntity
  8
0
100
AcDbBlockEnd
  0
BLOCK
  5
1C2B
330
1C2A
100
AcDbEntity
  8
0
100
AcDbBlockBegin
  2
$PAPER_SPACE
 70
     0
 10
0.0
 20
0.0
 30
0.0
  3
$PAPER_SPACE
  1

  0
ENDBLK
  5
1A85
330
1C2A
100
AcDbEntity
  8
0
100
AcDbBlockEnd
  0
BLOCK
  5
1C2D
330
1C2C
100
AcDbEntity
  8
0
100
AcDbBlockBegin
  2
NEW_BLOCK
 70
     0
 10
0.0
 20
0.0
 30
0.0
  3
NEW_BLOCK
  1

  0
TEXT
  5
B67
330
1C2C
100
AcDbEntity
  8
TEXT
100
AcDbText
 10
27.285946821803
 20
25.27142175952417
 30
0.0
 40
40.0
  1
available on request
  7
TITLE3
100
AcDbText
  0
TEXT
  5
B68
330
1C2C
100
AcDbEntity
  8
TEXT
100
AcDbText
 10
27.285946821803
 20
93.84285033095272
 30
0.0
 40
40.0
  1
Certified dimensions
  7
TITLE3
100
AcDbText
  0
TEXT
  5
B69
330
1C2C
100
AcDbEntity
  8
TEXT
100
AcDbText
 10
27.285946821803
 20
162.4142789023812
 30
0.0
 40
40.0
  1
without notice or obligation.
  7
TITLE3
100
AcDbText
  0
TEXT
  5
B6A
330
1C2C
100
AcDbEntity
  8
TEXT
100
AcDbText
 10
27.285946821803
 20
230.9857074738097
 30
0.0
 40
40.0
  1
specifications at any time
  7
TITLE3
100
AcDbText
  0
TEXT
  5
B6B
330
1C2C
100
AcDbEntity
  8
TEXT
100
AcDbText
 10
27.285946821803
 20
299.5571360452384
 30
0.0
 40
40.0
  1
the right to change 
  7
TITLE3
100
AcDbText
  0
TEXT
  5
B6C
330
1C2C
100
AcDbEntity
  8
TEXT
100
AcDbText
 10
27.285946821803
 20
436.6999931880949
 30
0.0
 40
40.0
  1
NOTE
  7
TITLE3
100
AcDbText
  0
TEXT
  5
B6D
330
1C2C
100
AcDbEntity
  8
TEXT
100
AcDbText
 10
27.285946821803
 20
368.1285646166668
 30
0.0
 40
40.0
  1
The manufacturer reserves
  7
TITLE3
100
AcDbText
  0
ENDBLK
  5
B6E
330
1C2C
100
AcDbEntity
  8
0
100
AcDbBlockEnd
  0
BLOCK
  5
1C2F
330
1C2E
100
AcDbEntity
  8
0
100
AcDbBlockBegin
  2
GENAXEH
 70
     0
 10
0.0
 20
0.0
 30
0.0
  3
GENAXEH
  1

  0
LINE
  5
D72
330
1C2E
100
AcDbEntity
  8
0
100
AcDbLine
 10
-1.0
 20
0.0
 30
0.0
 11
1.0
 21
0.0
 31
0.0
  0
ENDBLK
  5
D74
330
1C2E
100
AcDbEntity
  8
0
100
AcDbBlockEnd
  0
BLOCK
  5
1C31
330
1C30
100
AcDbEntity
  8
0
100
AcDbBlockBegin
  2
*U4
 70
     1
 10
0.0
 20
0.0
 30
0.0
  3
*U4
  1

  0
TEXT
  5
15DB
330
1C30
100
AcDbEntity
  8
DIM
100
AcDbText
 10
2091.876394255876
 20
1169.650276091011
 30
0.0
 40
30.0
  1
825 HANGING CTRS
100
AcDbText
  0
ENDBLK
  5
15DD
330
1C30
100
AcDbEntity
  8
0
100
AcDbBlockEnd
  0
BLOCK
  5
1C33
330
1C32
100
AcDbEntity
  8
0
100
AcDbBlockBegin
  2
*U5
 70
     1
 10
0.0
 20
0.0
 30
0.0
  3
*U5
  1

  0
TEXT
  5
15DF
330
1C32
100
AcDbEntity
  8
DIM
100
AcDbText
 10
1921.876394255876
 20
1107.627356150924
 30
0.0
 40
30.0
  1
900 OPTIONAL SPRING MTG CTRS
100
AcDbText
  0
ENDBLK
  5
15E1
330
1C32
100
AcDbEntity
  8
0
100
AcDbBlockEnd
  0
BLOCK
  5
1C35
330
1C34
100
AcDbEntity
  8
0
100
AcDbBlockBegin
  2
*U6
 70
     1
 10
0.0
 20
0.0
 30
0.0
  3
*U6
  1

  0
TEXT
  5
15E3
330
1C34
100
AcDbEntity
  8
DIM
100
AcDbText
 10
1774.076394255876
 20
1973.823848306443
 30
0.0
 40
30.0
  1
40
100
AcDbText
  0
ENDBLK
  5
15E5
330
1C34
100
AcDbEntity
  8
0
100
AcDbBlockEnd
  0
BLOCK
  5
1C37
330
1C36
100
AcDbEntity
  8
0
100
AcDbBlockBegin
  2
*U7
 70
     1
 10
0.0
 20
0.0
 30
0.0
  3
*U7
  1

  0
TEXT
  5
15E7
330
1C36
100
AcDbEntity
  8
DIM
100
AcDbText
 10
2137.776394255877
 20
1973.578120686029
 30
0.0
 40
30.0
  1
478
100
AcDbText
  0
ENDBLK
  5
15E9
330
1C36
100
AcDbEntity
  8
0
100
AcDbBlockEnd
  0
BLOCK
  5
1C39
330
1C38
100
AcDbEntity
  8
0
100
AcDbBlockBegin
  2
*U8
 70
     1
 10
0.0
 20
0.0
 30
0.0
  3
*U8
  1

  0
TEXT
  5
15EB
330
1C38
100
AcDbEntity
  8
DIM
100
AcDbText
 10
1769.076394255877
 20
839.620606874023
 30
0.0
 40
30.0
  1
52
100
AcDbText
  0
ENDBLK
  5
15ED
330
1C38
100
AcDbEntity
  8
0
100
AcDbBlockEnd
  0
BLOCK
  5
1C3B
330
1C3A
100
AcDbEntity
  8
0
100
AcDbBlockBegin
  2
*U9
 70
     1
 10
0.0
 20
0.0
 30
0.0
  3
*U9
  1

  0
TEXT
  5
15EF
330
1C3A
100
AcDbEntity
  8
DIM
100
AcDbText
 10
2149.576394255877
 20
839.5387797319164
 30
0.0
 40
30.0
  1
477
100
AcDbText
  0
ENDBLK
  5
15F1
330
1C3A
100
AcDbEntity
  8
0
100
AcDbBlockEnd
  0
BLOCK
  5
1C3D
330
1C3C
100
AcDbEntity
  8
0
100
AcDbBlockBegin
  2
*U10
 70
     1
 10
0.0
 20
0.0
 30
0.0
  3
*U10
  1

  0
TEXT
  5
15F3
330
1C3C
100
AcDbEntity
  8
DIM
100
AcDbText
 10
2221.876394255877
 20
903.4454019475743
 30
0.0
 40
30.0
  1
846 O/A
100
AcDbText
  0
ENDBLK
  5
15F5
330
1C3C
100
AcDbEntity
  8
0
100
AcDbBlockEnd
  0
BLOCK
  5
1C3F
330
1C3E
100
AcDbEntity
  8
0
100
AcDbBlockBegin
  2
*U11
 70
     1
 10
0.0
 20
0.0
 30
0.0
  3
*U11
  1

  0
TEXT
  5
15F7
330
1C3E
100
AcDbEntity
  8
DIM
100
AcDbText
 10
1796.711091623166
 20
539.2830775023091
 30
0.0
 40
30.0
  1
350 O/A
 50
90.0
100
AcDbText
  0
ENDBLK
  5
15F9
330
1C3E
100
AcDbEntity
  8
0
100
AcDbBlockEnd
  0
BLOCK
  5
1C41
330
1C40
100
AcDbEntity
  8
0
100
AcDbBlockBegin
  2
*U12
 70
     1
 10
0.0
 20
0.0
 30
0.0
  3
*U12
  1

  0
TEXT
  5
15FB
330
1C40
100
AcDbEntity
  8
DIM
100
AcDbText
 10
2900.16551784755
 20
603.2830775023093
 30
0.0
 40
30.0
  1
337
 50
90.0
100
AcDbText
  0
ENDBLK
  5
15FD
330
1C40
100
AcDbEntity
  8
0
100
AcDbBlockEnd
  0
BLOCK
  5
1C43
330
1C42
100
AcDbEntity
  8
0
100
AcDbBlockBegin
  2
*U13
 70
     1
 10
0.0
 20
0.0
 30
0.0
  3
*U13
  1

  0
TEXT
  5
15FF
330
1C42
100
AcDbEntity
  8
DIM
100
AcDbText
 10
2840.305335407327
 20
615.3290225423567
 30
0.0
 40
30.0
  1
111
 50
90.0
100
AcDbText
  0
ENDBLK
  5
1601
330
1C42
100
AcDbEntity
  8
0
100
AcDbBlockEnd
  0
BLOCK
  5
1C45
330
1C44
100
AcDbEntity
  8
0
100
AcDbBlockBegin
  2
*U14
 70
     1
 10
0.0
 20
0.0
 30
0.0
  3
*U14
  1

  0
TEXT
  5
1603
330
1C44
100
AcDbEntity
  8
DIM
100
AcDbText
 10
3085.697266222859
 20
891.7830775023091
 30
0.0
 40
30.0
  1
39
 50
90.0
100
AcDbText
  0
ENDBLK
  5
1605
330
1C44
100
AcDbEntity
  8
0
100
AcDbBlockEnd
  0
BLOCK
  5
1C47
330
1C46
100
AcDbEntity
  8
0
100
AcDbBlockBegin
  2
*U15
 70
     1
 10
0.0
 20
0.0
 30
0.0
  3
*U15
  1

  0
TEXT
  5
1607
330
1C46
100
AcDbEntity
  8
DIM
100
AcDbText
 10
3085.681924010311
 20
604.2830775023093
 30
0.0
 40
30.0
  1
257
 50
90.0
100
AcDbText
  0
ENDBLK
  5
1609
330
1C46
100
AcDbEntity
  8
0
100
AcDbBlockEnd
  0
BLOCK
  5
1C49
330
1C48
100
AcDbEntity
  8
0
100
AcDbBlockBegin
  2
*U16
 70
     1
 10
0.0
 20
0.0
 30
0.0
  3
*U16
  1

  0
TEXT
  5
160B
330
1C48
100
AcDbEntity
  8
DIM
100
AcDbText
 10
3847.823572455176
 20
891.7830775023093
 30
0.0
 40
30.0
  1
29
 50
90.0
100
AcDbText
  0
ENDBLK
  5
160D
330
1C48
100
AcDbEntity
  8
0
100
AcDbBlockEnd
  0
BLOCK
  5
1C4B
330
1C4A
100
AcDbEntity
  8
0
100
AcDbBlockBegin
  2
*U17
 70
     1
 10
0.0
 20
0.0
 30
0.0
  3
*U17
  1

  0
TEXT
  5
160F
330
1C4A
100
AcDbEntity
  8
DIM
100
AcDbText
 10
3847.823572455176
 20
614.4830775023092
 30
0.0
 40
30.0
  1
257
 50
90.0
100
AcDbText
  0
ENDBLK
  5
1611
330
1C4A
100
AcDbEntity
  8
0
100
AcDbBlockEnd
  0
BLOCK
  5
1C4D
330
1C4C
100
AcDbEntity
  8
0
100
AcDbBlockBegin
  2
*U18
 70
     1
 10
0.0
 20
0.0
 30
0.0
  3
*U18
  1

  0
TEXT
  5
1613
330
1C4C
100
AcDbEntity
  8
DIM
100
AcDbText
 10
2954.461792250693
 20
1514.690735559124
 30
0.0
 40
30.0
  1
472 CTRS
 50
90.0
100
AcDbText
  0
ENDBLK
  5
1615
330
1C4C
100
AcDbEntity
  8
0
100
AcDbBlockEnd
  0
BLOCK
  5
1C4F
330
1C4E
100
AcDbEntity
  8
0
100
AcDbBlockBegin
  2
*U19
 70
     1
 10
0.0
 20
0.0
 30
0.0
  3
*U19
  1

  0
TEXT
  5
1617
330
1C4E
100
AcDbEntity
  8
DIM
100
AcDbText
 10
2882.596627950757
 20
1517.190735559124
 30
0.0
 40
30.0
  1
440 CTRS
 50
90.0
100
AcDbText
  0
ENDBLK
  5
1619
330
1C4E
100
AcDbEntity
  8
0
100
AcDbBlockEnd
  0
BLOCK
  5
1C51
330
1C50
100
AcDbEntity
  8
0
100
AcDbBlockBegin
  2
*U20
 70
     1
 10
0.0
 20
0.0
 30
0.0
  3
*U20
  1

  0
TEXT
  5
161B
330
1C50
100
AcDbEntity
  8
DIM
100
AcDbText
 10
3355.110182386908
 20
858.8776756258937
 30
0.0
 40
30.0
  1
103
100
AcDbText
  0
ENDBLK
  5
161D
330
1C50
100
AcDbEntity
  8
0
100
AcDbBlockEnd
  0
BLOCK
  5
1C53
330
1C52
100
AcDbEntity
  8
0
100
AcDbBlockBegin
  2
*U21
 70
     1
 10
0.0
 20
0.0
 30
0.0
  3
*U21
  1

  0
TEXT
  5
161F
330
1C52
100
AcDbEntity
  8
DIM
100
AcDbText
 10
3373.342764116722
 20
705.6293678620813
 30
0.0
 40
30.0
  1
75
100
AcDbText
  0
ENDBLK
  5
1621
330
1C52
100
AcDbEntity
  8
0
100
AcDbBlockEnd
  0
BLOCK
  5
1C55
330
1C54
100
AcDbEntity
  8
0
100
AcDbBlockBegin
  2
*U22
 70
     1
 10
0.0
 20
0.0
 30
0.0
  3
*U22
  1

  0
TEXT
  5
1623
330
1C54
100
AcDbEntity
  8
DIM
100
AcDbText
 10
3373.342764116722
 20
767.1885034816822
 30
0.0
 40
30.0
  1
56
100
AcDbText
  0
ENDBLK
  5
1625
330
1C54
100
AcDbEntity
  8
0
100
AcDbBlockEnd
  0
BLOCK
  5
1C57
330
1C56
100
AcDbEntity
  8
0
100
AcDbBlockBegin
  2
*U23
 70
     1
 10
0.0
 20
0.0
 30
0.0
  3
*U23
  1

  0
TEXT
  5
1627
330
1C56
100
AcDbEntity
  8
DIM
100
AcDbText
 10
1796.698602351978
 20
1508.230735559123
 30
0.0
 40
30.0
  1
677 O/A
 50
90.0
100
AcDbText
  0
ENDBLK
  5
1629
330
1C56
100
AcDbEntity
  8
0
100
AcDbBlockEnd
  0
BLOCK
  5
1C59
330
1C58
100
AcDbEntity
  8
0
100
AcDbBlockBegin
  2
*U24
 70
     1
 10
0.0
 20
0.0
 30
0.0
  3
*U24
  1

  0
TEXT
  5
162B
330
1C58
100
AcDbEntity
  8
DIM
100
AcDbText
 10
2954.230765222468
 20
1964.690735559123
 30
0.0
 40
30.0
  1
19
 50
90.0
100
AcDbText
  0
ENDBLK
  5
162D
330
1C58
100
AcDbEntity
  8
0
100
AcDbBlockEnd
  0
BLOCK
  5
1C5B
330
1C5A
100
AcDbEntity
  8
0
100
AcDbBlockBegin
  2
*U25
 70
     1
 10
0.0
 20
0.0
 30
0.0
  3
*U25
  1

  0
TEXT
  5
162F
330
1C5A
100
AcDbEntity
  8
DIM
100
AcDbText
 10
2882.598134009931
 20
1964.690735559123
 30
0.0
 40
30.0
  1
35
 50
90.0
100
AcDbText
  0
ENDBLK
  5
1631
330
1C5A
100
AcDbEntity
  8
0
100
AcDbBlockEnd
  0
ENDSEC
  0
SECTION
  2
ENTITIES
  0
TEXT
  5
B6F
330
1BF6
100
AcDbEntity
  8
TEXT
100
AcDbText
 10
2932.4815966665
 20
271.500140606051
 30
0.0
 40
50.0
  1
temperzone HWP 47Y
  7
TITLE5
 72
     1
 11
3344.386358571262
 21
271.500140606051
 31
0.0
100
AcDbText
  0
TEXT
  5
B70
330
1BF6
100
AcDbEntity
  8
TEXT
100
AcDbText
 10
3430.0
 20
70.0
 30
0.0
 40
30.0
  1
HWP47Y
 41
1.65040650406504
  7
TITLE3
 72
     5
 11
3720.0
 21
70.0
 31
0.0
100
AcDbText
  0
TEXT
  5
B72
330
1BF6
100
AcDbEntity
  8
OVERLAY-A3
100
AcDbText
 10
2847.288544144122
 20
110.8312138601009
 30
0.0
 40
24.0
  1
Date
  7
SIMPLEX
100
AcDbText
  0
TEXT
  5
B73
330
1BF6
100
AcDbEntity
  8
OVERLAY-A3
100
AcDbText
 10
3746.111192373602
 20
129.5033020234112
 30
0.0
 40
24.0
  1
Revision
 41
0.7812095035934773
  7
SIMPLEX
 72
     5
 11
3851.462874001065
 21
129.5033020234112
 31
0.0
100
AcDbText
  0
LINE
  5
B74
330
1BF6
100
AcDbEntity
  8
OVERLAY-A3
100
AcDbLine
 10
3734.49134999016
 20
20.84249284831713
 30
0.0
 11
3734.49134999016
 21
168.2686557085465
 31
0.0
  0
LINE
  5
B75
330
1BF6
100
AcDbEntity
  8
OVERLAY-A3
100
AcDbLine
 10
2819.351529457147
 20
337.3426334543681
 30
0.0
 11
2819.351529457147
 21
20.84249284831713
 31
0.0
  0
LINE
  5
B76
330
1BF6
100
AcDbEntity
  8
OVERLAY-A3
100
AcDbLine
 10
3416.913678013094
 20
20.84249284831713
 30
0.0
 11
3416.913678013094
 21
168.2686557085465
 31
0.0
  0
LINE
  5
B77
330
1BF6
100
AcDbEntity
  8
OVERLAY-A3
100
AcDbLine
 10
3416.913678013094
 20
93.31259926946378
 30
0.0
 11
2819.351529457147
 21
93.31259926946378
 31
0.0
  0
LINE
  5
B78
330
1BF6
100
AcDbEntity
  8
OVERLAY-A3
100
AcDbLine
 10
3861.575465237841
 20
168.2686557085465
 30
0.0
 11
2819.351529457147
 21
168.2686557085465
 31
0.0
  0
LINE
  5
B79
330
1BF6
100
AcDbEntity
  8
OVERLAY-A3
100
AcDbLine
 10
2819.351529457147
 20
20.84249284831713
 30
0.0
 11
3861.277958059491
 21
20.84249284831713
 31
0.0
  0
LINE
  5
B7A
330
1BF6
100
AcDbEntity
  8
OVERLAY-A3
100
AcDbLine
 10
3861.277958059491
 20
20.84249284831713
 30
0.0
 11
3861.277958059491
 21
337.3426334543681
 31
0.0
  0
LINE
  5
B7B
330
1BF6
100
AcDbEntity
  8
OVERLAY-A3
100
AcDbLine
 10
3861.277958059491
 20
337.3426334543681
 30
0.0
 11
2819.351529457147
 21
337.3426334543681
 31
0.0
  0
TEXT
  5
B7C
330
1BF6
100
AcDbEntity
  8
OVERLAY-A3
100
AcDbText
 10
2844.483219103109
 20
47.92248806535767
 30
0.0
 40
20.0
  1
Scale
 41
1.370174796565972
  7
SIMPLEX
 72
     5
 11
2944.962704184614
 21
47.92248806535767
 31
0.0
100
AcDbText
  0
TEXT
  5
B7D
330
1BF6
100
AcDbEntity
  8
OVERLAY-A3
100
AcDbText
 10
3474.859123600798
 20
128.8934315067097
 30
0.0
 40
20.0
  1
Drawing No.
  7
SIMPLEX
 72
     2
 11
3649.144837886512
 21
128.8934315067097
 31
0.0
100
AcDbText
  0
LINE
  5
B7E
330
1BF6
100
AcDbEntity
  8
OVERLAY-A3
100
AcDbLine
 10
1695.578375694022
 20
0.0
 30
0.0
 11
3890.000000000156
 21
0.0
 31
0.0
  0
LINE
  5
B7F
330
1BF6
100
AcDbEntity
  8
OVERLAY-A3
100
AcDbLine
 10
3890.000000000156
 20
0.0
 30
0.0
 11
3890.000000000156
 21
2100.142154073407
 31
0.0
  0
LINE
  5
B80
330
1BF6
100
AcDbEntity
  8
OVERLAY-A3
100
AcDbLine
 10
3890.000000000156
 20
2100.142154073407
 30
0.0
 11
1695.578375694022
 21
2100.142154073407
 31
0.0
  0
LINE
  5
B81
330
1BF6
100
AcDbEntity
  8
OVERLAY-A3
100
AcDbLine
 10
1695.578375694022
 20
2100.142154073407
 30
0.0
 11
1695.578375694022
 21
0.0
 31
0.0
  0
TEXT
  5
C1A
330
1BF6
100
AcDbEntity
  8
TEXT
100
AcDbText
 10
2950.703500661916
 20
110.0
 30
0.0
 40
25.0
  1
12-02-11
 41
0.9020134228187895
  7
TITLE3
 72
     5
 11
3110.703500661915
 21
110.0
 31
0.0
100
AcDbText
  0
TEXT
  5
C49
330
1BF6
100
AcDbEntity
  8
TEXT
100
AcDbText
 10
3001.04344477519
 20
47.4986127328093
 30
0.0
 40
25.0
  1
1:10
  7
TITLE3
100
AcDbText
  0
INSERT
  5
C59
330
1BF6
100
AcDbEntity
  8
TEXT
100
AcDbBlockReference
  2
NEW_BLOCK
 10
1735.557764683153
 20
31.27165940950507
 30
0.0
 41
0.6999999999999888
 42
0.6999999999999888
 43
0.6999999999999888
  0
LINE
  5
D9E
330
1BF6
100
AcDbEntity
  8
OUTLINE
100
AcDbLine
 10
2744.67639425588
 20
811.7830775023087
 30
0.0
 11
1899.076394255876
 21
811.7830775023087
 31
0.0
  0
LINE
  5
DAF
330
1BF6
100
AcDbEntity
  8
OUTLINE
100
AcDbLine
 10
2744.67639425588
 20
811.7830775023087
 30
0.0
 11
2744.67639425588
 21
803.7830775023092
 31
0.0
  0
LINE
  5
DC3
330
1BF6
100
AcDbEntity
  8
OUTLINE
100
AcDbLine
 10
1899.076394255876
 20
811.7830775023087
 30
0.0
 11
1899.076394255876
 21
803.7830775023067
 31
0.0
  0
LINE
  5
DD7
330
1BF6
100
AcDbEntity
  8
OUTLINE
100
AcDbLine
 10
1920.076394255877
 20
811.7830775023087
 30
0.0
 11
1920.076394255877
 21
489.7830775023087
 31
0.0
  0
LINE
  5
DDA
330
1BF6
100
AcDbEntity
  8
OUTLINE
100
AcDbLine
 10
2723.676394255877
 20
811.7830775023087
 30
0.0
 11
2723.676394255877
 21
799.7830775023085
 31
0.0
  0
LINE
  5
DDB
330
1BF6
100
AcDbEntity
  8
OUTLINE
100
AcDbLine
 10
2744.67639425588
 20
489.7830775023087
 30
0.0
 11
1899.076394255876
 21
489.7830775023087
 31
0.0
  0
LINE
  5
DDC
330
1BF6
100
AcDbEntity
  8
OUTLINE
100
AcDbLine
 10
2744.67639425588
 20
489.7830775023087
 30
0.0
 11
2744.67639425588
 21
497.7830775023083
 31
0.0
  0
LINE
  5
DDD
330
1BF6
100
AcDbEntity
  8
OUTLINE
100
AcDbLine
 10
1899.076394255876
 20
489.7830775023087
 30
0.0
 11
1899.076394255876
 21
497.7830775023106
 31
0.0
  0
LINE
  5
DF8
330
1BF6
100
AcDbEntity
  8
OUTLINE
100
AcDbLine
 10
1951.076394255877
 20
772.7830775023086
 30
0.0
 11
1951.076394255877
 21
515.7830775023088
 31
0.0
  0
LINE
  5
DF9
330
1BF6
100
AcDbEntity
  8
OUTLINE
100
AcDbLine
 10
2428.076394255877
 20
772.7830775023085
 30
0.0
 11
1951.076394255877
 21
772.7830775023086
 31
0.0
  0
LINE
  5
DFA
330
1BF6
100
AcDbEntity
  8
OUTLINE
100
AcDbLine
 10
2428.076394255878
 20
515.7830775023088
 30
0.0
 11
1951.076394255877
 21
515.7830775023088
 31
0.0
  0
LINE
  5
DFB
330
1BF6
100
AcDbEntity
  8
OUTLINE
100
AcDbLine
 10
2428.076394255877
 20
772.7830775023085
 30
0.0
 11
2428.076394255878
 21
515.7830775023088
 31
0.0
  0
LINE
  5
E00
330
1BF6
100
AcDbEntity
  8
OUTLINE
100
AcDbLine
 10
2723.676394255877
 20
501.7830775023084
 30
0.0
 11
2723.676394255877
 21
489.7830775023087
 31
0.0
  0
LINE
  5
E1B
330
1BF6
100
AcDbEntity
  8
DIM
100
AcDbLine
 10
1920.076394255877
 20
489.7830775023087
 30
0.0
 11
1920.076394255877
 21
461.7830775023087
 31
0.0
  0
LINE
  5
E1C
330
1BF6
100
AcDbEntity
  8
DIM
100
AcDbLine
 10
2723.676394255877
 20
489.7830775023087
 30
0.0
 11
2723.676394255877
 21
474.7830775023087
 31
0.0
  0
LINE
  5
E1D
330
1BF6
100
AcDbEntity
  8
DIM
100
AcDbLine
 10
2723.676394255877
 20
474.7830775023087
 30
0.0
 11
1920.076394255877
 21
461.7830775023087
 31
0.0
  0
LINE
  5
E22
330
1BF6
100
AcDbEntity
  8
OUTLINE
100
AcDbLine
 10
2744.67639425588
 20
489.7830775023087
 30
0.0
 11
2744.67639425588
 21
481.7830775023089
 31
0.0
  0
LINE
  5
E23
330
1BF6
100
AcDbEntity
  8
OUTLINE
100
AcDbLine
 10
1899.076394255876
 20
489.7830775023087
 30
0.0
 11
1899.076394255876
 21
481.7830775023066
 31
0.0
  0
LINE
  5
E3D
330
1BF6
100
AcDbEntity
  8
OUTLINE
100
AcDbLine
 10
1920.076394255877
 20
483.2830775023087
 30
0.0
 11
1895.076394255877
 21
483.2830775023087
 31
0.0
  0
LINE
  5
E3E
330
1BF6
100
AcDbEntity
  8
OUTLINE
100
AcDbLine
 10
1920.076394255877
 20
464.2830775023087
 30
0.0
 11
1895.076394255877
 21
464.2830775023087
 31
0.0
  0
LINE
  5
E3F
330
1BF6
100
AcDbEntity
  8
DIM
100
AcDbLine
 10
1895.076394255877
 20
483.2830775023087
 30
0.0
 11
1895.076394255877
 21
464.2830775023087
 31
0.0
  0
LINE
  5
E59
330
1BF6
100
AcDbEntity
  8
OUTLINE
100
AcDbLine
 10
1920.076394255877
 20
700.7830775023088
 30
0.0
 11
1854.076394255877
 21
700.7830775023088
 31
0.0
  0
LINE
  5
E5A
330
1BF6
100
AcDbEntity
  8
OUTLINE
100
AcDbLine
 10
1858.576394255877
 20
700.7830775023088
 30
0.0
 11
1889.576394255878
 21
700.7830775023088
 31
0.0
  0
LINE
  5
E5B
330
1BF6
100
AcDbEntity
  8
OUTLINE
100
AcDbLine
 10
1882.076394255877
 20
693.7830775023088
 30
0.0
 11
1862.076394255877
 21
693.7830775023088
 31
0.0
  0
LINE
  5
E5C
330
1BF6
100
AcDbEntity
  8
OUTLINE
100
AcDbLine
 10
1854.076394255877
 20
712.7830775023088
 30
0.0
 11
1854.076394255877
 21
700.7830775023088
 31
0.0
  0
LINE
  5
E61
330
1BF6
100
AcDbEntity
  8
OUTLINE
100
AcDbLine
 10
1920.076394255877
 20
770.7830775023086
 30
0.0
 11
1920.076394255877
 21
710.7830775023089
 31
0.0
  0
LINE
  5
E66
330
1BF6
100
AcDbEntity
  8
OUTLINE
100
AcDbLine
 10
1920.076394255877
 20
774.7830775023086
 30
0.0
 11
1908.076394255877
 21
774.7830775023086
 31
0.0
  0
LINE
  5
E67
330
1BF6
100
AcDbEntity
  8
OUTLINE
100
AcDbLine
 10
1908.076394255877
 20
712.7830775023088
 30
0.0
 11
1854.076394255877
 21
712.7830775023088
 31
0.0
  0
LINE
  5
E68
330
1BF6
100
AcDbEntity
  8
OUTLINE
100
AcDbLine
 10
1908.076394255877
 20
774.7830775023086
 30
0.0
 11
1908.076394255877
 21
712.7830775023088
 31
0.0
  0
LINE
  5
E6E
330
1BF6
100
AcDbEntity
  8
DIM
100
AcDbLine
 10
1860.076394255877
 20
700.7830775023088
 30
0.0
 11
1862.076394255877
 21
693.7830775023088
 31
0.0
  0
LINE
  5
E6F
330
1BF6
100
AcDbEntity
  8
DIM
100
AcDbLine
 10
1884.076394255876
 20
700.7830775023088
 30
0.0
 11
1882.076394255877
 21
693.7830775023088
 31
0.0
  0
LINE
  5
E71
330
1BF6
100
AcDbEntity
  8
OUTLINE
100
AcDbLine
 10
2744.676394255877
 20
700.7830775023088
 30
0.0
 11
2789.676394255878
 21
700.7830775023088
 31
0.0
  0
LINE
  5
E72
330
1BF6
100
AcDbEntity
  8
OUTLINE
100
AcDbLine
 10
2744.676394255877
 20
712.7830775023086
 30
0.0
 11
2789.676394255878
 21
712.7830775023088
 31
0.0
  0
LINE
  5
E75
330
1BF6
100
AcDbEntity
  8
OUTLINE
100
AcDbLine
 10
2761.676394255877
 20
693.7830775023088
 30
0.0
 11
2781.676394255877
 21
693.7830775023088
 31
0.0
  0
LINE
  5
E76
330
1BF6
100
AcDbEntity
  8
OUTLINE
100
AcDbLine
 10
2789.676394255878
 20
712.7830775023088
 30
0.0
 11
2789.676394255878
 21
700.7830775023088
 31
0.0
  0
LINE
  5
E79
330
1BF6
100
AcDbEntity
  8
DIM
100
AcDbLine
 10
2783.676394255877
 20
700.7830775023088
 30
0.0
 11
2781.676394255877
 21
693.7830775023088
 31
0.0
  0
LINE
  5
E7A
330
1BF6
100
AcDbEntity
  8
DIM
100
AcDbLine
 10
2759.676394255877
 20
700.7830775023088
 30
0.0
 11
2761.676394255877
 21
693.7830775023088
 31
0.0
  0
LINE
  5
E93
330
1BF6
100
AcDbEntity
  8
OUTLINE
100
AcDbLine
 10
3758.586866410981
 20
811.7830775023087
 30
0.0
 11
3186.986866410983
 21
811.7830775023087
 31
0.0
  0
LINE
  5
E94
330
1BF6
100
AcDbEntity
  8
OUTLINE
100
AcDbLine
 10
3186.986866410983
 20
811.7830775023087
 30
0.0
 11
3186.986866410983
 21
803.7830775023067
 31
0.0
  0
LINE
  5
E95
330
1BF6
100
AcDbEntity
  8
OUTLINE
100
AcDbLine
 10
3758.586866410981
 20
811.7830775023087
 30
0.0
 11
3758.586866410983
 21
803.7830775023067
 31
0.0
  0
LINE
  5
E96
330
1BF6
100
AcDbEntity
  8
OUTLINE
100
AcDbLine
 10
3758.586866410981
 20
489.7830775023087
 30
0.0
 11
3186.986866410983
 21
489.7830775023087
 31
0.0
  0
LINE
  5
E97
330
1BF6
100
AcDbEntity
  8
OUTLINE
100
AcDbLine
 10
3186.986866410983
 20
489.7830775023087
 30
0.0
 11
3186.986866410983
 21
497.7830775023106
 31
0.0
  0
LINE
  5
E98
330
1BF6
100
AcDbEntity
  8
OUTLINE
100
AcDbLine
 10
3758.586866410981
 20
489.7830775023087
 30
0.0
 11
3758.586866410983
 21
497.7830775023106
 31
0.0
  0
LINE
  5
E99
330
1BF6
100
AcDbEntity
  8
OUTLINE
100
AcDbLine
 10
3207.786866410984
 20
811.7830775023087
 30
0.0
 11
3207.786866410984
 21
774.7830775023086
 31
0.0
  0
LINE
  5
E9A
330
1BF6
100
AcDbEntity
  8
OUTLINE
100
AcDbLine
 10
3737.786866410981
 20
811.7830775023074
 30
0.0
 11
3737.786866410983
 21
774.7830775023086
 31
0.0
  0
LINE
  5
E9E
330
1BF6
100
AcDbEntity
  8
DIM
100
AcDbLine
 10
3065.866866410983
 20
515.7830775023088
 30
0.0
 11
3087.986866410983
 21
515.7830775023087
 31
0.0
  0
LINE
  5
E9F
330
1BF6
100
AcDbEntity
  8
OUTLINE
100
AcDbLine
 10
3065.866866410983
 20
772.7830775023086
 30
0.0
 11
3065.866866410983
 21
515.7830775023088
 31
0.0
  0
LINE
  5
EBC
330
1BF6
100
AcDbEntity
  8
DIM
100
AcDbLine
 10
3203.086866410983
 20
700.7830775023088
 30
0.0
 11
3250.086866410985
 21
700.7830775023086
 31
0.0
  0
LINE
  5
EBD
330
1BF6
100
AcDbEntity
  8
DIM
100
AcDbLine
 10
3203.086866410983
 20
774.7830775023086
 30
0.0
 11
3250.086866410985
 21
774.7830775023086
 31
0.0
  0
LINE
  5
EBE
330
1BF6
100
AcDbEntity
  8
OUTLINE
100
AcDbLine
 10
3203.086866410983
 20
774.7830775023086
 30
0.0
 11
3203.086866410983
 21
700.7830775023088
 31
0.0
  0
LINE
  5
EBF
330
1BF6
100
AcDbEntity
  8
OUTLINE
100
AcDbLine
 10
3250.086866410985
 20
774.7830775023093
 30
0.0
 11
3250.086866410985
 21
700.7830775023093
 31
0.0
  0
LINE
  5
EC0
330
1BF6
100
AcDbEntity
  8
OUTLINE
100
AcDbLine
 10
3207.786866410981
 20
700.7830775023088
 30
0.0
 11
3207.786866410981
 21
461.7830775023087
 31
0.0
  0
LINE
  5
EC2
330
1BF6
100
AcDbEntity
  8
OUTLINE
100
AcDbLine
 10
3216.586866410984
 20
693.7830775023088
 30
0.0
 11
3236.586866410983
 21
693.7830775023088
 31
0.0
  0
LINE
  5
EC3
330
1BF6
100
AcDbEntity
  8
DIM
100
AcDbLine
 10
3238.586866410983
 20
700.7830775023088
 30
0.0
 11
3236.586866410983
 21
693.7830775023088
 31
0.0
  0
LINE
  5
EC4
330
1BF6
100
AcDbEntity
  8
DIM
100
AcDbLine
 10
3214.586866410983
 20
700.7830775023088
 30
0.0
 11
3216.586866410984
 21
693.7830775023088
 31
0.0
  0
LINE
  5
EC5
330
1BF6
100
AcDbEntity
  8
OUTLINE
100
AcDbLine
 10
3742.486866410982
 20
774.7830775023086
 30
0.0
 11
3742.48686641098
 21
700.7830775023088
 31
0.0
  0
LINE
  5
EC6
330
1BF6
100
AcDbEntity
  8
OUTLINE
100
AcDbLine
 10
3695.486866410982
 20
774.7830775023093
 30
0.0
 11
3695.486866410981
 21
700.7830775023093
 31
0.0
  0
LINE
  5
EC7
330
1BF6
100
AcDbEntity
  8
DIM
100
AcDbLine
 10
3742.48686641098
 20
712.7830775023088
 30
0.0
 11
3739.98686641098
 21
712.7830775023088
 31
0.0
  0
LINE
  5
EC8
330
1BF6
100
AcDbEntity
  8
DIM
100
AcDbLine
 10
3742.48686641098
 20
700.7830775023088
 30
0.0
 11
3695.486866410981
 21
700.7830775023086
 31
0.0
  0
LINE
  5
EC9
330
1BF6
100
AcDbEntity
  8
DIM
100
AcDbLine
 10
3742.486866410982
 20
774.7830775023086
 30
0.0
 11
3695.486866410981
 21
774.7830775023086
 31
0.0
  0
LINE
  5
ECA
330
1BF6
100
AcDbEntity
  8
OUTLINE
100
AcDbLine
 10
3728.986866410981
 20
693.7830775023088
 30
0.0
 11
3708.98686641098
 21
693.7830775023088
 31
0.0
  0
LINE
  5
ECB
330
1BF6
100
AcDbEntity
  8
DIM
100
AcDbLine
 10
3706.986866410981
 20
700.7830775023088
 30
0.0
 11
3708.98686641098
 21
693.7830775023088
 31
0.0
  0
LINE
  5
ECC
330
1BF6
100
AcDbEntity
  8
DIM
100
AcDbLine
 10
3730.986866410982
 20
700.7830775023088
 30
0.0
 11
3728.986866410981
 21
693.7830775023088
 31
0.0
  0
LINE
  5
ECD
330
1BF6
100
AcDbEntity
  8
OUTLINE
100
AcDbLine
 10
3737.786866410987
 20
700.7830775023086
 30
0.0
 11
3737.786866411
 21
461.7830775023086
 31
0.0
  0
LINE
  5
ECE
330
1BF6
100
AcDbEntity
  8
DIM
100
AcDbLine
 10
3205.586866410982
 20
703.2830775023088
 30
0.0
 11
3247.586866410985
 21
703.2830775023088
 31
0.0
  0
LINE
  5
ECF
330
1BF6
100
AcDbEntity
  8
OUTLINE
100
AcDbLine
 10
3205.586866410982
 20
774.7830775023086
 30
0.0
 11
3205.586866410982
 21
703.2830775023088
 31
0.0
  0
LINE
  5
ED0
330
1BF6
100
AcDbEntity
  8
OUTLINE
100
AcDbLine
 10
3247.586866410985
 20
774.7830775023093
 30
0.0
 11
3247.586866410985
 21
703.2830775023088
 31
0.0
  0
LINE
  5
ED1
330
1BF6
100
AcDbEntity
  8
OUTLINE
100
AcDbLine
 10
3697.986866410982
 20
774.7830775023093
 30
0.0
 11
3697.986866410979
 21
703.2830775023085
 31
0.0
  0
LINE
  5
ED2
330
1BF6
100
AcDbEntity
  8
DIM
100
AcDbLine
 10
3739.98686641098
 20
703.2830775023085
 30
0.0
 11
3697.986866410979
 21
703.2830775023085
 31
0.0
  0
LINE
  5
ED3
330
1BF6
100
AcDbEntity
  8
OUTLINE
100
AcDbLine
 10
3739.986866410981
 20
774.7830775023086
 30
0.0
 11
3739.98686641098
 21
703.2830775023085
 31
0.0
  0
LINE
  5
ED4
330
1BF6
100
AcDbEntity
  8
DIM
100
AcDbLine
 10
3697.986866410979
 20
712.7830775023086
 30
0.0
 11
3695.486866410982
 21
712.7830775023086
 31
0.0
  0
LINE
  5
ED5
330
1BF6
100
AcDbEntity
  8
DIM
100
AcDbLine
 10
3203.086866410983
 20
712.7830775023088
 30
0.0
 11
3205.586866410982
 21
712.7830775023088
 31
0.0
  0
LINE
  5
ED6
330
1BF6
100
AcDbEntity
  8
DIM
100
AcDbLine
 10
3247.586866410985
 20
712.7830775023088
 30
0.0
 11
3250.086866410985
 21
712.7830775023088
 31
0.0
  0
LINE
  5
EEF
330
1BF6
100
AcDbEntity
  8
OUTLINE
100
AcDbLine
 10
3758.586866410981
 20
489.7830775023087
 30
0.0
 11
3758.586866410983
 21
481.7830775023066
 31
0.0
  0
LINE
  5
EF0
330
1BF6
100
AcDbEntity
  8
DIM
100
AcDbLine
 10
3207.786866410981
 20
474.7830775023087
 30
0.0
 11
3737.786866411
 21
474.7830775023086
 31
0.0
  0
LINE
  5
EF1
330
1BF6
100
AcDbEntity
  8
DIM
100
AcDbLine
 10
3207.786866410981
 20
461.7830775023087
 30
0.0
 11
3737.786866411
 21
461.7830775023086
 31
0.0
  0
LINE
  5
EF2
330
1BF6
100
AcDbEntity
  8
OUTLINE
100
AcDbLine
 10
3186.986866410983
 20
489.7830775023087
 30
0.0
 11
3186.986866410981
 21
481.7830775023066
 31
0.0
  0
LINE
  5
F0B
330
1BF6
100
AcDbEntity
  8
OUTLINE
100
AcDbLine
 10
3789.786866410982
 20
782.7830775023086
 30
0.0
 11
3737.786866410983
 21
782.7830775023086
 31
0.0
  0
LINE
  5
F0C
330
1BF6
100
AcDbEntity
  8
OUTLINE
100
AcDbLine
 10
3789.786866410997
 20
526.1830775023087
 30
0.0
 11
3737.786866410997
 21
526.1830775023087
 31
0.0
  0
LINE
  5
F0D
330
1BF6
100
AcDbEntity
  8
OUTLINE
100
AcDbLine
 10
3789.786866410982
 20
782.7830775023086
 30
0.0
 11
3789.786866410997
 21
526.1830775023087
 31
0.0
  0
LINE
  5
F44
330
1BF6
100
AcDbEntity
  8
DIM
100
AcDbLine
 10
1872.076394255877
 20
688.7830775023088
 30
0.0
 11
1872.076394255877
 21
705.7830775023088
 31
0.0
  0
LINE
  5
F47
330
1BF6
100
AcDbEntity
  8
DIM
100
AcDbLine
 10
2771.676394255877
 20
688.7830775023088
 30
0.0
 11
2771.676394255877
 21
705.7830775023088
 31
0.0
  0
LINE
  5
F48
330
1BF6
100
AcDbEntity
  8
DIM
100
AcDbLine
 10
3226.586866410984
 20
688.7830775023088
 30
0.0
 11
3226.586866410984
 21
705.7830775023088
 31
0.0
  0
LINE
  5
F49
330
1BF6
100
AcDbEntity
  8
DIM
100
AcDbLine
 10
3718.986866410982
 20
688.7830775023088
 30
0.0
 11
3718.986866410982
 21
705.7830775023088
 31
0.0
  0
TEXT
  5
F62
330
1BF6
100
AcDbEntity
  8
TEXT
 62
     7
100
AcDbText
 10
2067.873964433214
 20
618.320859072014
 30
0.0
 40
50.0
  1
HWP47Y
  7
TITLE3
100
AcDbText
  0
TEXT
  5
F63
330
1BF6
100
AcDbEntity
  8
TEXT
 62
     7
100
AcDbText
 10
3343.34299587934
 20
557.893393475633
 30
0.0
 40
50.0
  1
HWP47Y
  7
TITLE3
100
AcDbText
  0
LINE
  5
F64
330
1BF6
100
AcDbEntity
  8
DIM
100
AcDbLine
 10
3656.036721289345
 20
654.4830775023092
 30
0.0
 11
3687.372775617555
 21
635.4324132678657
 31
0.0
  0
LINE
  5
F65
330
1BF6
100
AcDbEntity
  8
DIM
100
AcDbLine
 10
3656.036721289345
 20
654.4830775023092
 30
0.0
 11
3687.372775617555
 21
673.5337417367483
 31
0.0
  0
LINE
  5
F66
330
1BF6
100
AcDbEntity
  8
DIM
100
AcDbLine
 10
3724.030044089253
 20
647.2650683036207
 30
0.0
 11
3724.030044089253
 21
661.7010867009968
 31
0.0
  0
LINE
  5
F67
330
1BF6
100
AcDbEntity
  8
DIM
100
AcDbLine
 10
3687.372775617555
 20
647.2650683036207
 30
0.0
 11
3724.030044089253
 21
647.2650683036207
 31
0.0
  0
LINE
  5
F68
330
1BF6
100
AcDbEntity
  8
DIM
100
AcDbLine
 10
3687.372775617555
 20
635.4324132678657
 30
0.0
 11
3687.372775617555
 21
647.2650683036207
 31
0.0
  0
LINE
  5
F69
330
1BF6
100
AcDbEntity
  8
DIM
100
AcDbLine
 10
3687.372775617555
 20
661.7010867009968
 30
0.0
 11
3724.030044089253
 21
661.7010867009968
 31
0.0
  0
LINE
  5
F6A
330
1BF6
100
AcDbEntity
  8
DIM
100
AcDbLine
 10
3687.372775617555
 20
673.5337417367483
 30
0.0
 11
3687.372775617555
 21
661.7010867009968
 31
0.0
  0
LINE
  5
F6D
330
1BF6
100
AcDbEntity
  8
DIM
100
AcDbLine
 10
3216.989053866622
 20
644.2830775023086
 30
0.0
 11
3248.325108194832
 21
625.2324132678651
 31
0.0
  0
LINE
  5
F6E
330
1BF6
100
AcDbEntity
  8
DIM
100
AcDbLine
 10
3216.989053866622
 20
644.2830775023086
 30
0.0
 11
3248.325108194832
 21
663.3337417367473
 31
0.0
  0
LINE
  5
F6F
330
1BF6
100
AcDbEntity
  8
DIM
100
AcDbLine
 10
3284.98237666653
 20
637.0650683036203
 30
0.0
 11
3284.98237666653
 21
651.501086700996
 31
0.0
  0
LINE
  5
F70
330
1BF6
100
AcDbEntity
  8
DIM
100
AcDbLine
 10
3248.325108194832
 20
637.0650683036203
 30
0.0
 11
3284.98237666653
 21
637.0650683036203
 31
0.0
  0
LINE
  5
F71
330
1BF6
100
AcDbEntity
  8
DIM
100
AcDbLine
 10
3248.325108194832
 20
625.2324132678651
 30
0.0
 11
3248.325108194832
 21
637.0650683036203
 31
0.0
  0
LINE
  5
F72
330
1BF6
100
AcDbEntity
  8
DIM
100
AcDbLine
 10
3248.325108194832
 20
651.501086700996
 30
0.0
 11
3284.98237666653
 21
651.501086700996
 31
0.0
  0
LINE
  5
F73
330
1BF6
100
AcDbEntity
  8
DIM
100
AcDbLine
 10
3248.325108194832
 20
663.3337417367473
 30
0.0
 11
3248.325108194832
 21
651.501086700996
 31
0.0
  0
LINE
  5
F93
330
1BF6
100
AcDbEntity
  8
OUTLINE
100
AcDbLine
 10
2723.676394255877
 20
1369.990735559124
 30
0.0
 11
2789.676394255878
 21
1369.990735559124
 31
0.0
  0
LINE
  5
F94
330
1BF6
100
AcDbEntity
  8
OUTLINE
100
AcDbLine
 10
2723.676394255877
 20
1372.490735559124
 30
0.0
 11
2789.676394255878
 21
1372.490735559124
 31
0.0
  0
LINE
  5
F95
330
1BF6
100
AcDbEntity
  8
OUTLINE
100
AcDbLine
 10
2744.676394255877
 20
1416.990735559124
 30
0.0
 11
2789.676394255878
 21
1416.990735559125
 31
0.0
  0
LINE
  5
F96
330
1BF6
100
AcDbEntity
  8
OUTLINE
100
AcDbLine
 10
2744.676394255877
 20
1414.490735559124
 30
0.0
 11
2789.676394255878
 21
1414.490735559124
 31
0.0
  0
LINE
  5
FC3
330
1BF6
100
AcDbEntity
  8
DIM
100
AcDbLine
 10
1899.076394255876
 20
1374.690735559124
 30
0.0
 11
1899.076394255876
 21
1904.690735559123
 31
0.0
  0
LINE
  5
FC4
330
1BF6
100
AcDbEntity
  8
DIM
100
AcDbLine
 10
2744.676394255877
 20
1374.690735559124
 30
0.0
 11
2744.67639425588
 21
1904.690735559123
 31
0.0
  0
LINE
  5
FC5
330
1BF6
100
AcDbEntity
  8
DIM
100
AcDbLine
 10
2723.676394255877
 20
1925.490735559123
 30
0.0
 11
1920.076394255877
 21
1925.490735559123
 31
0.0
  0
LINE
  5
FC6
330
1BF6
100
AcDbEntity
  8
DIM
100
AcDbLine
 10
2723.676394255877
 20
1353.890735559123
 30
0.0
 11
1920.076394255877
 21
1353.890735559123
 31
0.0
  0
LINE
  5
FC7
330
1BF6
100
AcDbEntity
  8
DIM
100
AcDbLine
 10
1920.076394255877
 20
1353.890735559123
 30
0.0
 11
1920.076394255877
 21
1925.490735559123
 31
0.0
  0
LINE
  5
FC8
330
1BF6
100
AcDbEntity
  8
DIM
100
AcDbLine
 10
2723.676394255877
 20
1353.890735559123
 30
0.0
 11
2723.676394255877
 21
1925.490735559123
 31
0.0
  0
LINE
  5
FC9
330
1BF6
100
AcDbEntity
  8
DIM
100
AcDbLine
 10
2744.67639425588
 20
1904.690735559123
 30
0.0
 11
1899.076394255876
 21
1904.690735559123
 31
0.0
  0
LINE
  5
FCA
330
1BF6
100
AcDbEntity
  8
DIM
100
AcDbLine
 10
2744.676394255877
 20
1374.690735559124
 30
0.0
 11
1899.076394255876
 21
1374.690735559124
 31
0.0
  0
LINE
  5
FCB
330
1BF6
100
AcDbEntity
  8
OUTLINE
100
AcDbLine
 10
1939.076394255877
 20
1956.690735559121
 30
0.0
 11
2416.476394255877
 21
1956.690735559148
 31
0.0
  0
LINE
  5
FCC
330
1BF6
100
AcDbEntity
  8
OUTLINE
100
AcDbLine
 10
1951.076394255877
 20
1353.890735559124
 30
0.0
 11
1951.076394255877
 21
1232.770735559124
 31
0.0
  0
LINE
  5
FCD
330
1BF6
100
AcDbEntity
  8
OUTLINE
100
AcDbLine
 10
2428.076394255878
 20
1353.890735559123
 30
0.0
 11
2428.076394255878
 21
1232.770735559125
 31
0.0
  0
LINE
  5
FCE
330
1BF6
100
AcDbEntity
  8
OUTLINE
100
AcDbLine
 10
1951.076394255877
 20
1232.770735559124
 30
0.0
 11
2428.076394255878
 21
1232.770735559125
 31
0.0
  0
LINE
  5
FEA
330
1BF6
100
AcDbEntity
  8
DIM
100
AcDbLine
 10
1939.076394255877
 20
1925.490735559123
 30
0.0
 11
1939.076394255877
 21
1956.690735559121
 31
0.0
  0
LINE
  5
FEB
330
1BF6
100
AcDbEntity
  8
DIM
100
AcDbLine
 10
2416.476394255878
 20
1925.490735559128
 30
0.0
 11
2416.476394255877
 21
1956.690735559148
 31
0.0
  0
LINE
  5
FED
330
1BF6
100
AcDbEntity
  8
OUTLINE
100
AcDbLine
 10
3242.786866410984
 20
816.7830775023086
 30
0.0
 11
3242.786866410984
 21
806.7830775023086
 31
0.0
  0
LINE
  5
FEE
330
1BF6
100
AcDbEntity
  8
OUTLINE
100
AcDbLine
 10
3702.786866410981
 20
816.7830775023086
 30
0.0
 11
3702.786866410981
 21
806.7830775023088
 31
0.0
  0
ARC
  5
FF6
330
1BF6
100
AcDbEntity
  8
DIM
100
AcDbCircle
 10
1910.076394255876
 20
1874.940735559123
 30
0.0
 40
4.75
100
AcDbArc
 50
0.0
 51
180.0
  0
ARC
  5
FF7
330
1BF6
100
AcDbEntity
  8
DIM
100
AcDbCircle
 10
1910.076394255876
 20
1864.440735559123
 30
0.0
 40
4.75
100
AcDbArc
 50
180.0
 51
0.0
  0
LINE
  5
FF8
330
1BF6
100
AcDbEntity
  8
DIM
100
AcDbLine
 10
1905.326394255877
 20
1874.940735559123
 30
0.0
 11
1905.326394255877
 21
1864.440735559123
 31
0.0
  0
LINE
  5
FF9
330
1BF6
100
AcDbEntity
  8
DIM
100
AcDbLine
 10
1914.826394255876
 20
1874.940735559123
 30
0.0
 11
1914.826394255876
 21
1864.440735559123
 31
0.0
  0
ARC
  5
FFA
330
1BF6
100
AcDbEntity
  8
DIM
100
AcDbCircle
 10
1910.076394255876
 20
1414.940735559124
 30
0.0
 40
4.75
100
AcDbArc
 50
0.0
 51
180.0
  0
ARC
  5
FFB
330
1BF6
100
AcDbEntity
  8
DIM
100
AcDbCircle
 10
1910.076394255876
 20
1404.440735559124
 30
0.0
 40
4.75
100
AcDbArc
 50
180.0
 51
0.0
  0
LINE
  5
FFC
330
1BF6
100
AcDbEntity
  8
DIM
100
AcDbLine
 10
1905.326394255877
 20
1414.940735559124
 30
0.0
 11
1905.326394255877
 21
1404.440735559124
 31
0.0
  0
LINE
  5
FFD
330
1BF6
100
AcDbEntity
  8
DIM
100
AcDbLine
 10
1914.826394255876
 20
1414.940735559124
 30
0.0
 11
1914.826394255876
 21
1404.440735559124
 31
0.0
  0
ARC
  5
FFE
330
1BF6
100
AcDbEntity
  8
DIM
100
AcDbCircle
 10
2733.676394255879
 20
1874.940735559123
 30
0.0
 40
4.75
100
AcDbArc
 50
0.0
 51
180.0
  0
ARC
  5
FFF
330
1BF6
100
AcDbEntity
  8
DIM
100
AcDbCircle
 10
2733.676394255879
 20
1864.440735559123
 30
0.0
 40
4.75
100
AcDbArc
 50
180.0
 51
0.0
  0
LINE
  5
1000
330
1BF6
100
AcDbEntity
  8
DIM
100
AcDbLine
 10
2738.426394255879
 20
1874.940735559123
 30
0.0
 11
2738.426394255879
 21
1864.440735559123
 31
0.0
  0
LINE
  5
1001
330
1BF6
100
AcDbEntity
  8
DIM
100
AcDbLine
 10
2728.926394255877
 20
1874.940735559123
 30
0.0
 11
2728.926394255877
 21
1864.440735559123
 31
0.0
  0
ARC
  5
1002
330
1BF6
100
AcDbEntity
  8
DIM
100
AcDbCircle
 10
2733.676394255879
 20
1414.940735559124
 30
0.0
 40
4.75
100
AcDbArc
 50
0.0
 51
180.0
  0
ARC
  5
1003
330
1BF6
100
AcDbEntity
  8
DIM
100
AcDbCircle
 10
2733.676394255879
 20
1404.440735559124
 30
0.0
 40
4.75
100
AcDbArc
 50
180.0
 51
0.0
  0
LINE
  5
1004
330
1BF6
100
AcDbEntity
  8
DIM
100
AcDbLine
 10
2738.426394255879
 20
1414.940735559124
 30
0.0
 11
2738.426394255879
 21
1404.440735559124
 31
0.0
  0
LINE
  5
1005
330
1BF6
100
AcDbEntity
  8
DIM
100
AcDbLine
 10
2728.926394255877
 20
1414.940735559124
 30
0.0
 11
2728.926394255877
 21
1404.440735559124
 31
0.0
  0
LINE
  5
101E
330
1BF6
100
AcDbEntity
  8
DIM
100
AcDbLine
 10
2789.676394255878
 20
1369.990735559124
 30
0.0
 11
2789.676394255878
 21
1416.990735559125
 31
0.0
  0
CIRCLE
  5
1021
330
1BF6
100
AcDbEntity
  8
DIM
100
AcDbCircle
 10
2771.676394255877
 20
1393.490735559124
 30
0.0
 40
12.0
  0
CIRCLE
  5
1022
330
1BF6
100
AcDbEntity
  8
DIM
100
AcDbCircle
 10
2771.676394255877
 20
1393.490735559124
 30
0.0
 40
10.0
  0
LINE
  5
1023
330
1BF6
100
AcDbEntity
  8
OUTLINE
100
AcDbLine
 10
1920.076394255876
 20
1369.990735559124
 30
0.0
 11
1854.076394255876
 21
1369.990735559124
 31
0.0
  0
LINE
  5
1024
330
1BF6
100
AcDbEntity
  8
OUTLINE
100
AcDbLine
 10
1920.076394255877
 20
1372.490735559124
 30
0.0
 11
1854.076394255877
 21
1372.490735559124
 31
0.0
  0
LINE
  5
1025
330
1BF6
100
AcDbEntity
  8
OUTLINE
100
AcDbLine
 10
1899.076394255876
 20
1416.990735559124
 30
0.0
 11
1854.076394255877
 21
1416.990735559125
 31
0.0
  0
LINE
  5
1026
330
1BF6
100
AcDbEntity
  8
OUTLINE
100
AcDbLine
 10
1899.076394255876
 20
1414.490735559124
 30
0.0
 11
1854.076394255876
 21
1414.490735559124
 31
0.0
  0
LINE
  5
1027
330
1BF6
100
AcDbEntity
  8
DIM
100
AcDbLine
 10
1854.076394255877
 20
1369.990735559124
 30
0.0
 11
1854.076394255877
 21
1416.990735559125
 31
0.0
  0
CIRCLE
  5
1028
330
1BF6
100
AcDbEntity
  8
DIM
100
AcDbCircle
 10
1872.076394255877
 20
1393.490735559124
 30
0.0
 40
12.0
  0
CIRCLE
  5
1029
330
1BF6
100
AcDbEntity
  8
DIM
100
AcDbCircle
 10
1872.076394255877
 20
1393.490735559124
 30
0.0
 40
10.0
  0
LINE
  5
102A
330
1BF6
100
AcDbEntity
  8
OUTLINE
100
AcDbLine
 10
2723.676394255877
 20
1909.390735559123
 30
0.0
 11
2789.676394255878
 21
1909.390735559122
 31
0.0
  0
LINE
  5
102B
330
1BF6
100
AcDbEntity
  8
OUTLINE
100
AcDbLine
 10
2723.676394255877
 20
1906.890735559123
 30
0.0
 11
2789.676394255878
 21
1906.890735559122
 31
0.0
  0
LINE
  5
102C
330
1BF6
100
AcDbEntity
  8
OUTLINE
100
AcDbLine
 10
2744.676394255877
 20
1862.390735559122
 30
0.0
 11
2789.676394255878
 21
1862.390735559122
 31
0.0
  0
LINE
  5
102D
330
1BF6
100
AcDbEntity
  8
OUTLINE
100
AcDbLine
 10
2744.676394255877
 20
1864.890735559122
 30
0.0
 11
2789.676394255878
 21
1864.890735559122
 31
0.0
  0
LINE
  5
102E
330
1BF6
100
AcDbEntity
  8
DIM
100
AcDbLine
 10
2789.676394255878
 20
1909.390735559122
 30
0.0
 11
2789.676394255878
 21
1862.390735559122
 31
0.0
  0
CIRCLE
  5
102F
330
1BF6
100
AcDbEntity
  8
DIM
100
AcDbCircle
 10
2771.676394255877
 20
1885.890735559122
 30
0.0
 40
12.0
  0
CIRCLE
  5
1030
330
1BF6
100
AcDbEntity
  8
DIM
100
AcDbCircle
 10
2771.676394255877
 20
1885.890735559122
 30
0.0
 40
10.0
  0
LINE
  5
1031
330
1BF6
100
AcDbEntity
  8
OUTLINE
100
AcDbLine
 10
1920.076394255876
 20
1909.390735559123
 30
0.0
 11
1854.076394255876
 21
1909.390735559122
 31
0.0
  0
LINE
  5
1032
330
1BF6
100
AcDbEntity
  8
OUTLINE
100
AcDbLine
 10
1920.076394255877
 20
1906.890735559123
 30
0.0
 11
1854.076394255877
 21
1906.890735559122
 31
0.0
  0
LINE
  5
1033
330
1BF6
100
AcDbEntity
  8
OUTLINE
100
AcDbLine
 10
1899.076394255876
 20
1862.390735559122
 30
0.0
 11
1854.076394255877
 21
1862.390735559122
 31
0.0
  0
LINE
  5
1034
330
1BF6
100
AcDbEntity
  8
OUTLINE
100
AcDbLine
 10
1899.076394255876
 20
1864.890735559122
 30
0.0
 11
1854.076394255876
 21
1864.890735559122
 31
0.0
  0
LINE
  5
1035
330
1BF6
100
AcDbEntity
  8
DIM
100
AcDbLine
 10
1854.076394255877
 20
1909.390735559122
 30
0.0
 11
1854.076394255877
 21
1862.390735559122
 31
0.0
  0
CIRCLE
  5
1036
330
1BF6
100
AcDbEntity
  8
DIM
100
AcDbCircle
 10
1872.076394255877
 20
1885.890735559122
 30
0.0
 40
12.0
  0
CIRCLE
  5
1037
330
1BF6
100
AcDbEntity
  8
DIM
100
AcDbCircle
 10
1872.076394255877
 20
1885.890735559122
 30
0.0
 40
10.0
  0
TEXT
  5
1038
330
1BF6
100
AcDbEntity
  8
TEXT
 62
     7
100
AcDbText
 10
2067.873964433214
 20
1615.107649685021
 30
0.0
 40
50.0
  1
HWP47Y
  7
TITLE3
100
AcDbText
  0
LINE
  5
1051
330
1BF6
100
AcDbEntity
  8
DIM
100
AcDbLine
 10
2177.776394255877
 20
1814.060005678701
 30
0.0
 11
2196.82705849032
 21
1845.396060006912
 31
0.0
  0
LINE
  5
1052
330
1BF6
100
AcDbEntity
  8
DIM
100
AcDbLine
 10
2177.776394255877
 20
1814.060005678701
 30
0.0
 11
2158.725730021437
 21
1845.396060006912
 31
0.0
  0
LINE
  5
1053
330
1BF6
100
AcDbEntity
  8
DIM
100
AcDbLine
 10
2184.994403454565
 20
1882.05332847861
 30
0.0
 11
2170.558385057189
 21
1882.05332847861
 31
0.0
  0
LINE
  5
1054
330
1BF6
100
AcDbEntity
  8
DIM
100
AcDbLine
 10
2184.994403454565
 20
1845.396060006912
 30
0.0
 11
2184.994403454565
 21
1882.05332847861
 31
0.0
  0
LINE
  5
1055
330
1BF6
100
AcDbEntity
  8
DIM
100
AcDbLine
 10
2196.82705849032
 20
1845.396060006912
 30
0.0
 11
2184.994403454565
 21
1845.396060006912
 31
0.0
  0
LINE
  5
1056
330
1BF6
100
AcDbEntity
  8
DIM
100
AcDbLine
 10
2170.558385057189
 20
1845.396060006912
 30
0.0
 11
2170.558385057189
 21
1882.05332847861
 31
0.0
  0
LINE
  5
1057
330
1BF6
100
AcDbEntity
  8
DIM
100
AcDbLine
 10
2158.725730021437
 20
1845.396060006912
 30
0.0
 11
2170.558385057189
 21
1845.396060006912
 31
0.0
  0
LINE
  5
1058
330
1BF6
100
AcDbEntity
  8
DIM
100
AcDbLine
 10
2189.576394255877
 20
1394.90634538479
 30
0.0
 11
2208.62705849032
 21
1426.242399713001
 31
0.0
  0
LINE
  5
1059
330
1BF6
100
AcDbEntity
  8
DIM
100
AcDbLine
 10
2189.576394255877
 20
1394.90634538479
 30
0.0
 11
2170.525730021438
 21
1426.242399713001
 31
0.0
  0
LINE
  5
105A
330
1BF6
100
AcDbEntity
  8
DIM
100
AcDbLine
 10
2196.794403454565
 20
1462.899668184699
 30
0.0
 11
2182.358385057189
 21
1462.899668184699
 31
0.0
  0
LINE
  5
105B
330
1BF6
100
AcDbEntity
  8
DIM
100
AcDbLine
 10
2196.794403454565
 20
1426.242399713001
 30
0.0
 11
2196.794403454565
 21
1462.899668184699
 31
0.0
  0
LINE
  5
105C
330
1BF6
100
AcDbEntity
  8
DIM
100
AcDbLine
 10
2208.62705849032
 20
1426.242399713001
 30
0.0
 11
2196.794403454565
 21
1426.242399713001
 31
0.0
  0
LINE
  5
105D
330
1BF6
100
AcDbEntity
  8
DIM
100
AcDbLine
 10
2182.358385057189
 20
1426.242399713001
 30
0.0
 11
2182.358385057189
 21
1462.899668184699
 31
0.0
  0
LINE
  5
105E
330
1BF6
100
AcDbEntity
  8
DIM
100
AcDbLine
 10
2170.525730021438
 20
1426.242399713001
 30
0.0
 11
2182.358385057189
 21
1426.242399713001
 31
0.0
  0
LINE
  5
1079
330
1BF6
100
AcDbEntity
  8
DIM
100
AcDbLine
 10
1940.076394255877
 20
1147.65027609101
 30
0.0
 11
2072.576394255877
 21
1147.65027609101
 31
0.0
  0
LINE
  5
107A
330
1BF6
100
AcDbEntity
  8
DIM
100
AcDbLine
 10
2703.676394255879
 20
1147.65027609101
 30
0.0
 11
2571.176394255879
 21
1147.65027609101
 31
0.0
  0
SOLID
  5
107B
330
1BF6
100
AcDbEntity
  8
DIM
100
AcDbTrace
 10
1940.076394255877
 20
1152.65027609101
 30
0.0
 11
1940.076394255877
 21
1142.650276091011
 31
0.0
 12
1910.076394255876
 22
1147.65027609101
 32
0.0
 13
1910.076394255876
 23
1147.65027609101
 33
0.0
  0
SOLID
  5
107C
330
1BF6
100
AcDbEntity
  8
DIM
100
AcDbTrace
 10
2703.676394255879
 20
1152.65027609101
 30
0.0
 11
2703.676394255879
 21
1142.650276091011
 31
0.0
 12
2733.676394255879
 22
1147.65027609101
 32
0.0
 13
2733.676394255879
 23
1147.65027609101
 33
0.0
  0
LINE
  5
107E
330
1BF6
100
AcDbEntity
  8
DIM
100
AcDbLine
 10
1872.076394255877
 20
1373.490735559124
 30
0.0
 11
1872.076394255877
 21
1065.627356150924
 31
0.0
  0
LINE
  5
107F
330
1BF6
100
AcDbEntity
  8
DIM
100
AcDbLine
 10
2771.676394255877
 20
1373.490735559124
 30
0.0
 11
2771.676394255877
 21
1065.627356150924
 31
0.0
  0
LINE
  5
1080
330
1BF6
100
AcDbEntity
  8
DIM
100
AcDbLine
 10
1842.076394255877
 20
1085.627356150925
 30
0.0
 11
1812.076394255877
 21
1085.627356150925
 31
0.0
  0
LINE
  5
1081
330
1BF6
100
AcDbEntity
  8
DIM
100
AcDbLine
 10
2801.676394255878
 20
1085.627356150925
 30
0.0
 11
2831.676394255877
 21
1085.627356150925
 31
0.0
  0
SOLID
  5
1082
330
1BF6
100
AcDbEntity
  8
DIM
100
AcDbTrace
 10
1842.076394255877
 20
1090.627356150924
 30
0.0
 11
1842.076394255877
 21
1080.627356150924
 31
0.0
 12
1872.076394255877
 22
1085.627356150925
 32
0.0
 13
1872.076394255877
 23
1085.627356150925
 33
0.0
  0
SOLID
  5
1083
330
1BF6
100
AcDbEntity
  8
DIM
100
AcDbTrace
 10
2801.676394255878
 20
1090.627356150924
 30
0.0
 11
2801.676394255878
 21
1080.627356150924
 31
0.0
 12
2771.676394255877
 22
1085.627356150925
 32
0.0
 13
2771.676394255877
 23
1085.627356150925
 33
0.0
  0
INSERT
  5
1084
330
1BF6
100
AcDbEntity
  8
DIM
100
AcDbBlockReference
  2
*U5
 10
0.0
 20
-36.11547318521934
 30
0.0
  0
LINE
  5
1085
330
1BF6
100
AcDbEntity
  8
DIM
100
AcDbLine
 10
1939.076394255877
 20
1986.69073555912
 30
0.0
 11
1939.076394255877
 21
2018.823848306443
 31
0.0
  0
LINE
  5
1086
330
1BF6
100
AcDbEntity
  8
DIM
100
AcDbLine
 10
1899.076394255876
 20
1924.690735559122
 30
0.0
 11
1899.076394255876
 21
2018.823848306443
 31
0.0
  0
LINE
  5
1087
330
1BF6
100
AcDbEntity
  8
DIM
100
AcDbLine
 10
1969.076394255877
 20
1998.823848306443
 30
0.0
 11
1999.076394255877
 21
1998.823848306443
 31
0.0
  0
LINE
  5
1088
330
1BF6
100
AcDbEntity
  8
DIM
100
AcDbLine
 10
1869.076394255877
 20
1998.823848306443
 30
0.0
 11
1839.076394255877
 21
1998.823848306443
 31
0.0
  0
SOLID
  5
1089
330
1BF6
100
AcDbEntity
  8
DIM
100
AcDbTrace
 10
1969.076394255877
 20
2003.823848306443
 30
0.0
 11
1969.076394255877
 21
1993.823848306443
 31
0.0
 12
1939.076394255877
 22
1998.823848306443
 32
0.0
 13
1939.076394255877
 23
1998.823848306443
 33
0.0
  0
SOLID
  5
108A
330
1BF6
100
AcDbEntity
  8
DIM
100
AcDbTrace
 10
1869.076394255877
 20
2003.823848306443
 30
0.0
 11
1869.076394255877
 21
1993.823848306443
 31
0.0
 12
1899.076394255876
 22
1998.823848306443
 32
0.0
 13
1899.076394255876
 23
1998.823848306443
 33
0.0
  0
INSERT
  5
108B
330
1BF6
100
AcDbEntity
  8
DIM
100
AcDbBlockReference
  2
*U6
 10
0.0
 20
14.11879758871964
 30
0.0
  0
LINE
  5
108C
330
1BF6
100
AcDbEntity
  8
DIM
100
AcDbLine
 10
1939.076394255877
 20
1976.690735559122
 30
0.0
 11
1939.076394255877
 21
2018.578120686029
 31
0.0
  0
LINE
  5
108D
330
1BF6
100
AcDbEntity
  8
DIM
100
AcDbLine
 10
2416.476394255876
 20
1976.69073555912
 30
0.0
 11
2416.476394255877
 21
2018.578120686029
 31
0.0
  0
LINE
  5
108E
330
1BF6
100
AcDbEntity
  8
DIM
100
AcDbLine
 10
1969.076394255877
 20
1998.578120686029
 30
0.0
 11
2117.776394255877
 21
1998.578120686029
 31
0.0
  0
LINE
  5
108F
330
1BF6
100
AcDbEntity
  8
DIM
100
AcDbLine
 10
2386.476394255877
 20
1998.578120686029
 30
0.0
 11
2237.776394255877
 21
1998.578120686029
 31
0.0
  0
SOLID
  5
1090
330
1BF6
100
AcDbEntity
  8
DIM
100
AcDbTrace
 10
1969.076394255877
 20
2003.578120686029
 30
0.0
 11
1969.076394255877
 21
1993.578120686029
 31
0.0
 12
1939.076394255877
 22
1998.578120686029
 32
0.0
 13
1939.076394255877
 23
1998.578120686029
 33
0.0
  0
SOLID
  5
1091
330
1BF6
100
AcDbEntity
  8
DIM
100
AcDbTrace
 10
2386.476394255877
 20
2003.578120686029
 30
0.0
 11
2386.476394255877
 21
1993.578120686029
 31
0.0
 12
2416.476394255877
 22
1998.578120686029
 32
0.0
 13
2416.476394255877
 23
1998.578120686029
 33
0.0
  0
INSERT
  5
1092
330
1BF6
100
AcDbEntity
  8
DIM
100
AcDbBlockReference
  2
*U7
 10
0.0
 20
14.11879758871964
 30
0.0
  0
LINE
  5
1093
330
1BF6
100
AcDbEntity
  8
DIM
100
AcDbLine
 10
1951.076394255877
 20
792.7830775023086
 30
0.0
 11
1951.076394255877
 21
874.620606874023
 31
0.0
  0
LINE
  5
1094
330
1BF6
100
AcDbEntity
  8
DIM
100
AcDbLine
 10
1899.076394255876
 20
831.7830775023088
 30
0.0
 11
1899.076394255876
 21
874.620606874023
 31
0.0
  0
LINE
  5
1095
330
1BF6
100
AcDbEntity
  8
DIM
100
AcDbLine
 10
1981.076394255877
 20
854.6206068740231
 30
0.0
 11
2011.076394255877
 21
854.6206068740231
 31
0.0
  0
LINE
  5
1096
330
1BF6
100
AcDbEntity
  8
DIM
100
AcDbLine
 10
1869.076394255877
 20
854.6206068740231
 30
0.0
 11
1839.076394255877
 21
854.6206068740231
 31
0.0
  0
SOLID
  5
1097
330
1BF6
100
AcDbEntity
  8
DIM
100
AcDbTrace
 10
1981.076394255877
 20
859.6206068740226
 30
0.0
 11
1981.076394255877
 21
849.620606874023
 31
0.0
 12
1951.076394255877
 22
854.6206068740231
 32
0.0
 13
1951.076394255877
 23
854.6206068740231
 33
0.0
  0
SOLID
  5
1098
330
1BF6
100
AcDbEntity
  8
DIM
100
AcDbTrace
 10
1869.076394255877
 20
859.6206068740226
 30
0.0
 11
1869.076394255877
 21
849.620606874023
 31
0.0
 12
1899.076394255876
 22
854.6206068740231
 32
0.0
 13
1899.076394255876
 23
854.6206068740231
 33
0.0
  0
INSERT
  5
1099
330
1BF6
100
AcDbEntity
  8
DIM
100
AcDbBlockReference
  2
*U8
 10
0.0
 20
0.0
 30
0.0
  0
LINE
  5
109A
330
1BF6
100
AcDbEntity
  8
DIM
100
AcDbLine
 10
1951.076394255877
 20
792.7830775023086
 30
0.0
 11
1951.076394255877
 21
874.5387797319162
 31
0.0
  0
LINE
  5
109B
330
1BF6
100
AcDbEntity
  8
DIM
100
AcDbLine
 10
2428.076394255877
 20
792.7830775023084
 30
0.0
 11
2428.076394255877
 21
874.5387797319162
 31
0.0
  0
LINE
  5
109C
330
1BF6
100
AcDbEntity
  8
DIM
100
AcDbLine
 10
1981.076394255877
 20
854.5387797319163
 30
0.0
 11
2129.576394255877
 21
854.5387797319163
 31
0.0
  0
LINE
  5
109D
330
1BF6
100
AcDbEntity
  8
DIM
100
AcDbLine
 10
2398.076394255877
 20
854.5387797319163
 30
0.0
 11
2249.576394255877
 21
854.5387797319163
 31
0.0
  0
SOLID
  5
109E
330
1BF6
100
AcDbEntity
  8
DIM
100
AcDbTrace
 10
1981.076394255877
 20
859.5387797319162
 30
0.0
 11
1981.076394255877
 21
849.5387797319162
 31
0.0
 12
1951.076394255877
 22
854.5387797319163
 32
0.0
 13
1951.076394255877
 23
854.5387797319163
 33
0.0
  0
SOLID
  5
109F
330
1BF6
100
AcDbEntity
  8
DIM
100
AcDbTrace
 10
2398.076394255877
 20
859.5387797319162
 30
0.0
 11
2398.076394255877
 21
849.5387797319162
 31
0.0
 12
2428.076394255877
 22
854.5387797319163
 32
0.0
 13
2428.076394255877
 23
854.5387797319163
 33
0.0
  0
INSERT
  5
10A0
330
1BF6
100
AcDbEntity
  8
DIM
100
AcDbBlockReference
  2
*U9
 10
0.0
 20
0.0
 30
0.0
  0
LINE
  5
10A1
330
1BF6
100
AcDbEntity
  8
DIM
100
AcDbLine
 10
1899.076394255876
 20
831.7830775023088
 30
0.0
 11
1899.076394255876
 21
938.4454019475743
 31
0.0
  0
LINE
  5
10A2
330
1BF6
100
AcDbEntity
  8
DIM
100
AcDbLine
 10
2744.67639425588
 20
831.7830775023088
 30
0.0
 11
2744.67639425588
 21
938.4454019475743
 31
0.0
  0
LINE
  5
10A3
330
1BF6
100
AcDbEntity
  8
DIM
100
AcDbLine
 10
1929.076394255877
 20
918.4454019475742
 30
0.0
 11
2201.876394255877
 21
918.4454019475742
 31
0.0
  0
LINE
  5
10A4
330
1BF6
100
AcDbEntity
  8
DIM
100
AcDbLine
 10
2714.676394255879
 20
918.4454019475742
 30
0.0
 11
2441.876394255877
 21
918.4454019475742
 31
0.0
  0
SOLID
  5
10A5
330
1BF6
100
AcDbEntity
  8
DIM
100
AcDbTrace
 10
1929.076394255877
 20
923.4454019475743
 30
0.0
 11
1929.076394255877
 21
913.4454019475743
 31
0.0
 12
1899.076394255876
 22
918.4454019475742
 32
0.0
 13
1899.076394255876
 23
918.4454019475742
 33
0.0
  0
SOLID
  5
10A6
330
1BF6
100
AcDbEntity
  8
DIM
100
AcDbTrace
 10
2714.676394255879
 20
923.4454019475743
 30
0.0
 11
2714.676394255879
 21
913.4454019475743
 31
0.0
 12
2744.67639425588
 22
918.4454019475742
 32
0.0
 13
2744.67639425588
 23
918.4454019475742
 33
0.0
  0
INSERT
  5
10A7
330
1BF6
100
AcDbEntity
  8
DIM
100
AcDbBlockReference
  2
*U10
 10
0.0
 20
0.0
 30
0.0
  0
LINE
  5
10A8
330
1BF6
100
AcDbEntity
  8
DIM
100
AcDbLine
 10
1879.076394255877
 20
811.7830775023087
 30
0.0
 11
1761.711091623167
 21
811.7830775023087
 31
0.0
  0
LINE
  5
10A9
330
1BF6
100
AcDbEntity
  8
DIM
100
AcDbLine
 10
1900.076394255876
 20
461.7830775023087
 30
0.0
 11
1761.711091623167
 21
461.7830775023087
 31
0.0
  0
LINE
  5
10AA
330
1BF6
100
AcDbEntity
  8
DIM
100
AcDbLine
 10
1781.711091623167
 20
781.7830775023086
 30
0.0
 11
1781.711091623167
 21
754.2830775023086
 31
0.0
  0
LINE
  5
10AB
330
1BF6
100
AcDbEntity
  8
DIM
100
AcDbLine
 10
1781.711091623167
 20
491.7830775023087
 30
0.0
 11
1781.711091623167
 21
519.2830775023089
 31
0.0
  0
SOLID
  5
10AC
330
1BF6
100
AcDbEntity
  8
DIM
100
AcDbTrace
 10
1776.711091623167
 20
781.7830775023086
 30
0.0
 11
1786.711091623167
 21
781.7830775023086
 31
0.0
 12
1781.711091623167
 22
811.7830775023087
 32
0.0
 13
1781.711091623167
 23
811.7830775023087
 33
0.0
  0
SOLID
  5
10AD
330
1BF6
100
AcDbEntity
  8
DIM
100
AcDbTrace
 10
1776.711091623167
 20
491.7830775023087
 30
0.0
 11
1786.711091623167
 21
491.7830775023087
 31
0.0
 12
1781.711091623167
 22
461.7830775023087
 32
0.0
 13
1781.711091623167
 23
461.7830775023087
 33
0.0
  0
INSERT
  5
10AE
330
1BF6
100
AcDbEntity
  8
DIM
100
AcDbBlockReference
  2
*U11
 10
0.0
 20
0.0
 30
0.0
  0
LINE
  5
10AF
330
1BF6
100
AcDbEntity
  8
DIM
100
AcDbLine
 10
2764.676394255877
 20
811.7830775023087
 30
0.0
 11
2905.16551784755
 21
811.7830775023087
 31
0.0
  0
LINE
  5
10B0
330
1BF6
100
AcDbEntity
  8
DIM
100
AcDbLine
 10
2743.676394255877
 20
474.7830775023087
 30
0.0
 11
2905.16551784755
 21
474.7830775023087
 31
0.0
  0
LINE
  5
10B1
330
1BF6
100
AcDbEntity
  8
DIM
100
AcDbLine
 10
2885.16551784755
 20
781.7830775023086
 30
0.0
 11
2885.16551784755
 21
703.2830775023088
 31
0.0
  0
LINE
  5
10B2
330
1BF6
100
AcDbEntity
  8
DIM
100
AcDbLine
 10
2885.16551784755
 20
504.7830775023087
 30
0.0
 11
2885.16551784755
 21
583.2830775023087
 31
0.0
  0
SOLID
  5
10B3
330
1BF6
100
AcDbEntity
  8
DIM
100
AcDbTrace
 10
2880.165517847551
 20
781.7830775023086
 30
0.0
 11
2890.165517847551
 21
781.7830775023086
 31
0.0
 12
2885.16551784755
 22
811.7830775023087
 32
0.0
 13
2885.16551784755
 23
811.7830775023087
 33
0.0
  0
SOLID
  5
10B4
330
1BF6
100
AcDbEntity
  8
DIM
100
AcDbTrace
 10
2880.165517847551
 20
504.7830775023087
 30
0.0
 11
2890.165517847551
 21
504.7830775023087
 31
0.0
 12
2885.16551784755
 22
474.7830775023087
 32
0.0
 13
2885.16551784755
 23
474.7830775023087
 33
0.0
  0
INSERT
  5
10B5
330
1BF6
100
AcDbEntity
  8
DIM
100
AcDbBlockReference
  2
*U12
 10
0.0
 20
0.0
 30
0.0
  0
LINE
  5
10B6
330
1BF6
100
AcDbEntity
  8
DIM
100
AcDbLine
 10
2809.676394255877
 20
700.7830775023088
 30
0.0
 11
2845.305335407327
 21
700.7830775023088
 31
0.0
  0
LINE
  5
10B7
330
1BF6
100
AcDbEntity
  8
DIM
100
AcDbLine
 10
2764.676394255877
 20
811.7830775023087
 30
0.0
 11
2845.305335407327
 21
811.7830775023087
 31
0.0
  0
LINE
  5
10B8
330
1BF6
100
AcDbEntity
  8
DIM
100
AcDbLine
 10
2825.305335407327
 20
730.7830775023086
 30
0.0
 11
2825.305335407327
 21
781.7830775023086
 31
0.0
  0
LINE
  5
10B9
330
1BF6
100
AcDbEntity
  8
DIM
100
AcDbLine
 10
2825.305335407327
 20
670.7830775023087
 30
0.0
 11
2825.305335407327
 21
700.7830775023088
 31
0.0
  0
SOLID
  5
10BA
330
1BF6
100
AcDbEntity
  8
DIM
100
AcDbTrace
 10
2820.305335407327
 20
730.7830775023086
 30
0.0
 11
2830.305335407328
 21
730.7830775023086
 31
0.0
 12
2825.305335407327
 22
700.7830775023088
 32
0.0
 13
2825.305335407327
 23
700.7830775023088
 33
0.0
  0
SOLID
  5
10BB
330
1BF6
100
AcDbEntity
  8
DIM
100
AcDbTrace
 10
2820.305335407327
 20
781.7830775023086
 30
0.0
 11
2830.305335407328
 21
781.7830775023086
 31
0.0
 12
2825.305335407327
 22
811.7830775023087
 32
0.0
 13
2825.305335407327
 23
811.7830775023087
 33
0.0
  0
INSERT
  5
10BC
330
1BF6
100
AcDbEntity
  8
DIM
100
AcDbBlockReference
  2
*U13
 10
0.0
 20
0.0
 30
0.0
  0
LINE
  5
10FF
330
1BF6
100
AcDbEntity
  8
DIM
100
AcDbLine
 10
3045.866866410982
 20
772.7830775023086
 30
0.0
 11
2998.573950246932
 21
772.7830775023086
 31
0.0
  0
LINE
  5
1100
330
1BF6
100
AcDbEntity
  8
DIM
100
AcDbLine
 10
3166.986866410983
 20
811.7830775023087
 30
0.0
 11
2998.573950246932
 21
811.7830775023087
 31
0.0
  0
LINE
  5
1101
330
1BF6
100
AcDbEntity
  8
DIM
100
AcDbLine
 10
3018.573950246932
 20
742.7830775023086
 30
0.0
 11
3018.573950246932
 21
712.7830775023086
 31
0.0
  0
LINE
  5
1102
330
1BF6
100
AcDbEntity
  8
DIM
100
AcDbLine
 10
3018.573950246932
 20
841.7830775023086
 30
0.0
 11
3018.573950246932
 21
871.7830775023086
 31
0.0
  0
SOLID
  5
1103
330
1BF6
100
AcDbEntity
  8
DIM
100
AcDbTrace
 10
3013.573950246931
 20
742.7830775023086
 30
0.0
 11
3023.573950246932
 21
742.7830775023086
 31
0.0
 12
3018.573950246932
 22
772.7830775023086
 32
0.0
 13
3018.573950246932
 23
772.7830775023086
 33
0.0
  0
SOLID
  5
1104
330
1BF6
100
AcDbEntity
  8
DIM
100
AcDbTrace
 10
3013.573950246931
 20
841.7830775023086
 30
0.0
 11
3023.573950246932
 21
841.7830775023086
 31
0.0
 12
3018.573950246932
 22
811.7830775023087
 32
0.0
 13
3018.573950246932
 23
811.7830775023087
 33
0.0
  0
INSERT
  5
1105
330
1BF6
100
AcDbEntity
  8
DIM
100
AcDbBlockReference
  2
*U14
 10
-52.10263633770228
 20
0.0
 30
0.0
  0
LINE
  5
1106
330
1BF6
100
AcDbEntity
  8
DIM
100
AcDbLine
 10
3045.866866410982
 20
772.7830775023086
 30
0.0
 11
2998.558608034385
 21
772.7830775023086
 31
0.0
  0
LINE
  5
1107
330
1BF6
100
AcDbEntity
  8
DIM
100
AcDbLine
 10
3045.866866410982
 20
515.7830775023088
 30
0.0
 11
2998.558608034385
 21
515.7830775023088
 31
0.0
  0
LINE
  5
1108
330
1BF6
100
AcDbEntity
  8
DIM
100
AcDbLine
 10
3018.558608034383
 20
742.7830775023086
 30
0.0
 11
3018.558608034383
 21
704.2830775023088
 31
0.0
  0
LINE
  5
1109
330
1BF6
100
AcDbEntity
  8
DIM
100
AcDbLine
 10
3018.558608034383
 20
545.7830775023088
 30
0.0
 11
3018.558608034383
 21
584.2830775023087
 31
0.0
  0
SOLID
  5
110A
330
1BF6
100
AcDbEntity
  8
DIM
100
AcDbTrace
 10
3013.558608034385
 20
742.7830775023086
 30
0.0
 11
3023.558608034385
 21
742.7830775023086
 31
0.0
 12
3018.558608034383
 22
772.7830775023086
 32
0.0
 13
3018.558608034383
 23
772.7830775023086
 33
0.0
  0
SOLID
  5
110B
330
1BF6
100
AcDbEntity
  8
DIM
100
AcDbTrace
 10
3013.558608034385
 20
545.7830775023088
 30
0.0
 11
3023.558608034385
 21
545.7830775023088
 31
0.0
 12
3018.558608034383
 22
515.7830775023088
 32
0.0
 13
3018.558608034383
 23
515.7830775023088
 33
0.0
  0
INSERT
  5
110C
330
1BF6
100
AcDbEntity
  8
DIM
100
AcDbBlockReference
  2
*U15
 10
-52.10263633770228
 20
0.0
 30
0.0
  0
LINE
  5
110D
330
1BF6
100
AcDbEntity
  8
DIM
100
AcDbLine
 10
3809.786866410984
 20
782.7830775023086
 30
0.0
 11
3847.70025647925
 21
782.7830775023086
 31
0.0
  0
LINE
  5
110E
330
1BF6
100
AcDbEntity
  8
DIM
100
AcDbLine
 10
3778.586866410984
 20
811.7830775023087
 30
0.0
 11
3847.70025647925
 21
811.7830775023087
 31
0.0
  0
LINE
  5
110F
330
1BF6
100
AcDbEntity
  8
DIM
100
AcDbLine
 10
3827.700256479249
 20
752.7830775023086
 30
0.0
 11
3827.700256479249
 21
722.7830775023086
 31
0.0
  0
LINE
  5
1110
330
1BF6
100
AcDbEntity
  8
DIM
100
AcDbLine
 10
3827.700256479249
 20
841.7830775023086
 30
0.0
 11
3827.700256479249
 21
871.7830775023086
 31
0.0
  0
SOLID
  5
1111
330
1BF6
100
AcDbEntity
  8
DIM
100
AcDbTrace
 10
3822.70025647925
 20
752.7830775023086
 30
0.0
 11
3832.700256479249
 21
752.7830775023086
 31
0.0
 12
3827.700256479249
 22
782.7830775023086
 32
0.0
 13
3827.700256479249
 23
782.7830775023086
 33
0.0
  0
SOLID
  5
1112
330
1BF6
100
AcDbEntity
  8
DIM
100
AcDbTrace
 10
3822.70025647925
 20
841.7830775023086
 30
0.0
 11
3832.700256479249
 21
841.7830775023086
 31
0.0
 12
3827.700256479249
 22
811.7830775023087
 32
0.0
 13
3827.700256479249
 23
811.7830775023087
 33
0.0
  0
INSERT
  5
1113
330
1BF6
100
AcDbEntity
  8
DIM
100
AcDbBlockReference
  2
*U16
 10
-2.927062335691516
 20
0.0
 30
0.0
  0
LINE
  5
1114
330
1BF6
100
AcDbEntity
  8
DIM
100
AcDbLine
 10
3809.786866410984
 20
782.7830775023086
 30
0.0
 11
3847.70025647925
 21
782.7830775023086
 31
0.0
  0
LINE
  5
1115
330
1BF6
100
AcDbEntity
  8
DIM
100
AcDbLine
 10
3809.786866410997
 20
526.1830775023087
 30
0.0
 11
3847.70025647925
 21
526.1830775023086
 31
0.0
  0
LINE
  5
1116
330
1BF6
100
AcDbEntity
  8
DIM
100
AcDbLine
 10
3827.700256479249
 20
752.7830775023086
 30
0.0
 11
3827.700256479249
 21
714.4830775023088
 31
0.0
  0
LINE
  5
1117
330
1BF6
100
AcDbEntity
  8
DIM
100
AcDbLine
 10
3827.700256479249
 20
556.1830775023087
 30
0.0
 11
3827.700256479249
 21
594.4830775023087
 31
0.0
  0
SOLID
  5
1118
330
1BF6
100
AcDbEntity
  8
DIM
100
AcDbTrace
 10
3822.70025647925
 20
752.7830775023086
 30
0.0
 11
3832.700256479249
 21
752.7830775023086
 31
0.0
 12
3827.700256479249
 22
782.7830775023086
 32
0.0
 13
3827.700256479249
 23
782.7830775023086
 33
0.0
  0
SOLID
  5
1119
330
1BF6
100
AcDbEntity
  8
DIM
100
AcDbTrace
 10
3822.70025647925
 20
556.1830775023087
 30
0.0
 11
3832.700256479249
 21
556.1830775023087
 31
0.0
 12
3827.700256479249
 22
526.1830775023087
 32
0.0
 13
3827.700256479249
 23
526.1830775023087
 33
0.0
  0
INSERT
  5
111A
330
1BF6
100
AcDbEntity
  8
DIM
100
AcDbBlockReference
  2
*U17
 10
-2.927062335691516
 20
0.0
 30
0.0
  0
LINE
  5
11BB
330
1BF6
100
AcDbEntity
  8
DIM
100
AcDbLine
 10
2791.676394255877
 20
1885.890735559122
 30
0.0
 11
2959.461792250693
 21
1885.890735559122
 31
0.0
  0
LINE
  5
11BC
330
1BF6
100
AcDbEntity
  8
DIM
100
AcDbLine
 10
2791.676394255877
 20
1393.490735559124
 30
0.0
 11
2959.461792250693
 21
1393.490735559124
 31
0.0
  0
LINE
  5
11BD
330
1BF6
100
AcDbEntity
  8
DIM
100
AcDbLine
 10
2939.461792250693
 20
1855.890735559122
 30
0.0
 11
2939.461792250693
 21
1767.618248246226
 31
0.0
  0
LINE
  5
11BE
330
1BF6
100
AcDbEntity
  8
DIM
100
AcDbLine
 10
2939.461792250693
 20
1423.490735559124
 30
0.0
 11
2939.461792250693
 21
1522.618248246226
 31
0.0
  0
SOLID
  5
11BF
330
1BF6
100
AcDbEntity
  8
DIM
100
AcDbTrace
 10
2934.461792250693
 20
1855.890735559122
 30
0.0
 11
2944.461792250693
 21
1855.890735559122
 31
0.0
 12
2939.461792250693
 22
1885.890735559122
 32
0.0
 13
2939.461792250693
 23
1885.890735559122
 33
0.0
  0
SOLID
  5
11C0
330
1BF6
100
AcDbEntity
  8
DIM
100
AcDbTrace
 10
2934.461792250693
 20
1423.490735559124
 30
0.0
 11
2944.461792250693
 21
1423.490735559124
 31
0.0
 12
2939.461792250693
 22
1393.490735559124
 32
0.0
 13
2939.461792250693
 23
1393.490735559124
 33
0.0
  0
LINE
  5
11C2
330
1BF6
100
AcDbEntity
  8
DIM
100
AcDbLine
 10
2759.126394255877
 20
1869.690735559122
 30
0.0
 11
2887.596627950758
 21
1869.690735559122
 31
0.0
  0
LINE
  5
11C3
330
1BF6
100
AcDbEntity
  8
DIM
100
AcDbLine
 10
2759.126394255877
 20
1409.690735559124
 30
0.0
 11
2887.596627950758
 21
1409.690735559124
 31
0.0
  0
LINE
  5
11C4
330
1BF6
100
AcDbEntity
  8
DIM
100
AcDbLine
 10
2867.596627950758
 20
1839.690735559123
 30
0.0
 11
2867.596627950758
 21
1765.118248246227
 31
0.0
  0
LINE
  5
11C5
330
1BF6
100
AcDbEntity
  8
DIM
100
AcDbLine
 10
2867.596627950758
 20
1439.690735559124
 30
0.0
 11
2867.596627950757
 21
1525.118248246226
 31
0.0
  0
SOLID
  5
11C6
330
1BF6
100
AcDbEntity
  8
DIM
100
AcDbTrace
 10
2862.596627950758
 20
1839.690735559123
 30
0.0
 11
2872.596627950758
 21
1839.690735559123
 31
0.0
 12
2867.596627950758
 22
1869.690735559122
 32
0.0
 13
2867.596627950758
 23
1869.690735559122
 33
0.0
  0
SOLID
  5
11C7
330
1BF6
100
AcDbEntity
  8
DIM
100
AcDbTrace
 10
2862.596627950758
 20
1439.690735559124
 30
0.0
 11
2872.596627950758
 21
1439.690735559124
 31
0.0
 12
2867.596627950758
 22
1409.690735559124
 32
0.0
 13
2867.596627950758
 23
1409.690735559124
 33
0.0
  0
CIRCLE
  5
11CD
330
1BF6
100
AcDbEntity
  8
DIM
100
AcDbCircle
 10
3289.986866410981
 20
755.7830775023086
 30
0.0
 40
10.25
  0
CIRCLE
  5
11CE
330
1BF6
100
AcDbEntity
  8
DIM
100
AcDbCircle
 10
3289.986866410981
 20
680.7830775023087
 30
0.0
 40
10.25
  0
LINE
  5
11CF
330
1BF6
100
AcDbEntity
  8
DIM
100
AcDbLine
 10
3186.986866410983
 20
831.7830775023088
 30
0.0
 11
3186.986866410983
 21
893.8776756258937
 31
0.0
  0
LINE
  5
11D0
330
1BF6
100
AcDbEntity
  8
DIM
100
AcDbLine
 10
3289.986866410981
 20
775.7830775023086
 30
0.0
 11
3289.986866410981
 21
893.8776756258937
 31
0.0
  0
LINE
  5
11D1
330
1BF6
100
AcDbEntity
  8
DIM
100
AcDbLine
 10
3216.986866410984
 20
873.8776756258937
 30
0.0
 11
3259.986866410983
 21
873.8776756258937
 31
0.0
  0
LINE
  5
11D2
330
1BF6
100
AcDbEntity
  8
DIM
100
AcDbLine
 10
3289.986866410981
 20
873.8776756258937
 30
0.0
 11
3319.986866410983
 21
873.8776756258937
 31
0.0
  0
SOLID
  5
11D3
330
1BF6
100
AcDbEntity
  8
DIM
100
AcDbTrace
 10
3216.986866410984
 20
878.8776756258938
 30
0.0
 11
3216.986866410984
 21
868.8776756258937
 31
0.0
 12
3186.986866410983
 22
873.8776756258937
 32
0.0
 13
3186.986866410983
 23
873.8776756258937
 33
0.0
  0
SOLID
  5
11D4
330
1BF6
100
AcDbEntity
  8
DIM
100
AcDbTrace
 10
3259.986866410983
 20
878.8776756258938
 30
0.0
 11
3259.986866410983
 21
868.8776756258937
 31
0.0
 12
3289.986866410981
 22
873.8776756258937
 32
0.0
 13
3289.986866410981
 23
873.8776756258937
 33
0.0
  0
INSERT
  5
11D5
330
1BF6
100
AcDbEntity
  8
DIM
100
AcDbBlockReference
  2
*U20
 10
-15.12331597592674
 20
0.0
 30
0.0
  0
LINE
  5
11D6
330
1BF6
100
AcDbEntity
  8
DIM
100
AcDbLine
 10
3309.986866410984
 20
755.7830775023086
 30
0.0
 11
3380.322942311726
 21
755.7830775023086
 31
0.0
  0
LINE
  5
11D7
330
1BF6
100
AcDbEntity
  8
DIM
100
AcDbLine
 10
3309.986866410984
 20
680.7830775023087
 30
0.0
 11
3380.322942311726
 21
680.7830775023086
 31
0.0
  0
INSERT
  5
11DD
330
1BF6
100
AcDbEntity
  8
DIM
100
AcDbBlockReference
  2
*U21
 10
-15.12331597592674
 20
0.0
 30
0.0
  0
LINE
  5
11DE
330
1BF6
100
AcDbEntity
  8
DIM
100
AcDbLine
 10
3346.076822486907
 20
680.7830775023087
 30
0.0
 11
3346.076822486907
 21
811.7830775023087
 31
0.0
  0
INSERT
  5
11DF
330
1BF6
100
AcDbEntity
  8
DIM
100
AcDbBlockReference
  2
*U22
 10
-15.12331597592674
 20
0.0
 30
0.0
  0
LINE
  5
11E5
330
1BF6
100
AcDbEntity
  8
DIM
100
AcDbLine
 10
3340.88878334355
 20
806.5950383589528
 30
0.0
 11
3346.076822486907
 21
811.7830775023087
 31
0.0
  0
LINE
  5
11E6
330
1BF6
100
AcDbEntity
  8
DIM
100
AcDbLine
 10
3346.076822486907
 20
811.7830775023087
 30
0.0
 11
3351.264861630261
 21
806.5950383589528
 31
0.0
  0
LINE
  5
11E7
330
1BF6
100
AcDbEntity
  8
DIM
100
AcDbLine
 10
3340.88878334355
 20
750.5950383589529
 30
0.0
 11
3351.264861630261
 21
760.9711166456643
 31
0.0
  0
LINE
  5
11E8
330
1BF6
100
AcDbEntity
  8
DIM
100
AcDbLine
 10
3340.88878334355
 20
760.9711166456641
 30
0.0
 11
3351.264861630261
 21
750.5950383589529
 31
0.0
  0
LINE
  5
11E9
330
1BF6
100
AcDbEntity
  8
DIM
100
AcDbLine
 10
3346.076822486907
 20
680.7830775023088
 30
0.0
 11
3351.264861630261
 21
685.9711166456643
 31
0.0
  0
LINE
  5
11EA
330
1BF6
100
AcDbEntity
  8
DIM
100
AcDbLine
 10
3340.88878334355
 20
685.9711166456641
 30
0.0
 11
3346.076822486906
 21
680.7830775023087
 31
0.0
  0
LINE
  5
1464
330
1BF6
100
AcDbEntity
  8
DIM
100
AcDbLine
 10
2791.676394255877
 20
1885.890735559122
 30
0.0
 11
2959.230765222468
 21
1885.890735559122
 31
0.0
  0
LINE
  5
1466
330
1BF6
100
AcDbEntity
  8
DIM
100
AcDbLine
 10
2939.230765222468
 20
1855.890735559122
 30
0.0
 11
2939.230765222468
 21
1825.890735559122
 31
0.0
  0
SOLID
  5
1468
330
1BF6
100
AcDbEntity
  8
DIM
100
AcDbTrace
 10
2934.230765222468
 20
1855.890735559122
 30
0.0
 11
2944.230765222468
 21
1855.890735559122
 31
0.0
 12
2939.230765222468
 22
1885.890735559122
 32
0.0
 13
2939.230765222468
 23
1885.890735559122
 33
0.0
  0
LINE
  5
146B
330
1BF6
100
AcDbEntity
  8
DIM
100
AcDbLine
 10
2759.126394255877
 20
1869.690735559122
 30
0.0
 11
2887.598134009931
 21
1869.690735559122
 31
0.0
  0
LINE
  5
146D
330
1BF6
100
AcDbEntity
  8
DIM
100
AcDbLine
 10
2867.598134009931
 20
1839.690735559123
 30
0.0
 11
2867.598134009931
 21
1809.690735559122
 31
0.0
  0
SOLID
  5
146F
330
1BF6
100
AcDbEntity
  8
DIM
100
AcDbTrace
 10
2862.598134009931
 20
1839.690735559123
 30
0.0
 11
2872.598134009931
 21
1839.690735559123
 31
0.0
 12
2867.598134009931
 22
1869.690735559122
 32
0.0
 13
2867.598134009931
 23
1869.690735559122
 33
0.0
  0
LINE
  5
175B
330
1BF6
100
AcDbEntity
  8
DIM
100
AcDbLine
 10
2764.676394255877
 20
1923.290735559123
 30
0.0
 11
2959.230765222468
 21
1923.290735559123
 31
0.0
  0
LINE
  5
175C
330
1BF6
100
AcDbEntity
  8
DIM
100
AcDbLine
 10
2939.230765222468
 20
1953.290735559123
 30
0.0
 11
2939.230765222468
 21
1983.290735559123
 31
0.0
  0
SOLID
  5
175D
330
1BF6
100
AcDbEntity
  8
DIM
100
AcDbTrace
 10
2934.230765222468
 20
1953.290735559123
 30
0.0
 11
2944.230765222468
 21
1953.290735559123
 31
0.0
 12
2939.230765222468
 22
1923.290735559123
 32
0.0
 13
2939.230765222468
 23
1923.290735559123
 33
0.0
  0
TEXT
  5
175E
330
1BF6
100
AcDbEntity
  8
DIM
100
AcDbText
 10
2954.230765222468
 20
2003.290735559123
 30
0.0
 40
30.0
  1
37
 50
90.0
100
AcDbText
  0
LINE
  5
175F
330
1BF6
100
AcDbEntity
  8
DIM
100
AcDbLine
 10
2764.676394255877
 20
1923.290735559123
 30
0.0
 11
2887.598134009931
 21
1923.290735559123
 31
0.0
  0
LINE
  5
1760
330
1BF6
100
AcDbEntity
  8
DIM
100
AcDbLine
 10
2867.598134009931
 20
1953.290735559123
 30
0.0
 11
2867.598134009931
 21
1983.290735559123
 31
0.0
  0
SOLID
  5
1761
330
1BF6
100
AcDbEntity
  8
DIM
100
AcDbTrace
 10
2862.598134009931
 20
1953.290735559123
 30
0.0
 11
2872.598134009931
 21
1953.290735559123
 31
0.0
 12
2867.598134009931
 22
1923.290735559123
 32
0.0
 13
2867.598134009931
 23
1923.290735559123
 33
0.0
  0
TEXT
  5
1762
330
1BF6
100
AcDbEntity
  8
DIM
100
AcDbText
 10
2882.598134009931
 20
2003.290735559123
 30
0.0
 40
30.0
  1
54
 50
90.0
100
AcDbText
  0
LINE
  5
1891
330
1BF6
100
AcDbEntity
  8
DIM
100
AcDbLine
 10
1910.076394255876
 20
1384.440735559124
 30
0.0
 11
1910.076394255876
 21
1127.65027609101
 31
0.0
  0
LINE
  5
1894
330
1BF6
100
AcDbEntity
  8
DIM
100
AcDbLine
 10
2733.676394255879
 20
1384.440735559124
 30
0.0
 11
2733.676394255879
 21
1127.65027609101
 31
0.0
  0
LINE
  5
1895
330
1BF6
100
AcDbEntity
  8
OUTLINE
100
AcDbLine
 10
1910.076394255876
 20
816.7830775023086
 30
0.0
 11
1910.076394255876
 21
806.7830775023088
 31
0.0
  0
LINE
  5
1896
330
1BF6
100
AcDbEntity
  8
OUTLINE
100
AcDbLine
 10
2733.676394255879
 20
816.7830775023086
 30
0.0
 11
2733.676394255879
 21
806.7830775023088
 31
0.0
  0
TEXT
  5
1897
330
1BF6
100
AcDbEntity
  8
DIM
100
AcDbText
 10
2091.876394255876
 20
1132.650276091011
 30
0.0
 40
30.0
  1
824 HANGING CTRS
100
AcDbText
  0
LINE
  5
1D00
330
1BF6
100
AcDbEntity
  8
DIM
100
AcDbLine
 10
1919.076394255877
 20
1956.690735559121
 30
0.0
 11
1761.698602351978
 21
1956.690735559121
 31
0.0
  0
LINE
  5
1D02
330
1BF6
100
AcDbEntity
  8
DIM
100
AcDbLine
 10
1781.698602351979
 20
1926.690735559121
 30
0.0
 11
1781.698602351979
 21
1738.230735559122
 31
0.0
  0
LINE
  5
1D03
330
1BF6
100
AcDbEntity
  8
DIM
100
AcDbLine
 10
1781.698602351978
 20
1232.770735559124
 30
0.0
 11
1781.698602351978
 21
1498.230735559122
 31
0.0
  0
SOLID
  5
1D04
330
1BF6
100
AcDbEntity
  8
DIM
100
AcDbTrace
 10
1776.698602351979
 20
1926.690735559121
 30
0.0
 11
1786.698602351978
 21
1926.690735559121
 31
0.0
 12
1781.698602351979
 22
1956.690735559121
 32
0.0
 13
1781.698602351979
 23
1956.690735559121
 33
0.0
  0
SOLID
  5
1D05
330
1BF6
100
AcDbEntity
  8
DIM
100
AcDbTrace
 10
1776.698602351978
 20
1262.770735559123
 30
0.0
 11
1786.698602351978
 21
1262.770735559123
 31
0.0
 12
1781.698602351978
 22
1232.770735559123
 32
0.0
 13
1781.698602351978
 23
1232.770735559123
 33
0.0
  0
TEXT
  5
1D07
330
1BF6
100
AcDbEntity
  8
DIM
100
AcDbText
 10
1796.698602351978
 20
1518.230735559123
 30
0.0
 40
30.0
  1
724 O/A
 50
90.0
100
AcDbText
  0
LINE
  5
1D08
330
1BF6
100
AcDbEntity
  8
OUTLINE
100
AcDbLine
 10
2744.67639425588
 20
799.7830775023086
 30
0.0
 11
2465.67639425588
 21
799.7830775023086
 31
0.0
  0
LINE
  5
1D0C
330
1BF6
100
AcDbEntity
  8
OUTLINE
100
AcDbLine
 10
2465.67639425588
 20
799.7830775023086
 30
0.0
 11
2465.67639425588
 21
501.7830775023086
 31
0.0
  0
LINE
  5
1D0D
330
1BF6
100
AcDbEntity
  8
OUTLINE
100
AcDbLine
 10
2744.67639425588
 20
501.7830775023086
 30
0.0
 11
2465.67639425588
 21
501.7830775023086
 31
0.0
  0
LINE
  5
1D14
330
1BF6
100
AcDbEntity
  8
DIM
100
AcDbLine
 10
2744.67639425588
 20
799.7830775023086
 30
0.0
 11
2744.67639425588
 21
501.7830775023086
 31
0.0
  0
LINE
  5
1D15
330
1BF6
100
AcDbEntity
  8
DIM
100
AcDbLine
 10
2639.67639425588
 20
694.7830775023085
 30
0.0
 11
2639.67639425588
 21
534.7830775023086
 31
0.0
  0
LINE
  5
1D16
330
1BF6
100
AcDbEntity
  8
OUTLINE
100
AcDbLine
 10
2639.67639425588
 20
694.7830775023085
 30
0.0
 11
2556.67639425588
 21
694.7830775023085
 31
0.0
  0
LINE
  5
1D17
330
1BF6
100
AcDbEntity
  8
OUTLINE
100
AcDbLine
 10
2639.67639425588
 20
534.7830775023086
 30
0.0
 11
2556.67639425588
 21
534.7830775023086
 31
0.0
  0
LINE
  5
1D18
330
1BF6
100
AcDbEntity
  8
DIM
100
AcDbLine
 10
2556.67639425588
 20
694.7830775023085
 30
0.0
 11
2556.67639425588
 21
534.7830775023086
 31
0.0
  0
LINE
  5
1D5F
330
1BF6
100
AcDbEntity
  8
OUTLINE
100
AcDbLine
 10
3207.786866410984
 20
799.7830775023086
 30
0.0
 11
3087.986866410983
 21
799.7830775023086
 31
0.0
  0
LINE
  5
1D60
330
1BF6
100
AcDbEntity
  8
OUTLINE
100
AcDbLine
 10
3207.786866410981
 20
501.7830775023085
 30
0.0
 11
3087.986866410983
 21
501.7830775023086
 31
0.0
  0
LINE
  5
1D61
330
1BF6
100
AcDbEntity
  8
OUTLINE
100
AcDbLine
 10
3087.986866410983
 20
799.7830775023086
 30
0.0
 11
3087.986866410983
 21
501.7830775023086
 31
0.0
  0
LINE
  5
1D62
330
1BF6
100
AcDbEntity
  8
OUTLINE
  6
HIDDEN
100
AcDbLine
 10
3203.086866410983
 20
772.7830775023085
 30
0.0
 11
3087.986866410983
 21
772.7830775023085
 31
0.0
  0
LINE
  5
1D63
330
1BF6
100
AcDbEntity
  8
DIM
100
AcDbLine
 10
3065.866866410983
 20
772.7830775023086
 30
0.0
 11
3087.986866410983
 21
772.7830775023085
 31
0.0
  0
LINE
  5
1D64
330
1BF6
100
AcDbEntity
  8
OUTLINE
  6
HIDDEN
100
AcDbLine
 10
3207.786866410982
 20
515.7830775023087
 30
0.0
 11
3087.986866410983
 21
515.7830775023087
 31
0.0
  0
LINE
  5
1D65
330
1BF6
100
AcDbEntity
  8
OUTLINE
100
AcDbLine
 10
3087.986866410983
 20
694.7830775023084
 30
0.0
 11
3065.866866410983
 21
694.7830775023087
 31
0.0
  0
LINE
  5
1D66
330
1BF6
100
AcDbEntity
  8
OUTLINE
100
AcDbLine
 10
3087.986866410984
 20
534.7830775023086
 30
0.0
 11
3065.866866410983
 21
534.7830775023086
 31
0.0
  0
TEXT
  5
1E0D
330
1BF6
100
AcDbEntity
  8
DIM
100
AcDbText
 10
2882.596627950757
 20
1532.619236981053
 30
0.0
 40
30.0
  1
460 CTRS
 50
90.0
100
AcDbText
  0
TEXT
  5
1E0E
330
1BF6
100
AcDbEntity
  8
DIM
100
AcDbText
 10
2954.461792250693
 20
1530.119236981053
 30
0.0
 40
30.0
  1
492 CTRS
 50
90.0
100
AcDbText
  0
LINE
  5
1E0F
330
1BF6
100
AcDbEntity
  8
OUTLINE
100
AcDbLine
 10
2465.67639425588
 20
1353.890735559122
 30
0.0
 11
2465.67639425588
 21
1254.890735559123
 31
0.0
  0
LINE
  5
1E10
330
1BF6
100
AcDbEntity
  8
DIM
100
AcDbLine
 10
2744.67639425588
 20
1358.890735559123
 30
0.0
 11
2744.67639425588
 21
1254.890735559123
 31
0.0
  0
LINE
  5
1E11
330
1BF6
100
AcDbEntity
  8
DIM
100
AcDbLine
 10
2744.67639425588
 20
1358.890735559123
 30
0.0
 11
2723.676394255877
 21
1358.890735559123
 31
0.0
  0
LINE
  5
1E12
330
1BF6
100
AcDbEntity
  8
DIM
100
AcDbLine
 10
2744.67639425588
 20
1254.890735559123
 30
0.0
 11
2465.67639425588
 21
1254.890735559123
 31
0.0
  0
LINE
  5
1E13
330
1BF6
100
AcDbEntity
  8
DIM
100
AcDbLine
 10
2639.676394255881
 20
1254.890735559123
 30
0.0
 11
2639.67639425588
 21
1232.770735559125
 31
0.0
  0
LINE
  5
1E14
330
1BF6
100
AcDbEntity
  8
DIM
100
AcDbLine
 10
2556.67639425588
 20
1254.890735559123
 30
0.0
 11
2556.67639425588
 21
1232.770735559125
 31
0.0
  0
LINE
  5
1E15
330
1BF6
100
AcDbEntity
  8
DIM
100
AcDbLine
 10
2556.67639425588
 20
1232.770735559125
 30
0.0
 11
2639.67639425588
 21
1232.770735559125
 31
0.0
  0
LINE
  5
1E16
330
1BF6
100
AcDbEntity
  8
DIM
100
AcDbLine
 10
1931.076394255877
 20
1232.770735559124
 30
0.0
 11
1761.698602351978
 21
1232.770735559124
 31
0.0
  0
ENDSEC
  0
SECTION
  2
OBJECTS
  0
DICTIONARY
  5
1B97
330
0
100
AcDbDictionary
281
     1
  3
ACAD_COLOR
350
1BED
  3
ACAD_GROUP
350
1B98
  3
ACAD_LAYOUT
350
1BEC
  3
ACAD_MATERIAL
350
1B9B
  3
ACAD_MLEADERSTYLE
350
1BF0
  3
ACAD_MLINESTYLE
350
1BE9
  3
ACAD_PLOTSETTINGS
350
1BEB
  3
ACAD_PLOTSTYLENAME
350
1B99
  3
ACAD_SCALELIST
350
1BCD
  3
ACAD_TABLESTYLE
350
1BEE
  3
ACAD_VISUALSTYLE
350
1BB4
  3
ACDB_RECOMPOSE_DATA
350
1E85
  3
AcDbVariableDictionary
350
1E7E
  3
AcmDictionary
350
1CA3
  3
AMG
350
1C5C
  3
AMGSNAPSETTINGS
350
1CC9
  0
DICTIONARY
  5
1E76
330
1B8D
100
AcDbDictionary
280
     1
281
     1
  3
ACAD_LAYERSTATES
360
1E77
  0
DICTIONARY
  5
1E69
330
1BDF
100
AcDbDictionary
280
     1
281
     1
  3
ADSK_XREC_LAYER_RECONCILED
360
1E6A
  0
DICTIONARY
  5
1E6B
330
1BFA
100
AcDbDictionary
280
     1
281
     1
  3
ADSK_XREC_LAYER_RECONCILED
360
1E6C
  0
DICTIONARY
  5
1E6D
330
1C0C
100
AcDbDictionary
280
     1
281
     1
  3
ADSK_XREC_LAYER_RECONCILED
360
1E6E
  0
DICTIONARY
  5
1E6F
330
1C0D
100
AcDbDictionary
280
     1
281
     1
  3
ADSK_XREC_LAYER_RECONCILED
360
1E70
  0
DICTIONARY
  5
1E71
330
1C0E
100
AcDbDictionary
280
     1
281
     1
  3
ADSK_XREC_LAYER_RECONCILED
360
1E72
  0
DICTIONARY
  5
1D09
330
1BF6
100
AcDbDictionary
280
     1
281
     1
  3
ACAD_SORTENTS
360
1D0A
  0
DICTIONARY
  5
1BED
102
{ACAD_REACTORS
330
1B97
102
}
330
1B97
100
AcDbDictionary
281
     1
  0
DICTIONARY
  5
1B98
102
{ACAD_REACTORS
330
1B97
102
}
330
1B97
100
AcDbDictionary
281
     1
  0
DICTIONARY
  5
1BEC
102
{ACAD_REACTORS
330
1B97
102
}
330
1B97
100
AcDbDictionary
281
     1
  3
Layout1
350
1BF5
  3
Model
350
1BF9
  0
DICTIONARY
  5
1B9B
102
{ACAD_REACTORS
330
1B97
102
}
330
1B97
100
AcDbDictionary
281
     1
  3
ByBlock
350
1BA4
  3
ByLayer
350
1B9C
  3
Global
350
1BAC
  0
DICTIONARY
  5
1BF0
102
{ACAD_REACTORS
330
1B97
102
}
330
1B97
100
AcDbDictionary
281
     1
  3
Standard
350
1BF1
  0
DICTIONARY
  5
1BE9
102
{ACAD_REACTORS
330
1B97
102
}
330
1B97
100
AcDbDictionary
281
     1
  3
Standard
350
1BEA
  0
DICTIONARY
  5
1BEB
102
{ACAD_REACTORS
330
1B97
102
}
330
1B97
100
AcDbDictionary
281
     1
  0
ACDBDICTIONARYWDFLT
  5
1B99
102
{ACAD_REACTORS
330
1B97
102
}
330
1B97
100
AcDbDictionary
281
     1
  3
Normal
350
1B9A
100
AcDbDictionaryWithDefault
340
1B9A
  0
DICTIONARY
  5
1BCD
102
{ACAD_REACTORS
330
1B97
102
}
330
1B97
100
AcDbDictionary
281
     1
  3
A0
350
1BCE
  3
A1
350
1BCF
  3
A2
350
1BD0
  3
A3
350
1BD1
  3
A4
350
1BD2
  3
A5
350
1BD3
  3
A6
350
1BD4
  3
A7
350
1BD5
  3
A8
350
1BD6
  3
A9
350
1BD7
  3
B0
350
1BD8
  3
B1
350
1BD9
  3
B2
350
1BDA
  3
B3
350
1BDB
  3
B4
350
1BDC
  3
B5
350
1BDD
  3
B6
350
1BDE
  0
DICTIONARY
  5
1BEE
102
{ACAD_REACTORS
330
1B97
102
}
330
1B97
100
AcDbDictionary
281
     1
  3
Standard
350
1BEF
  0
DICTIONARY
  5
1BB4
102
{ACAD_REACTORS
330
1B97
102
}
330
1B97
100
AcDbDictionary
281
     1
  3
2dWireframe
350
1BBA
  3
Basic
350
1BB9
  3
Brighten
350
1BC0
  3
ColorChange
350
1BC4
  3
Conceptual
350
1BBD
  3
Dim
350
1BBF
  3
EdgeColorOff
350
1BCC
  3
Facepattern
350
1BC3
  3
Flat
350
1BB5
  3
FlatWithEdges
350
1BB6
  3
Gouraud
350
1BB7
  3
GouraudWithEdges
350
1BB8
  3
Hidden
350
1BBC
  3
JitterOff
350
1BCA
  3
Linepattern
350
1BC2
  3
OverhangOff
350
1BCB
  3
Realistic
350
1BBE
  3
Shaded
350
1BC9
  3
Shaded with edges
350
1BC8
  3
Shades of Gray
350
1BC5
  3
Sketchy
350
1BC6
  3
Thicken
350
1BC1
  3
Wireframe
350
1BBB
  3
X-Ray
350
1BC7
  0
XRECORD
  5
1E85
102
{ACAD_REACTORS
330
1B97
102
}
330
1B97
100
AcDbXrecord
280
     1
 90
        1
330
1BEF
  0
DICTIONARY
  5
1E7E
102
{ACAD_REACTORS
330
1B97
102
}
330
1B97
100
AcDbDictionary
281
     1
  3
CANNOSCALE
350
1E81
  3
CMLEADERSTYLE
350
1E80
  3
CTABLESTYLE
350
1E7F
  3
XCLIPFRAME
350
1E82
  0
DICTIONARY
  5
1CA3
102
{ACAD_REACTORS
330
1B97
102
}
330
1B97
100
AcDbDictionary
281
     1
  3
AcmStdDictionary
350
1CAC
  0
DICTIONARY
  5
1C5C
102
{ACAD_REACTORS
330
1B97
102
}
330
1B97
100
AcDbDictionary
281
     1
  0
DICTIONARY
  5
1CC9
102
{ACAD_REACTORS
330
1B97
102
}
330
1B97
100
AcDbDictionary
281
     1
  0
DICTIONARY
  5
1E77
102
{ACAD_REACTORS
330
1E76
102
}
330
1E76
100
AcDbDictionary
281
     1
  0
XRECORD
  5
1E6A
102
{ACAD_REACTORS
330
1E69
102
}
330
1E69
100
AcDbXrecord
280
     1
290
     1
  0
XRECORD
  5
1E6C
102
{ACAD_REACTORS
330
1E6B
102
}
330
1E6B
100
AcDbXrecord
280
     1
290
     1
  0
XRECORD
  5
1E6E
102
{ACAD_REACTORS
330
1E6D
102
}
330
1E6D
100
AcDbXrecord
280
     1
290
     1
  0
XRECORD
  5
1E70
102
{ACAD_REACTORS
330
1E6F
102
}
330
1E6F
100
AcDbXrecord
280
     1
290
     1
  0
XRECORD
  5
1E72
102
{ACAD_REACTORS
330
1E71
102
}
330
1E71
100
AcDbXrecord
280
     1
290
     1
  0
SORTENTSTABLE
  5
1D0A
102
{ACAD_REACTORS
330
1D09
102
}
330
1D09
100
AcDbSortentsTable
330
1BF6
331
1E10
  5
1E12
331
F48
  5
F67
331
1109
  5
1112
331
111A
  5
11C3
331
175C
  5
1897
331
11C3
  5
11D1
331
FCB
  5
FED
331
F69
  5
F72
331
1D65
  5
1E0F
331
1895
  5
1CD8
331
11D4
  5
11E9
331
11E5
  5
11F0
331
101E
  5
1029
331
FFD
  5
101E
331
146F
  5
1895
331
1028
  5
1031
331
E68
  5
E75
331
E79
  5
E97
331
E3F
  5
E66
331
1083
  5
108C
331
105A
  5
107E
331
E9A
  5
EBE
331
10B6
  5
1101
331
10A5
  5
10AE
331
1094
  5
109D
331
ECC
  5
ED3
331
B7A
  5
B7A
331
1D00
  5
1D0D
331
E00
  5
E3D
331
1E11
  5
FCF
331
F49
  5
F68
331
110A
  5
1113
331
F6A
  5
F73
331
175D
  5
19DA
331
11C4
  5
11D2
331
FCC
  5
FEE
331
1D66
  5
1E10
331
1896
  5
1CD9
331
11D5
  5
11EA
331
FED
  5
FFD
331
11E6
  5
1464
331
FFE
  5
1021
331
F93
  5
FC6
331
1029
  5
1032
331
E7A
  5
E98
331
105B
  5
107F
331
1084
  5
108D
331
EBC
  5
EC4
331
10A6
  5
10AF
331
1095
  5
109E
331
ECD
  5
ED4
331
10B7
  5
1102
331
DD7
  5
DF9
331
B7B
  5
B7B
331
10B8
  5
1103
331
110B
  5
1114
331
1E12
  5
FCE
331
E22
  5
E5A
331
175E
  5
1CD0
331
11C5
  5
11D4
331
FCD
  5
FF9
331
1897
  5
1CDA
331
11D6
  5
11EB
331
FEE
  5
FFE
331
11E7
  5
175C
331
FFF
  5
1022
331
F94
  5
FC7
331
102A
  5
1033
331
E59
  5
E67
331
105C
  5
1080
331
1085
  5
108E
331
EBD
  5
EC5
331
1096
  5
109F
331
ECE
  5
ED5
331
10A7
  5
10B0
331
EEF
  5
F44
331
DAF
  5
DDC
331
B7C
  5
B7C
331
1D02
  5
1D15
331
10B9
  5
1104
331
10A8
  5
10B1
331
EF0
  5
F47
331
110C
  5
1115
331
E23
  5
E5B
331
175F
  5
1CD1
331
11C6
  5
11D5
331
FCE
  5
FFA
331
11D7
  5
11EC
331
11E8
  5
175D
331
1000
  5
1023
331
F95
  5
FC8
331
102B
  5
1034
331
E5A
  5
E68
331
105D
  5
1081
331
1086
  5
108F
331
EBE
  5
EC6
331
1097
  5
10A0
331
ECF
  5
ED6
331
B7D
  5
B7D
331
1098
  5
10A1
331
ED0
  5
EEF
331
10A9
  5
10B2
331
EF1
  5
F48
331
1D03
  5
1D16
331
10BA
  5
1105
331
1D14
  5
1D61
331
F0B
  5
F62
331
DDA
  5
DFA
331
110D
  5
1116
331
F6D
  5
F93
331
1760
  5
1CD2
331
11C7
  5
11D6
331
11E9
  5
175E
331
1001
  5
1024
331
F96
  5
FC9
331
102C
  5
1035
331
E5B
  5
E6E
331
105E
  5
1082
331
E9E
  5
EBF
331
1087
  5
1090
331
EBF
  5
EC7
331
B7E
  5
B7E
331
1088
  5
1091
331
EC0
  5
EC8
331
1099
  5
10A2
331
ED1
  5
EF0
331
10AA
  5
10B3
331
EF2
  5
F49
331
1D04
  5
1D17
331
10BB
  5
1106
331
1D15
  5
1D62
331
F0C
  5
F63
331
DDB
  5
DFB
331
110E
  5
1117
331
1761
  5
1CD3
331
11EA
  5
175F
331
1002
  5
1025
331
F6E
  5
F94
331
102D
  5
1036
331
E5C
  5
E6F
331
E9F
  5
EC0
331
B7F
  5
B7F
331
1089
  5
1092
331
109A
  5
10A3
331
ED2
  5
EF1
331
10AB
  5
10B4
331
DC3
  5
DF8
331
1D05
  5
1D18
331
10BC
  5
1107
331
F0D
  5
F64
331
DDC
  5
E00
331
110F
  5
1118
331
1762
  5
1CD4
331
1464
  5
1760
331
1003
  5
1026
331
F6F
  5
F95
331
1D16
  5
DD7
331
102E
  5
1037
331
E6E
  5
E76
331
C49
  5
C49
331
B80
  5
B80
331
1079
  5
1083
331
108A
  5
1093
331
EC2
  5
EC9
331
10AC
  5
10B5
331
109B
  5
10A4
331
ED3
  5
EF2
331
DDD
  5
E1B
331
10FF
  5
1108
331
1110
  5
1119
331
1004
  5
1027
331
F70
  5
F96
331
1D17
  5
DDA
331
102F
  5
1038
331
E6F
  5
E77
331
B81
  5
B81
331
B70
  5
B70
331
107A
  5
1084
331
1051
  5
105A
331
1030
  5
1051
331
108B
  5
1094
331
EC3
  5
ECA
331
1D07
  5
1D60
331
10AD
  5
10B6
331
109C
  5
10A5
331
1D18
  5
1D63
331
1100
  5
1109
331
ED4
  5
F0B
331
1111
  5
111A
331
1466
  5
1761
331
1005
  5
1028
331
F71
  5
FC3
331
1031
  5
1052
331
E71
  5
E79
331
107B
  5
1085
331
1052
  5
105B
331
108C
  5
1095
331
EC4
  5
ECB
331
10AE
  5
10B7
331
109D
  5
10A6
331
ED5
  5
F0C
331
1101
  5
110A
331
1112
  5
11BB
331
F72
  5
FC4
331
11DD
  5
11ED
331
11BB
  5
11C4
331
FC3
  5
FCA
331
1D08
  5
DAF
331
B72
  5
B72
331
1468
  5
1762
331
1021
  5
102A
331
E61
  5
E71
331
1032
  5
1053
331
E72
  5
E7A
331
107C
  5
1086
331
1053
  5
105C
331
108D
  5
1096
331
EC5
  5
ECC
331
E93
  5
E99
331
10AF
  5
10B8
331
109E
  5
10A7
331
ED6
  5
F0D
331
DF8
  5
E1C
331
1102
  5
110B
331
F62
  5
F69
331
1113
  5
11BC
331
F73
  5
FC5
331
11CD
  5
11DD
331
11BC
  5
11C5
331
11DE
  5
11EE
331
FF6
  5
FFF
331
FC4
  5
FCB
331
D9E
  5
D9E
331
B73
  5
B73
331
1033
  5
1054
331
1022
  5
102B
331
1054
  5
105D
331
10B0
  5
10B9
331
109F
  5
10A8
331
108E
  5
1097
331
EC6
  5
ECD
331
E94
  5
E9A
331
DF9
  5
E1D
331
1103
  5
110C
331
1114
  5
11BD
331
F63
  5
F6A
331
1D5F
  5
1D64
331
11CE
  5
11DE
331
11BD
  5
11C6
331
11DF
  5
11EF
331
FF7
  5
1000
331
FC5
  5
FCC
331
B74
  5
B74
331
1D60
  5
1D65
331
1034
  5
1055
331
1023
  5
102C
331
FF8
  5
1001
331
107E
  5
1087
331
1055
  5
105E
331
E95
  5
E9C
331
10B1
  5
10BA
331
10A0
  5
10A9
331
108F
  5
1098
331
EC7
  5
ECE
331
DFA
  5
E22
331
1104
  5
110D
331
1115
  5
11BE
331
F64
  5
F6D
331
E1B
  5
E3E
331
11CF
  5
11DF
331
11BE
  5
11C7
331
FC6
  5
FCD
331
B75
  5
B75
331
B6F
  5
B6F
331
1891
  5
1CD5
331
11D0
  5
11E5
331
146B
  5
1891
331
FF9
  5
1002
331
1024
  5
102D
331
1D61
  5
E9B
331
1035
  5
1056
331
E75
  5
E95
331
107F
  5
1088
331
1056
  5
1079
331
E96
  5
E9D
331
10B2
  5
10BB
331
10A1
  5
10AA
331
1090
  5
1099
331
EC8
  5
ECF
331
DFB
  5
E23
331
E1C
  5
E3F
331
F44
  5
F65
331
1105
  5
110E
331
1116
  5
11BF
331
11BF
  5
11CD
331
FC7
  5
FD0
331
F65
  5
F6E
331
1D0C
  5
DDD
331
B76
  5
B76
331
1D62
  5
1D66
331
11D1
  5
11E6
331
11C0
  5
11CE
331
FC8
  5
FD1
331
1025
  5
102E
331
FFA
  5
1003
331
1036
  5
1057
331
E76
  5
E96
331
1080
  5
1089
331
1057
  5
107A
331
E97
  5
E9E
331
10B3
  5
10BC
331
10A2
  5
10AB
331
1091
  5
109A
331
EC9
  5
ED0
331
E1D
  5
E59
331
1E0D
  5
11D7
331
1106
  5
110F
331
1117
  5
11C0
331
F66
  5
F6F
331
1D0D
  5
DDB
331
C59
  5
C59
331
B77
  5
B77
331
1118
  5
11C1
331
1D63
  5
1E0D
331
11D2
  5
11E7
331
FEA
  5
FFB
331
FC9
  5
FEA
331
FFB
  5
1004
331
146D
  5
1894
331
E3D
  5
E5C
331
1037
  5
1058
331
1026
  5
102F
331
E66
  5
E72
331
1081
  5
108A
331
1058
  5
107B
331
E98
  5
E9F
331
10B4
  5
10FF
331
10A3
  5
10AC
331
1092
  5
109B
331
1E0E
  5
11CF
331
ECA
  5
ED1
331
1107
  5
1110
331
F67
  5
F70
331
B78
  5
B78
331
1108
  5
1111
331
1119
  5
11C2
331
175B
  5
1896
331
11C2
  5
11D0
331
FCA
  5
FEB
331
F68
  5
F71
331
1D64
  5
1E0E
331
1894
  5
1CD7
331
11D3
  5
11E8
331
FEB
  5
FFC
331
FFC
  5
1005
331
1038
  5
1059
331
1027
  5
1030
331
E67
  5
E73
331
E3E
  5
E61
331
1059
  5
107C
331
E99
  5
EA1
331
1082
  5
108B
331
10B5
  5
1100
331
10A4
  5
10AD
331
1093
  5
109C
331
ECB
  5
ED2
331
1E0F
  5
1E11
331
F47
  5
F66
331
C1A
  5
C1A
331
B79
  5
B79
  0
LAYOUT
  5
1BF5
102
{ACAD_REACTORS
330
1BEC
102
}
330
1BEC
100
AcDbPlotSettings
  1

  2
\\SVR-07\ptr-peg02
  4

  6

 40
0.0
 41
0.0
 42
0.0
 43
0.0
 44
0.0
 45
0.0
 46
0.0
 47
0.0
 48
0.0
 49
0.0
140
0.0
141
0.0
142
1.0
143
1.0
 70
   688
 72
     0
 73
     0
 74
     5
  7

 75
    16
147
1.0
 76
     0
 77
     2
 78
   300
148
0.0
149
0.0
100
AcDbLayout
  1
Layout1
 70
     0
 71
     1
 10
0.0
 20
0.0
 11
12.0
 21
9.0
 12
0.0
 22
0.0
 32
0.0
 14
1.000000000000000E+20
 24
1.000000000000000E+20
 34
1.000000000000000E+20
 15
-1.000000000000000E+20
 25
-1.000000000000000E+20
 35
-1.000000000000000E+20
146
0.0
 13
0.0
 23
0.0
 33
0.0
 16
1.0
 26
0.0
 36
0.0
 17
0.0
 27
1.0
 37
0.0
 76
     0
330
1BF2
  0
LAYOUT
  5
1BF9
102
{ACAD_XDICTIONARY
360
1E7C
102
}
102
{ACAD_REACTORS
330
1BEC
102
}
330
1BEC
100
AcDbPlotSettings
  1

  2
\\SVR-07\ptr-peg02
  4

  6

 40
0.0
 41
0.0
 42
0.0
 43
0.0
 44
0.0
 45
0.0
 46
0.0
 47
0.0
 48
0.0
 49
0.0
140
0.0
141
0.0
142
1.0
143
1.0
 70
  1712
 72
     0
 73
     0
 74
     0
  7

 75
     0
147
1.0
 76
     0
 77
     2
 78
   300
148
0.0
149
0.0
100
AcDbLayout
  1
Model
 70
     1
 71
     0
 10
0.0
 20
0.0
 11
12.0
 21
9.0
 12
0.0
 22
0.0
 32
0.0
 14
0.0
 24
0.0
 34
0.0
 15
0.0
 25
0.0
 35
0.0
146
0.0
 13
0.0
 23
0.0
 33
0.0
 16
1.0
 26
0.0
 36
0.0
 17
0.0
 27
1.0
 37
0.0
 76
     0
330
1BF6
331
1BFC
  0
MATERIAL
  5
1BA4
102
{ACAD_XDICTIONARY
360
1BA5
102
}
102
{ACAD_REACTORS
330
1B9B
102
}
330
1B9B
100
AcDbMaterial
  1
ByBlock
 72
     0
 43
0.0208333333333333
 43
0.0
 43
0.0
 43
0.0
 43
0.0
 43
0.0208333333333333
 43
0.0
 43
0.0
 43
0.0
 43
0.0
 43
1.0
 43
0.0
 43
0.0
 43
0.0
 43
0.0
 43
1.0
 77
     0
 47
0.0208333333333333
 47
0.0
 47
0.0
 47
0.0
 47
0.0
 47
0.0208333333333333
 47
0.0
 47
0.0
 47
0.0
 47
0.0
 47
1.0
 47
0.0
 47
0.0
 47
0.0
 47
0.0
 47
1.0
171
     0
 49
0.0208333333333333
 49
0.0
 49
0.0
 49
0.0
 49
0.0
 49
0.0208333333333333
 49
0.0
 49
0.0
 49
0.0
 49
0.0
 49
1.0
 49
0.0
 49
0.0
 49
0.0
 49
0.0
 49
1.0
175
     0
142
0.0208333333333333
142
0.0
142
0.0
142
0.0
142
0.0
142
0.0208333333333333
142
0.0
142
0.0
142
0.0
142
0.0
142
1.0
142
0.0
142
0.0
142
0.0
142
0.0
142
1.0
179
     0
144
0.0208333333333333
144
0.0
144
0.0
144
0.0
144
0.0
144
0.0208333333333333
144
0.0
144
0.0
144
0.0
144
0.0
144
1.0
144
0.0
144
0.0
144
0.0
144
0.0
144
1.0
147
0.0208333333333333
147
0.0
147
0.0
147
0.0
147
0.0
147
0.0208333333333333
147
0.0
147
0.0
147
0.0
147
0.0
147
1.0
147
0.0
147
0.0
147
0.0
147
0.0
147
1.0
  0
MATERIAL
  5
1B9C
102
{ACAD_XDICTIONARY
360
1B9D
102
}
102
{ACAD_REACTORS
330
1B9B
102
}
330
1B9B
100
AcDbMaterial
  1
ByLayer
 72
     0
 43
0.0208333333333333
 43
0.0
 43
0.0
 43
0.0
 43
0.0
 43
0.0208333333333333
 43
0.0
 43
0.0
 43
0.0
 43
0.0
 43
1.0
 43
0.0
 43
0.0
 43
0.0
 43
0.0
 43
1.0
 77
     0
 47
0.0208333333333333
 47
0.0
 47
0.0
 47
0.0
 47
0.0
 47
0.0208333333333333
 47
0.0
 47
0.0
 47
0.0
 47
0.0
 47
1.0
 47
0.0
 47
0.0
 47
0.0
 47
0.0
 47
1.0
171
     0
 49
0.0208333333333333
 49
0.0
 49
0.0
 49
0.0
 49
0.0
 49
0.0208333333333333
 49
0.0
 49
0.0
 49
0.0
 49
0.0
 49
1.0
 49
0.0
 49
0.0
 49
0.0
 49
0.0
 49
1.0
175
     0
142
0.0208333333333333
142
0.0
142
0.0
142
0.0
142
0.0
142
0.0208333333333333
142
0.0
142
0.0
142
0.0
142
0.0
142
1.0
142
0.0
142
0.0
142
0.0
142
0.0
142
1.0
179
     0
144
0.0208333333333333
144
0.0
144
0.0
144
0.0
144
0.0
144
0.0208333333333333
144
0.0
144
0.0
144
0.0
144
0.0
144
1.0
144
0.0
144
0.0
144
0.0
144
0.0
144
1.0
147
0.0208333333333333
147
0.0
147
0.0
147
0.0
147
0.0
147
0.0208333333333333
147
0.0
147
0.0
147
0.0
147
0.0
147
1.0
147
0.0
147
0.0
147
0.0
147
0.0
147
1.0
  0
MATERIAL
  5
1BAC
102
{ACAD_XDICTIONARY
360
1BAD
102
}
102
{ACAD_REACTORS
330
1B9B
102
}
330
1B9B
100
AcDbMaterial
  1
Global
 72
     0
 43
0.0208333333333333
 43
0.0
 43
0.0
 43
0.0
 43
0.0
 43
0.0208333333333333
 43
0.0
 43
0.0
 43
0.0
 43
0.0
 43
1.0
 43
0.0
 43
0.0
 43
0.0
 43
0.0
 43
1.0
 77
     0
 47
0.0208333333333333
 47
0.0
 47
0.0
 47
0.0
 47
0.0
 47
0.0208333333333333
 47
0.0
 47
0.0
 47
0.0
 47
0.0
 47
1.0
 47
0.0
 47
0.0
 47
0.0
 47
0.0
 47
1.0
171
     0
 49
0.0208333333333333
 49
0.0
 49
0.0
 49
0.0
 49
0.0
 49
0.0208333333333333
 49
0.0
 49
0.0
 49
0.0
 49
0.0
 49
1.0
 49
0.0
 49
0.0
 49
0.0
 49
0.0
 49
1.0
175
     0
142
0.0208333333333333
142
0.0
142
0.0
142
0.0
142
0.0
142
0.0208333333333333
142
0.0
142
0.0
142
0.0
142
0.0
142
1.0
142
0.0
142
0.0
142
0.0
142
0.0
142
1.0
179
     0
144
0.0208333333333333
144
0.0
144
0.0
144
0.0
144
0.0
144
0.0208333333333333
144
0.0
144
0.0
144
0.0
144
0.0
144
1.0
144
0.0
144
0.0
144
0.0
144
0.0
144
1.0
147
0.0208333333333333
147
0.0
147
0.0
147
0.0
147
0.0
147
0.0208333333333333
147
0.0
147
0.0
147
0.0
147
0.0
147
1.0
147
0.0
147
0.0
147
0.0
147
0.0
147
1.0
  0
MLEADERSTYLE
  5
1BF1
102
{ACAD_REACTORS
330
1BF0
102
}
330
1BF0
100
AcDbMLeaderStyle
170
     2
171
     1
172
     0
 90
        2
 40
0.0
 41
0.0
173
     1
 91
-1056964608
340
1BE5
 92
       -2
290
     1
 42
0.09
291
     1
 43
0.36
  3
Standard
 44
0.18
300

342
1BE0
174
     1
178
     6
175
     1
176
     0
 93
-1056964608
 45
0.18
292
     0
297
     0
 46
0.18
 94
-1056964608
 47
1.0
 49
1.0
140
1.0
293
     1
141
0.0
294
     1
177
     0
142
1.0
295
     0
296
     0
143
0.125
1001
ACAD_MLEADERVER
1070
     2
  0
MLINESTYLE
  5
1BEA
102
{ACAD_REACTORS
330
1BE9
102
}
330
1BE9
100
AcDbMlineStyle
  2
STANDARD
 70
     0
  3

 62
   256
 51
90.0
 52
90.0
 71
     2
 49
0.5
 62
   256
  6
BYLAYER
 49
-0.5
 62
   256
  6
BYLAYER
  0
ACDBPLACEHOLDER
  5
1B9A
102
{ACAD_REACTORS
330
1B99
102
}
330
1B99
  0
SCALE
  5
1BCE
102
{ACAD_REACTORS
330
1BCD
102
}
330
1BCD
100
AcDbScale
 70
     0
300
1:1
140
1.0
141
1.0
290
     1
  0
SCALE
  5
1BCF
102
{ACAD_REACTORS
330
1BCD
102
}
330
1BCD
100
AcDbScale
 70
     0
300
1/128" = 1'-0"
140
0.0078125
141
12.0
290
     0
  0
SCALE
  5
1BD0
102
{ACAD_REACTORS
330
1BCD
102
}
330
1BCD
100
AcDbScale
 70
     0
300
1/64" = 1'-0"
140
0.015625
141
12.0
290
     0
  0
SCALE
  5
1BD1
102
{ACAD_REACTORS
330
1BCD
102
}
330
1BCD
100
AcDbScale
 70
     0
300
1/32" = 1'-0"
140
0.03125
141
12.0
290
     0
  0
SCALE
  5
1BD2
102
{ACAD_REACTORS
330
1BCD
102
}
330
1BCD
100
AcDbScale
 70
     0
300
1/16" = 1'-0"
140
0.0625
141
12.0
290
     0
  0
SCALE
  5
1BD3
102
{ACAD_REACTORS
330
1BCD
102
}
330
1BCD
100
AcDbScale
 70
     0
300
3/32" = 1'-0"
140
0.09375
141
12.0
290
     0
  0
SCALE
  5
1BD4
102
{ACAD_REACTORS
330
1BCD
102
}
330
1BCD
100
AcDbScale
 70
     0
300
1/8" = 1'-0"
140
0.125
141
12.0
290
     0
  0
SCALE
  5
1BD5
102
{ACAD_REACTORS
330
1BCD
102
}
330
1BCD
100
AcDbScale
 70
     0
300
3/16" = 1'-0"
140
0.1875
141
12.0
290
     0
  0
SCALE
  5
1BD6
102
{ACAD_REACTORS
330
1BCD
102
}
330
1BCD
100
AcDbScale
 70
     0
300
1/4" = 1'-0"
140
0.25
141
12.0
290
     0
  0
SCALE
  5
1BD7
102
{ACAD_REACTORS
330
1BCD
102
}
330
1BCD
100
AcDbScale
 70
     0
300
3/8" = 1'-0"
140
0.375
141
12.0
290
     0
  0
SCALE
  5
1BD8
102
{ACAD_REACTORS
330
1BCD
102
}
330
1BCD
100
AcDbScale
 70
     0
300
1/2" = 1'-0"
140
0.5
141
12.0
290
     0
  0
SCALE
  5
1BD9
102
{ACAD_REACTORS
330
1BCD
102
}
330
1BCD
100
AcDbScale
 70
     0
300
3/4" = 1'-0"
140
0.75
141
12.0
290
     0
  0
SCALE
  5
1BDA
102
{ACAD_REACTORS
330
1BCD
102
}
330
1BCD
100
AcDbScale
 70
     0
300
1" = 1'-0"
140
1.0
141
12.0
290
     0
  0
SCALE
  5
1BDB
102
{ACAD_REACTORS
330
1BCD
102
}
330
1BCD
100
AcDbScale
 70
     0
300
1-1/2" = 1'-0"
140
1.5
141
12.0
290
     0
  0
SCALE
  5
1BDC
102
{ACAD_REACTORS
330
1BCD
102
}
330
1BCD
100
AcDbScale
 70
     0
300
3" = 1'-0"
140
3.0
141
12.0
290
     0
  0
SCALE
  5
1BDD
102
{ACAD_REACTORS
330
1BCD
102
}
330
1BCD
100
AcDbScale
 70
     0
300
6" = 1'-0"
140
6.0
141
12.0
290
     0
  0
SCALE
  5
1BDE
102
{ACAD_REACTORS
330
1BCD
102
}
330
1BCD
100
AcDbScale
 70
     0
300
1'-0" = 1'-0"
140
12.0
141
12.0
290
     0
  0
TABLESTYLE
  5
1BEF
102
{ACAD_XDICTIONARY
360
1E83
102
}
102
{ACAD_REACTORS
330
1BEE
102
}
330
1BEE
100
AcDbTableStyle
  3
Standard
 70
     0
 71
     0
 40
0.06
 41
0.06
280
     0
281
     0
  7
STANDARD
140
0.18
170
     2
 62
     0
 63
     7
283
     0
274
    -2
284
     1
 64
     0
275
    -2
285
     1
 65
     0
276
    -2
286
     1
 66
     0
277
    -2
287
     1
 67
     0
278
    -2
288
     1
 68
     0
279
    -2
289
     1
 69
     0
  7
STANDARD
140
0.25
170
     5
 62
     0
 63
     7
283
     0
274
    -2
284
     1
 64
     0
275
    -2
285
     1
 65
     0
276
    -2
286
     1
 66
     0
277
    -2
287
     1
 67
     0
278
    -2
288
     1
 68
     0
279
    -2
289
     1
 69
     0
  7
STANDARD
140
0.18
170
     5
 62
     0
 63
     7
283
     0
274
    -2
284
     1
 64
     0
275
    -2
285
     1
 65
     0
276
    -2
286
     1
 66
     0
277
    -2
287
     1
 67
     0
278
    -2
288
     1
 68
     0
279
    -2
289
     1
 69
     0
  0
VISUALSTYLE
  5
1BBA
102
{ACAD_XDICTIONARY
360
1E93
102
}
102
{ACAD_REACTORS
330
1BB4
102
}
330
1BB4
100
AcDbVisualStyle
  2
2dWireframe
 70
     4
 71
     0
 72
     2
 73
     0
 90
        0
 40
-0.6
 41
-30.0
 62
     5
 63
     7
421
 16777215
 74
     1
 91
        4
 64
     7
 65
   257
 75
     1
175
     1
 42
1.0
 92
        0
 66
   257
 43
1.0
 76
     1
 77
     6
 78
     2
 67
     7
 79
     5
170
     0
171
     0
290
     0
174
     0
 93
        1
 44
0.0
173
     0
291
     0
 45
0.0
1001
ACAD
1000
AcDbSavedByObjectVersion
1070
     0
  0
VISUALSTYLE
  5
1BB9
102
{ACAD_XDICTIONARY
360
1E91
102
}
102
{ACAD_REACTORS
330
1BB4
102
}
330
1BB4
100
AcDbVisualStyle
  2
Basic
 70
     7
 71
     1
 72
     0
 73
     1
 90
        0
 40
-0.6
 41
-30.0
 62
     5
 63
     7
421
 16777215
 74
     0
 91
        4
 64
     7
 65
   257
 75
     1
175
     1
 42
1.0
 92
        8
 66
     7
 43
1.0
 76
     1
 77
     6
 78
     2
 67
     7
 79
     5
170
     0
171
     0
290
     0
174
     0
 93
        1
 44
0.0
173
     0
291
     1
 45
0.0
1001
ACAD
1000
AcDbSavedByObjectVersion
1070
     0
  0
VISUALSTYLE
  5
1BC0
102
{ACAD_XDICTIONARY
360
1E9F
102
}
102
{ACAD_REACTORS
330
1BB4
102
}
330
1BB4
100
AcDbVisualStyle
  2
Brighten
 70
    12
 71
     2
 72
     2
 73
     0
 90
        0
 40
-0.6
 41
-30.0
 62
     5
 63
     7
421
 16777215
 74
     1
 91
        4
 64
     7
 65
   257
 75
     1
175
     1
 42
1.0
 92
        8
 66
     7
 43
1.0
 76
     1
 77
     6
 78
     2
 67
     7
 79
     5
170
     0
171
     0
290
     0
174
     0
 93
        1
 44
50.0
173
     0
291
     1
 45
0.0
1001
ACAD
1000
AcDbSavedByObjectVersion
1070
     0
  0
VISUALSTYLE
  5
1BC4
102
{ACAD_XDICTIONARY
360
1EA7
102
}
102
{ACAD_REACTORS
330
1BB4
102
}
330
1BB4
100
AcDbVisualStyle
  2
ColorChange
 70
    16
 71
     2
 72
     2
 73
     3
 90
        0
 40
-0.6
 41
-30.0
 62
     5
 63
     8
421
  8421504
 74
     1
 91
        4
 64
     7
 65
   257
 75
     1
175
     1
 42
1.0
 92
        8
 66
     8
424
  8421504
 43
1.0
 76
     1
 77
     6
 78
     2
 67
     7
 79
     5
170
     0
171
     0
290
     0
174
     0
 93
        1
 44
0.0
173
     0
291
     1
 45
0.0
1001
ACAD
1000
AcDbSavedByObjectVersion
1070
     0
  0
VISUALSTYLE
  5
1BBD
102
{ACAD_XDICTIONARY
360
1E99
102
}
102
{ACAD_REACTORS
330
1BB4
102
}
330
1BB4
100
AcDbVisualStyle
  2
Conceptual
 70
     9
 71
     3
 72
     2
 73
     0
 90
        0
 40
-0.6
 41
-30.0
 62
     5
 63
     7
421
 16777215
 74
     2
 91
        2
 64
     7
 65
   257
 75
     1
175
     1
 42
179.0
 92
        8
 66
     7
 43
1.0
 76
     1
 77
     6
 78
     2
 67
     7
 79
     3
170
     0
171
     0
290
     0
174
     0
 93
        1
 44
0.0
173
     0
291
     0
 45
0.0
1001
ACAD
1000
AcDbSavedByObjectVersion
1070
     0
  0
VISUALSTYLE
  5
1BBF
102
{ACAD_XDICTIONARY
360
1E9D
102
}
102
{ACAD_REACTORS
330
1BB4
102
}
330
1BB4
100
AcDbVisualStyle
  2
Dim
 70
    11
 71
     2
 72
     2
 73
     0
 90
        0
 40
-0.6
 41
-30.0
 62
     5
 63
     7
421
 16777215
 74
     1
 91
        4
 64
     7
 65
   257
 75
     1
175
     1
 42
1.0
 92
        8
 66
     7
 43
1.0
 76
     1
 77
     6
 78
     2
 67
     7
 79
     5
170
     0
171
     0
290
     0
174
     0
 93
        1
 44
-50.0
173
     0
291
     1
 45
0.0
1001
ACAD
1000
AcDbSavedByObjectVersion
1070
     0
  0
VISUALSTYLE
  5
1BCC
102
{ACAD_XDICTIONARY
360
1EB7
102
}
102
{ACAD_REACTORS
330
1BB4
102
}
330
1BB4
100
AcDbVisualStyle
  2
EdgeColorOff
 70
    22
 71
     2
 72
     2
 73
     0
 90
        0
 40
-0.6
 41
-30.0
 62
     5
 63
     7
421
 16777215
 74
     1
 91
        4
 64
     7
 65
   257
 75
     1
175
     1
 42
1.0
 92
        8
 66
     7
 43
1.0
 76
     1
 77
     6
 78
     2
 67
     7
 79
     5
170
     0
171
     0
290
     0
174
     0
 93
        1
 44
0.0
173
     0
291
     1
 45
0.0
1001
ACAD
1000
AcDbSavedByObjectVersion
1070
     0
  0
VISUALSTYLE
  5
1BC3
102
{ACAD_XDICTIONARY
360
1EA5
102
}
102
{ACAD_REACTORS
330
1BB4
102
}
330
1BB4
100
AcDbVisualStyle
  2
Facepattern
 70
    15
 71
     2
 72
     2
 73
     0
 90
        0
 40
-0.6
 41
-30.0
 62
     5
 63
     7
421
 16777215
 74
     1
 91
        4
 64
     7
 65
   257
 75
     1
175
     1
 42
1.0
 92
        8
 66
     7
 43
1.0
 76
     1
 77
     6
 78
     2
 67
     7
 79
     5
170
     0
171
     0
290
     0
174
     0
 93
        1
 44
0.0
173
     0
291
     1
 45
0.0
1001
ACAD
1000
AcDbSavedByObjectVersion
1070
     0
  0
VISUALSTYLE
  5
1BB5
102
{ACAD_XDICTIONARY
360
1E89
102
}
102
{ACAD_REACTORS
330
1BB4
102
}
330
1BB4
100
AcDbVisualStyle
  2
Flat
 70
     0
 71
     2
 72
     1
 73
     1
 90
        2
 40
-0.6
 41
30.0
 62
     5
 63
     7
421
 16777215
 74
     0
 91
        0
 64
     7
 65
   257
 75
     1
175
     1
 42
1.0
 92
        8
 66
     7
 43
1.0
 76
     1
 77
     6
 78
     2
 67
     7
 79
     5
170
     0
171
     0
290
     0
174
     0
 93
       13
 44
0.0
173
     0
291
     1
 45
0.0
1001
ACAD
1000
AcDbSavedByObjectVersion
1070
     0
  0
VISUALSTYLE
  5
1BB6
102
{ACAD_XDICTIONARY
360
1E8B
102
}
102
{ACAD_REACTORS
330
1BB4
102
}
330
1BB4
100
AcDbVisualStyle
  2
FlatWithEdges
 70
     1
 71
     2
 72
     1
 73
     1
 90
        2
 40
-0.6
 41
30.0
 62
     5
 63
     7
421
 16777215
 74
     1
 91
        0
 64
     7
 65
   257
 75
     1
175
     1
 42
1.0
 92
        0
 66
   257
 43
1.0
 76
     1
 77
     6
 78
     2
 67
     7
 79
     5
170
     0
171
     0
290
     0
174
     0
 93
       13
 44
0.0
173
     0
291
     1
 45
0.0
1001
ACAD
1000
AcDbSavedByObjectVersion
1070
     0
  0
VISUALSTYLE
  5
1BB7
102
{ACAD_XDICTIONARY
360
1E8D
102
}
102
{ACAD_REACTORS
330
1BB4
102
}
330
1BB4
100
AcDbVisualStyle
  2
Gouraud
 70
     2
 71
     2
 72
     2
 73
     1
 90
        2
 40
-0.6
 41
30.0
 62
     5
 63
     7
421
 16777215
 74
     0
 91
        0
 64
     7
 65
   257
 75
     1
175
     1
 42
1.0
 92
        0
 66
     7
 43
1.0
 76
     1
 77
     6
 78
     2
 67
     7
 79
     5
170
     0
171
     0
290
     0
174
     0
 93
       13
 44
0.0
173
     0
291
     1
 45
0.0
1001
ACAD
1000
AcDbSavedByObjectVersion
1070
     0
  0
VISUALSTYLE
  5
1BB8
102
{ACAD_XDICTIONARY
360
1E8F
102
}
102
{ACAD_REACTORS
330
1BB4
102
}
330
1BB4
100
AcDbVisualStyle
  2
GouraudWithEdges
 70
     3
 71
     2
 72
     2
 73
     1
 90
        2
 40
-0.6
 41
30.0
 62
     5
 63
     7
421
 16777215
 74
     1
 91
        0
 64
     7
 65
   257
 75
     1
175
     1
 42
1.0
 92
        0
 66
   257
 43
1.0
 76
     1
 77
     6
 78
     2
 67
     7
 79
     5
170
     0
171
     0
290
     0
174
     0
 93
       13
 44
0.0
173
     0
291
     1
 45
0.0
1001
ACAD
1000
AcDbSavedByObjectVersion
1070
     0
  0
VISUALSTYLE
  5
1BBC
102
{ACAD_XDICTIONARY
360
1E97
102
}
102
{ACAD_REACTORS
330
1BB4
102
}
330
1BB4
100
AcDbVisualStyle
  2
Hidden
 70
     6
 71
     1
 72
     2
 73
     2
 90
        0
 40
-0.6
 41
-30.0
 62
     5
 63
     7
421
 16777215
 74
     2
 91
        2
 64
     7
 65
   257
 75
     2
175
     1
 42
40.0
 92
        0
 66
   257
 43
1.0
 76
     1
 77
     6
 78
     2
 67
     7
 79
     3
170
     0
171
     0
290
     0
174
     0
 93
        1
 44
0.0
173
     0
291
     0
 45
0.0
1001
ACAD
1000
AcDbSavedByObjectVersion
1070
     0
  0
VISUALSTYLE
  5
1BCA
102
{ACAD_XDICTIONARY
360
1EB3
102
}
102
{ACAD_REACTORS
330
1BB4
102
}
330
1BB4
100
AcDbVisualStyle
  2
JitterOff
 70
    20
 71
     2
 72
     2
 73
     0
 90
        0
 40
-0.6
 41
-30.0
 62
     5
 63
     7
421
 16777215
 74
     1
 91
        4
 64
     7
 65
   257
 75
     1
175
     1
 42
1.0
 92
       10
 66
     7
 43
1.0
 76
     1
 77
     6
 78
     2
 67
     7
 79
     5
170
     0
171
     0
290
     0
174
     0
 93
        1
 44
0.0
173
     0
291
     1
 45
0.0
1001
ACAD
1000
AcDbSavedByObjectVersion
1070
     0
  0
VISUALSTYLE
  5
1BC2
102
{ACAD_XDICTIONARY
360
1EA3
102
}
102
{ACAD_REACTORS
330
1BB4
102
}
330
1BB4
100
AcDbVisualStyle
  2
Linepattern
 70
    14
 71
     2
 72
     2
 73
     0
 90
        0
 40
-0.6
 41
-30.0
 62
     5
 63
     7
421
 16777215
 74
     1
 91
        4
 64
     7
 65
   257
 75
     7
175
     7
 42
1.0
 92
        8
 66
     7
 43
1.0
 76
     1
 77
     6
 78
     2
 67
     7
 79
     5
170
     0
171
     0
290
     0
174
     0
 93
        1
 44
0.0
173
     0
291
     1
 45
0.0
1001
ACAD
1000
AcDbSavedByObjectVersion
1070
     0
  0
VISUALSTYLE
  5
1BCB
102
{ACAD_XDICTIONARY
360
1EB5
102
}
102
{ACAD_REACTORS
330
1BB4
102
}
330
1BB4
100
AcDbVisualStyle
  2
OverhangOff
 70
    21
 71
     2
 72
     2
 73
     0
 90
        0
 40
-0.6
 41
-30.0
 62
     5
 63
     7
421
 16777215
 74
     1
 91
        4
 64
     7
 65
   257
 75
     1
175
     1
 42
1.0
 92
        9
 66
     7
 43
1.0
 76
     1
 77
     6
 78
     2
 67
     7
 79
     5
170
     0
171
     0
290
     0
174
     0
 93
        1
 44
0.0
173
     0
291
     1
 45
0.0
1001
ACAD
1000
AcDbSavedByObjectVersion
1070
     0
  0
VISUALSTYLE
  5
1BBE
102
{ACAD_XDICTIONARY
360
1E9B
102
}
102
{ACAD_REACTORS
330
1BB4
102
}
330
1BB4
100
AcDbVisualStyle
  2
Realistic
 70
     8
 71
     2
 72
     3
 73
     0
 90
        2
 40
-0.6
 41
30.0
 62
     5
 63
     7
421
 16777215
 74
     0
 91
        0
 64
     7
 65
   257
 75
     1
175
     1
 42
1.0
 92
        8
 66
   257
 43
1.0
 76
     1
 77
     6
 78
     2
 67
     7
 79
     3
170
     0
171
     0
290
     0
174
     0
 93
       13
 44
0.0
173
     0
291
     0
 45
0.0
1001
ACAD
1000
AcDbSavedByObjectVersion
1070
     0
  0
VISUALSTYLE
  5
1BC9
102
{ACAD_XDICTIONARY
360
1EB1
102
}
102
{ACAD_REACTORS
330
1BB4
102
}
330
1BB4
100
AcDbVisualStyle
  2
Shaded
 70
    27
 71
     2
 72
     2
 73
     1
 90
        2
 40
-0.6
 41
30.0
 62
     5
 63
     7
421
 16777215
 74
     0
 91
        4
 64
     7
 65
   257
 75
     1
175
     1
 42
1.0
 92
        8
 66
   257
 43
1.0
 76
     1
 77
     6
 78
     2
 67
     8
425
  7895160
 79
     3
170
     0
171
     0
290
     0
174
     0
 93
        5
 44
0.0
173
     0
291
     0
 45
0.0
1001
ACAD
1000
AcDbSavedByObjectVersion
1070
     0
  0
VISUALSTYLE
  5
1BC8
102
{ACAD_XDICTIONARY
360
1EAF
102
}
102
{ACAD_REACTORS
330
1BB4
102
}
330
1BB4
100
AcDbVisualStyle
  2
Shaded with edges
 70
    26
 71
     2
 72
     2
 73
     1
 90
        2
 40
-0.6
 41
30.0
 62
     5
 63
     7
421
 16777215
 74
     1
 91
       10
 64
     7
 65
   257
 75
     2
175
     1
 42
1.0
 92
        8
 66
   257
 43
1.0
 76
     1
 77
     6
 78
     2
 67
     7
 79
     3
170
     0
171
     0
290
     0
174
     0
 93
        5
 44
0.0
173
     0
291
     0
 45
0.0
1001
ACAD
1000
AcDbSavedByObjectVersion
1070
     0
  0
VISUALSTYLE
  5
1BC5
102
{ACAD_XDICTIONARY
360
1EA9
102
}
102
{ACAD_REACTORS
330
1BB4
102
}
330
1BB4
100
AcDbVisualStyle
  2
Shades of Gray
 70
    23
 71
     2
 72
     2
 73
     3
 90
        0
 40
-0.6
 41
-30.0
 62
     5
 63
     7
421
 16777215
 74
     2
 91
        2
 64
     7
 65
     7
 75
     1
175
     1
 42
40.0
 92
        8
 66
     7
 43
1.0
 76
     1
 77
     6
 78
     2
 67
     7
 79
     3
170
     0
171
     0
290
     0
174
     0
 93
        1
 44
0.0
173
     0
291
     0
 45
0.0
1001
ACAD
1000
AcDbSavedByObjectVersion
1070
     0
  0
VISUALSTYLE
  5
1BC6
102
{ACAD_XDICTIONARY
360
1EAB
102
}
102
{ACAD_REACTORS
330
1BB4
102
}
330
1BB4
100
AcDbVisualStyle
  2
Sketchy
 70
    24
 71
     1
 72
     2
 73
     2
 90
        0
 40
-0.6
 41
-30.0
 62
     5
 63
     7
421
 16777215
 74
     2
 91
        2
 64
     7
 65
     7
 75
     1
175
     1
 42
40.0
 92
       11
 66
     7
 43
1.0
 76
     1
 77
     6
 78
     2
 67
     7
 79
     6
170
     0
171
     0
290
     0
174
     0
 93
        1
 44
0.0
173
     0
291
     0
 45
0.0
1001
ACAD
1000
AcDbSavedByObjectVersion
1070
     0
  0
VISUALSTYLE
  5
1BC1
102
{ACAD_XDICTIONARY
360
1EA1
102
}
102
{ACAD_REACTORS
330
1BB4
102
}
330
1BB4
100
AcDbVisualStyle
  2
Thicken
 70
    13
 71
     2
 72
     2
 73
     0
 90
        0
 40
-0.6
 41
-30.0
 62
     5
 63
     7
421
 16777215
 74
     1
 91
        4
 64
     7
 65
   257
 75
     1
175
     1
 42
1.0
 92
       12
 66
     7
 43
1.0
 76
     1
 77
     6
 78
     2
 67
     7
 79
     5
170
     0
171
     0
290
     0
174
     0
 93
        1
 44
0.0
173
     0
291
     1
 45
0.0
1001
ACAD
1000
AcDbSavedByObjectVersion
1070
     0
  0
VISUALSTYLE
  5
1BBB
102
{ACAD_XDICTIONARY
360
1E95
102
}
102
{ACAD_REACTORS
330
1BB4
102
}
330
1BB4
100
AcDbVisualStyle
  2
Wireframe
 70
     5
 71
     0
 72
     2
 73
     0
 90
        0
 40
-0.6
 41
-30.0
 62
     5
 63
     7
421
 16777215
 74
     1
 91
        4
 64
     7
 65
   257
 75
     1
175
     1
 42
1.0
 92
        0
 66
   257
 43
1.0
 76
     1
 77
     6
 78
     2
 67
     7
 79
     3
170
     0
171
     0
290
     0
174
     0
 93
        1
 44
0.0
173
     0
291
     0
 45
0.0
1001
ACAD
1000
AcDbSavedByObjectVersion
1070
     0
  0
VISUALSTYLE
  5
1BC7
102
{ACAD_XDICTIONARY
360
1EAD
102
}
102
{ACAD_REACTORS
330
1BB4
102
}
330
1BB4
100
AcDbVisualStyle
  2
X-Ray
 70
    25
 71
     2
 72
     2
 73
     1
 90
        1
 40
0.5
 41
-30.0
 62
     5
 63
     7
421
 16777215
 74
     1
 91
        0
 64
     7
 65
   257
 75
     1
175
     1
 42
1.0
 92
        8
 66
     7
 43
1.0
 76
     1
 77
     6
 78
     2
 67
     7
 79
     3
170
     0
171
     0
290
     0
174
     0
 93
       13
 44
0.0
173
     0
291
     0
 45
0.0
1001
ACAD
1000
AcDbSavedByObjectVersion
1070
     0
  0
DICTIONARYVAR
  5
1E81
102
{ACAD_REACTORS
330
1E7E
102
}
330
1E7E
100
DictionaryVariables
280
     0
  1
1:1
  0
DICTIONARYVAR
  5
1E80
102
{ACAD_REACTORS
330
1E7E
102
}
330
1E7E
100
DictionaryVariables
280
     0
  1
STANDARD
  0
DICTIONARYVAR
  5
1E7F
102
{ACAD_REACTORS
330
1E7E
102
}
330
1E7E
100
DictionaryVariables
280
     0
  1
STANDARD
  0
DICTIONARYVAR
  5
1E82
102
{ACAD_REACTORS
330
1E7E
102
}
330
1E7E
100
DictionaryVariables
280
     0
  1
2
  0
DICTIONARY
  5
1CAC
102
{ACAD_REACTORS
330
1CA3
102
}
330
1CA3
100
AcDbDictionary
281
     1
  0
DICTIONARY
  5
1E7C
330
1BF9
100
AcDbDictionary
280
     1
281
     1
  3
ADSK_XREC_LAYOUTTHUMBNAIL
360
1E7D
  0
DICTIONARY
  5
1BA5
330
1BA4
100
AcDbDictionary
280
     1
281
     1
  3
ACAD_XREC_ROUNDTRIP
360
1E87
  3
BUMPTILE
360
1BA7
  3
DIFFUSETILE
360
1BA6
  3
OPACITYTILE
360
1BAA
  3
REFLECTIONTILE
360
1BA9
  3
REFRACTIONTILE
360
1BAB
  3
SPECULARTILE
360
1BA8
  0
DICTIONARY
  5
1B9D
330
1B9C
100
AcDbDictionary
280
     1
281
     1
  3
ACAD_XREC_ROUNDTRIP
360
1E86
  3
BUMPTILE
360
1B9F
  3
DIFFUSETILE
360
1B9E
  3
OPACITYTILE
360
1BA2
  3
REFLECTIONTILE
360
1BA1
  3
REFRACTIONTILE
360
1BA3
  3
SPECULARTILE
360
1BA0
  0
DICTIONARY
  5
1BAD
330
1BAC
100
AcDbDictionary
280
     1
281
     1
  3
ACAD_XREC_ROUNDTRIP
360
1E88
  3
BUMPTILE
360
1BAF
  3
DIFFUSETILE
360
1BAE
  3
OPACITYTILE
360
1BB2
  3
REFLECTIONTILE
360
1BB1
  3
REFRACTIONTILE
360
1BB3
  3
SPECULARTILE
360
1BB0
  0
DICTIONARY
  5
1E83
330
1BEF
100
AcDbDictionary
280
     1
281
     1
  3
ACAD_ROUNDTRIP_2008_TABLESTYLE_CELLSTYLEMAP
360
1E84
  3
ACAD_XREC_ROUNDTRIP
360
1EB9
  0
DICTIONARY
  5
1E93
330
1BBA
100
AcDbDictionary
280
     1
281
     1
  3
ACAD_XREC_ROUNDTRIP
360
1E94
  0
DICTIONARY
  5
1E91
330
1BB9
100
AcDbDictionary
280
     1
281
     1
  3
ACAD_XREC_ROUNDTRIP
360
1E92
  0
DICTIONARY
  5
1E9F
330
1BC0
100
AcDbDictionary
280
     1
281
     1
  3
ACAD_XREC_ROUNDTRIP
360
1EA0
  0
DICTIONARY
  5
1EA7
330
1BC4
100
AcDbDictionary
280
     1
281
     1
  3
ACAD_XREC_ROUNDTRIP
360
1EA8
  0
DICTIONARY
  5
1E99
330
1BBD
100
AcDbDictionary
280
     1
281
     1
  3
ACAD_XREC_ROUNDTRIP
360
1E9A
  0
DICTIONARY
  5
1E9D
330
1BBF
100
AcDbDictionary
280
     1
281
     1
  3
ACAD_XREC_ROUNDTRIP
360
1E9E
  0
DICTIONARY
  5
1EB7
330
1BCC
100
AcDbDictionary
280
     1
281
     1
  3
ACAD_XREC_ROUNDTRIP
360
1EB8
  0
DICTIONARY
  5
1EA5
330
1BC3
100
AcDbDictionary
280
     1
281
     1
  3
ACAD_XREC_ROUNDTRIP
360
1EA6
  0
DICTIONARY
  5
1E89
330
1BB5
100
AcDbDictionary
280
     1
281
     1
  3
ACAD_XREC_ROUNDTRIP
360
1E8A
  0
DICTIONARY
  5
1E8B
330
1BB6
100
AcDbDictionary
280
     1
281
     1
  3
ACAD_XREC_ROUNDTRIP
360
1E8C
  0
DICTIONARY
  5
1E8D
330
1BB7
100
AcDbDictionary
280
     1
281
     1
  3
ACAD_XREC_ROUNDTRIP
360
1E8E
  0
DICTIONARY
  5
1E8F
330
1BB8
100
AcDbDictionary
280
     1
281
     1
  3
ACAD_XREC_ROUNDTRIP
360
1E90
  0
DICTIONARY
  5
1E97
330
1BBC
100
AcDbDictionary
280
     1
281
     1
  3
ACAD_XREC_ROUNDTRIP
360
1E98
  0
DICTIONARY
  5
1EB3
330
1BCA
100
AcDbDictionary
280
     1
281
     1
  3
ACAD_XREC_ROUNDTRIP
360
1EB4
  0
DICTIONARY
  5
1EA3
330
1BC2
100
AcDbDictionary
280
     1
281
     1
  3
ACAD_XREC_ROUNDTRIP
360
1EA4
  0
DICTIONARY
  5
1EB5
330
1BCB
100
AcDbDictionary
280
     1
281
     1
  3
ACAD_XREC_ROUNDTRIP
360
1EB6
  0
DICTIONARY
  5
1E9B
330
1BBE
100
AcDbDictionary
280
     1
281
     1
  3
ACAD_XREC_ROUNDTRIP
360
1E9C
  0
DICTIONARY
  5
1EB1
330
1BC9
100
AcDbDictionary
280
     1
281
     1
  3
ACAD_XREC_ROUNDTRIP
360
1EB2
  0
DICTIONARY
  5
1EAF
330
1BC8
100
AcDbDictionary
280
     1
281
     1
  3
ACAD_XREC_ROUNDTRIP
360
1EB0
  0
DICTIONARY
  5
1EA9
330
1BC5
100
AcDbDictionary
280
     1
281
     1
  3
ACAD_XREC_ROUNDTRIP
360
1EAA
  0
DICTIONARY
  5
1EAB
330
1BC6
100
AcDbDictionary
280
     1
281
     1
  3
ACAD_XREC_ROUNDTRIP
360
1EAC
  0
DICTIONARY
  5
1EA1
330
1BC1
100
AcDbDictionary
280
     1
281
     1
  3
ACAD_XREC_ROUNDTRIP
360
1EA2
  0
DICTIONARY
  5
1E95
330
1BBB
100
AcDbDictionary
280
     1
281
     1
  3
ACAD_XREC_ROUNDTRIP
360
1E96
  0
DICTIONARY
  5
1EAD
330
1BC7
100
AcDbDictionary
280
     1
281
     1
  3
ACAD_XREC_ROUNDTRIP
360
1EAE
  0
XRECORD
  5
1E7D
102
{ACAD_REACTORS
330
1E7C
102
}
330
1E7C
100
AcDbXrecord
280
     1
310
280000000001000096000000010008000000000000960000000000000000000000010000000000000000000000000000FFFFFF000000000000000000000000000000000000000000000000000000000000000000330000006600000099000000CC000000FF00000000330000333300006633000099330000CC330000FF3300
310
0000660000336600006666000099660000CC660000FF66000000990000339900006699000099990000CC990000FF99000000CC000033CC000066CC000099CC0000CCCC0000FFCC000000FF000033FF000066FF000099FF0000CCFF0000FFFF000000003300330033006600330099003300CC003300FF003300003333003333
310
33006633330099333300CC333300FF33330000663300336633006666330099663300CC663300FF66330000993300339933006699330099993300CC993300FF99330000CC330033CC330066CC330099CC3300CCCC3300FFCC330000FF330033FF330066FF330099FF3300CCFF3300FFFF330000006600330066006600660099
310
006600CC006600FF00660000336600333366006633660099336600CC336600FF33660000666600336666006666660099666600CC666600FF66660000996600339966006699660099996600CC996600FF99660000CC660033CC660066CC660099CC6600CCCC6600FFCC660000FF660033FF660066FF660099FF6600CCFF6600
310
FFFF660000009900330099006600990099009900CC009900FF00990000339900333399006633990099339900CC339900FF33990000669900336699006666990099669900CC669900FF66990000999900339999006699990099999900CC999900FF99990000CC990033CC990066CC990099CC9900CCCC9900FFCC990000FF99
310
0033FF990066FF990099FF9900CCFF9900FFFF99000000CC003300CC006600CC009900CC00CC00CC00FF00CC000033CC003333CC006633CC009933CC00CC33CC00FF33CC000066CC003366CC006666CC009966CC00CC66CC00FF66CC000099CC003399CC006699CC009999CC00CC99CC00FF99CC0000CCCC0033CCCC0066CC
310
CC0099CCCC00CCCCCC00FFCCCC0000FFCC0033FFCC0066FFCC0099FFCC00CCFFCC00FFFFCC000000FF003300FF006600FF009900FF00CC00FF00FF00FF000033FF003333FF006633FF009933FF00CC33FF00FF33FF000066FF003366FF006666FF009966FF00CC66FF00FF66FF000099FF003399FF006699FF009999FF00CC
310
99FF00FF99FF0000CCFF0033CCFF0066CCFF0099CCFF00CCCCFF00FFCCFF0000FFFF0033FFFF0066FFFF0099FFFF00CCFFFF00FFFFFF00000000000D0D0D001A1A1A00282828003535350043434300505050005D5D5D006B6B6B00787878008686860093939300A1A1A100AEAEAE00BBBBBB00C9C9C900D6D6D600E4E4E400
310
F1F1F100FFFFFF000000000000000000000000000000000000000000000000000000000000000000000000000000000000000000000000000000000000000000000000000000000000000000000000000000000000000000000000000000000000F5F5F5F5F5F5F5F5F5F5F5F5F5F5F5F5F5F5F5F5F5F5F5F5F5F5F5F5F5F5
310
F5F5F5F5F5F5F5F5F5F5F5F5F5F5F5F5F5F5F5F5F5F5F5F5F5F5F5F5F5F5F5F5F5F5F5F5F5F5F5F5F5F5F5F5F5F5F5F5F5F5F5F5F5F5F5F5F5F5F5F5F5F5F5F5F5F5F5F5F5F5F5F5F5F5F5F5F5F5F5F5F5F5F5F5F5F5F5F5F5F5F5F5F5F5F5F5F5F5F5F5F5F5F5F5F5F5F5F5F5F5F5F5F5F5F5F5F5F5F5F5F5F5F5F5F5F5F5
310
F50000000000000000000000000000000000000000000000000000000000000000000000000000000000000000000000000000000000000000000000000000000000000000000000000000000000000000000000000000000000000000000000000000F5000000000000000000000000000000000000000000000000000000
310
00000000000000000000000000000000000000000000000000000000000000000000000000000000000000000000000000000000000000000000000000000000000000000000000000000000000000000000000000000000000000000000000000000000000000000000000000000000000000000000000000000000000000
310
0000F50000000000000000000000000000000000000000000000000000000000000000000000000000000000000000000000000000000000000000000000000000000000000000000000000000000000000000000000000000000000000000000000000000F500000000000000000000000000000000000000000000000000
310
000000000000000000000000000000000000000000000000000000000000000000000000000000000000000000000000000000000000F5F5F5F5F5F5F5F5F5F5F5F5F5F5F5F5F5F5F5F5F5F5F5F5F5F5F5F5F5F5F5F5F5F5F5F5F5F5F5F5F5F5F5F5F5F5F5F5F5F5F5F5F5F5F5F5F5F5F5F5F5F5F5F5F5F5F5F5F5F5F5F5F5
310
F5F50000F50000000000000000000000000000000000000000000000000000000000000000000000000000000000000000000000000000000000000000000000000000000000000000000000000000000000000000000000000000000000000000000000000000F50000000000000000000000000000000000000000000000
310
0000000000290000000000000000000000000000000000000000000000000000000000000000000000000000000000000000000000000000F5000000000000000000000000000000000000000000000000000000000000000000000000000000000000F5000000000000000000000000000000000000000000F50000000000
310
000000F50000F50000000000000000000000000000000000000000000000000000000000000000000000000000000000000000000000000000000000000000000000000000000000000000000000000000000000000000000000000000000000000000000000000000F5000000002929292929292929292929292900292929
310
29000029292929292929292929290000000000000000000000000000000000000000000000000000000000000000000000000000000000000000F500F5F5F5F5F5F5F5F5000000002929292929000000000000000000000000000000000000000000000000F5000000000000000000000000000000000000000000F5000000
310
0000000000F50000F50000000000000000000000000000000000000000000000000000000000000000000000000000000000000000000000000000000000000000000000000000000000000000000000000000000000000000000000000000000000000000000000000000F500000000292900292929292929292929290029
310
292929000029292929292929292929290000000000000000000000000000000000000000000000000000000000000000000000000000000000000000F500F5F5F5F5F5F5F5F5000000292929292929000000000000000000000000000000000000000000000000F5290029002900290029000000002900290000002900F500
310
00000000000000F50000F50000000000000000000000000000000000000000000000000000000000000000000000000000000000000000000000000000000000000000000000000000000000000000000000000000000000000000000000000000000000000000000000000000F50000000000000000002929002900290000
310
0000000000000000000000000000000000290000000000000000000000000000000000000000000000000000000000000000000000000000000000000000F5000000000000000000000000002900290029000000000000000000000000000000000000000000000000F5290029002900290029290029292929002900002900
310
F50000000000000000F50000F50000000000000000000000000000000000000000000000000000000000000000000000000000000000000000000000000000000000000000000000000000000000000000000000000000000000000000000000000000000000000000000000000000F5000000002929292900292929292929
310
29000029292900292929292929292929292929290000000000000000000000000000000000000000000000000000000000000000000000000000000000000000F5F5F5F5F5F5F5F5F5F5F5F5F5F5F5F5F5F5F5F5F5F5F5F5F5F5F5F5F5F5F5F5F5F5F5F5F5F5F5F5F5F5F5F529292929002900292900290029290000290000
310
2900F50000000000000000F50000F50000000000000000000000000000000000000000000000000000000000000000000000000000000000000000000000000000000000000000000000000000000000000000000000000000000000000000000000000000000000000000000000000000F500000000292929290029292929
310
292929000029292900292929292929292929292929290000000000000000000000000000000000000000000000000000000000000000000000000000000000000000F500F5F5F5F5F5F5F500292929000029292900002929000000000000000000000000000000000000000000F52900292900290029292900000029292929
310
29290029F50000000000000000F50000F50000000000000000000000000000000000000000000000000000000000000000000000000000000000000000000000000000000000000000000000000000000000000000000000000000000000000000000000000000000000000000000000000000F50000000029292929292929
310
2929292929000029292929290029292929292929292929290000000000000000000000000000000000000000000000000000000000000000000000000000000000000000F500F5F5F5F5F5F5F500290029292929292929292929000000000000000000000000000000000000000000F500000000000000000000F5F5000000
310
000000000000F50000000000000000F50000F50000000000000000000000000000000000000000000000000000000000000000000000000000000000000000000000000000000000000000000000000000000000000000000000000000000000000000000000000000000000000000000000000000F5000000000000000000
310
00000000000000000000000000000000000000000000000000000000002900000000000000000000000000000000000000000000000000000000000000000000000000000000F500F5F50000F5000000292929000029292900292929000000000000000000000000000000000000000000F5000000F5F5F5F5F5F5F5F5F5F5
310
F5F5F50000000000F5F5F5F5F5F5F5F5F5F50000F50000000000000000000000000000000000000000000000000000000000000000000000000000000000000000000000000000000000000000000000000000000000000000000000000000000000000000000000000000000000000000000000000000F500000000292929
310
292929292929002900292929292929292929290029292900002929292929292929292929292929292900000000000000000000000000000000000000000000000000000000000000F5000000000000000000000000000000000000000000000000000000000000000000000000000000000000F5000000F5F5F5F5F5F5F5F5
310
F5F5F5F5F50000000000F5F5F5F5F5F5F5F5F5F50000F50000000000000000000000000000000000000000000000000000000000000000000000000000000000000000000000000000000000000000000000000000000000000000000000000000000000000000000000000000000000000000000000000000F50000000029
310
2929292929292929292900292929292929292929290029292929002929292929292929292929292929290000000000000000000000000000000000000000000000000000000000000000F5F5F5F5F5F5F5F5F5F5F5F5F5F5F5F5F5F5F5F5F5F5F5F5F5F5F5F5F5F5F5F5F5F5F5F5F5F5F5F5F5F5F5F5F5F5F5F5F5F5F5F5F5
310
F5F5F5F5F5F5F5F5F5F5F5F5F5F5F5F5F5F5F5F5F5F50000F50000000000000000000000000000000000000000000000000000000000000000000000000000000000000000000000000000000000000000000000000000000000000000000000000000000000000000000000000000000000000000000000000000F5000000
310
00002929292900000000002900000000002929290000000000000000000000292929290000002929000000000000000000000000000000000000000000000000000000000000000000000000F50000000000000000000000000000000000000000000000000000000000000000000000000000000000000000000000000000
310
0000000000000000000000000000000000000000000000F50000F50000000000000000000000000000000000000000000000000000000000000000000000000000000000000000000000000000000000000000000000000000000000000000000000000000000000000000000000000000000000000000000000000000F500
310
000000292929292929292929292929292929292929292900002929290000292900292900002929292929292900000000000000000000000000000000000000000000000000000000000000000000F5000000000000000000000000000000000000000000000000000000000000000000000000000000000000000000000000
310
00000000000000000000000000000000000000000000000000F50000F50000000000000000000000000000000000000000000000000000000000000000000000000000000000000000000000000000000000000000000000000000000000000000000000000000000000000000000000000000000000000000000000000000
310
F500000000292929292929292929292929292929292929292900002929290000292929290029002929292929292900000000000000000000000000000000000000000000000000000000000000000000F500000000000000000000000000000000000000000000000000000000000000000000000000000000000000000000
310
000000000000000000000000000000000000000000000000000000F50000F5000000000000000000000000000000000000000000000000000000000000000000000000000000000000000000000000000000000000000000000000000000000000000000000000000000000000000000000000000000000000000000000000
310
0000F500000000000000000000002929290000002929000000000000000000290000000000000000002929000000000000000000000000000000000000000000000000000000000000000000000000000000F50000000000000000000000000000000000000000000000000000000000000000000000000000000000000000
310
0000000000000000000000000000000000000000000000000000000000F50000F500000000000000000000000000000000000000000000000000000000000000000000000000000000000000000000000000000000000000000000000000000000000000000000000000000000000000000000000000000000000000000000
310
00000000F500000000292929292900290029292929292900002929000029292929292929292929290000000000000000000000000000000000000000000000000000000000000000000000000000000000000000F5000000000000000000000000000000000000000000000000000000000000000000000000000000000000
310
00000000000000000000000000000000000000000000000000000000000000F50000F50000000000000000000000000000000000000000000000000000000000000000000000000000000000000000000000000000000000000000000000000000000000000000000000000000000000000000000000000000000000000000
310
000000000000F500000000292929292900290029292929290000292929290029292929292929292929290000000000000000000000000000000000000000000000000000000000000000000000000000000000000000F500000000000000000000000000000000000029000000000000000000000000000000000000000000
310
000000000000000000000000000000000000000000000000000000000000000000F50000F5000000000000000000000000000000000000000000000000000000000000000000000000000000000000000000000000000000000000000000000000000000000000000000000000000000000000000000000000000000000000
310
0000000000000000F500000000292929292900292929292929292900292929000029292929292929292929290000000000000000000000000000000000000000000000000000000000000000000000000000000000000000F50000000000000000000000000000000000002900000000000000000000000000000000000000
310
0000000000000000000000000000000000000000000000000000000000000000000000F50000F500000000000000000000000000000000000000000000000000000000000000000000000000000000000000000000000000000000000000000000000000000000000000000000000000000000000000000000000000000000
310
00000000000000000000F500000000000000000000000000000000000000000000000000000000000000000000000000000000000000000000000000000000000000000000000000000000000000000000000000000000000000F5000000000000000029292929292900290029292929292929290029292929292929002900
310
29292900000029002900002929002900000000000000290000290000002900000000000000F50000F50000000000000000000000000000000000000000000000000000000000000000000000000000000000000000000000000000000000000000000000000000000000000000000000000000000000000000000000000000
310
000000000000000000000000F500000000292929292900002929292929292929292929292929292929292929000029292929292929002929292900000000000000000000000000000000000000000000000000000000000000000000F500000000000000002900292929290029002929002929292929000029002900292900
310
290029292900000029292900002929002929290000000029292900290000002900000000000000F50000F5000000000000000000000000000000000000000000000000000000000000000000000000000000000000000000000000000000000000000000000000000000000000000000000000000000000000000000000000
310
0000000000000000000000000000F500000000292929292900002929292929292929292929292929292929292929000029292929292929292929292900000000000000000000000000000000000000000000000000000000000000000000F50000000000000029292929292929292929002929000029292929292929002929
310
2929290029292900000029002900292900292900290000000000290000002900290029000000000000F50000F500000000000000000000000000000000000000000000000000000000000000000000000000000000000000000000000000000000000000000000000000000000000000000000000000000000000000000000
310
00000000000000000000000000000000F500000000292900000000000000000000000000292900000029000000000000000000000000000000000000000000000000000000000000000000000000000000000000000000000000000000000000F5000000000000000029000000000000000000000000000000000000000000
310
00000000000000000000000029002900292900292929290000000000290029292929000029000000000000F50000F50000000000000000000000000000000000000000000000000000000000000000000000000000000000000000000000000000000000000000000000000000000000000000000000000000000000000000
310
000000000000000000000000000000000000F500000000292929290029292900000000000000000000000000000000000000000000000000000000000000000000000000000000000000000000000000000000000000000000000000000000000000F5F5F5F5F5F5F5F5F5F5F5F5F5F5F5F5F5F5F5F5F5F5F5F5F5F5F5F5F5
310
F5F5F5F5F5F5F5F5F5F5F5F5F5F5F5F5F5F5F5F5F5F5F5F5F5F5F5F5F5F5F5F5F5F5F5F5F5F5F5F5F5F5F5F5F5F50000F5000000000000000000000000000000000000000000000000000000000000000000000000000000000000000000000000000000000000000000000000000000000000000000000000000000000000
310
0000000000000000000000000000000000000000F500000000292929290029290000000000000000000000000000000000000000000000000000000000000000000000000000000000000000000000000000000000000000000000000000000000000000000000000000000000000000000000000000000000000000000000
310
0000000000000000000000000000000000000000000000000000000000000000000000000000000000000000000000000000F500000000000000000000000000000000000000000000000000000000000000000000000000000000000000000000000000000000000000000000000000000000000000000000000000000000
310
00000000000000000000000000000000000000000000F50000000029292929292929290000000000000000000000000000000000000000000000000000000000000000000000000000000000000000000000000000000000000000000000000000000000000000000000000000000000000000000000000000000000000000
310
00000000000000000000000000000000000000000000000000000000000000000000000000000000000000000000000000000000F50000000000000000000000000000000000000000000000000000000000000000000000000000000000000000000000000000000000000000000000000000000000000000000000000000
310
000000000000000000000000000000000000000000000000F5000000000000000000000000000000000000000000000000000000000000000000000000000000000000000000000000000000000000000000000000000000000000000000000000000000000000000000000000000000000000000000000000000000000000
310
000000000000000000000000000000000000000000000000000000000000000000000000000000000000000000000000000000000000F5000000000000000000000000000000000000000000000000000000000000000000000000000000000000000000000000000000000000000000000000000000000000000000000000
310
0000000000000000000000000000000000000000000000000000F500000000000000000000000000000000000000000000000000000000000000000000000000000000000000000000000000000000000000000000000000000000000000000000000000000000000000000000000000000000000000000000000000000000
310
0000000000000000000000000000000000000000000000000000000000000000000000000000000000000000000000000000000000000000F500000000000000000000000000000000000000000000000000000000000000000000000000000000000000000000000000000000000000000000000000000000000000000000
310
00000000000000000000000000000000000000000000000000000000F50000000000000000000000000000000000000000000000000000000000000000000000000000000000000000000000000000000000000000000000000000000000000000000000000000000000000000000000000000000000000000000000000000
310
00000000000000000000000000000000000000000000000000000000000000000000000000000000000000000000000000000000000000000000F50000000000000000000000000000000000000000000000000000000000000000000000000000000000000000000000000000000000000000000000000000000000000000
310
000000000000000000000000000000000000000000000000000000000000F5000000000000000000000000000000000000000000000000000000000000000000000000000000000000000000000000000000000000000000000000000000000000000000000000000000000000000000000000000000000000000000000000
310
000000000000000000000000000000000000000000000000000000000000000000000000000000000000000000000000000000000000000000000000F5000000000000000000000000000000000000000000000000000000000000000000000000000000000000000000000000000000000000000000000000000000000000
310
0000000000000000000000000000000000000000000000000000000000000000F500000000000000000000000000000000000000000000000000000000000000000000000000000000000000000000000000000000000000000000000000000000000000000000000000000000000000000000000000000000000000000000
310
0000000000000000000000000000000000000000000000000000000000000000000000000000000000000000000000000000000000000000000000000000F500000000000000000000000000000000000000000000000000000000000000000000000000000000000000000000000000000000000000000000000000000000
310
00000000000000000000000000000000000000000000000000000000000000000000F50000000000000000000000000000000000000000000000000000000000000000000000000000000000000000000000000000000000000000000000000000000000000000000000000000000000000000000000000000000000000000
310
00000000000000000000000000000000000000000000000000000000000000000000000000000000000000000000000000000000000000000000000000000000F50000000000000000000000000000000000000000000000000000000000000000000000000000000000000000000000000000000000000000000000000000
310
000000000000000000000000000000000000000000000000000000000000000000000000F500000000F5F5F5F5F5F5F5F5F5F5F5F5F5F5F5F5F5F5F5F5F5F5F5F5F5F5F5F5F5F5F5F5F5F5F5F5F5F5F5F500000000000000000000000000000000000000000000000000000000000000000000000000000000000000000000
310
0000000000000000000000000000000000F5F5F5F5F5F5F5F5F5F5F5F5F5F5F5F5F5F5F5F5F5F5F5F5F5F5F5F5F5F5F5F5F5F5F5F5F5F5F500000000000000000000F5000000000000000000000000000000000000000000000000000000000000000000000000000000000000000000000000000000000000000000000000
310
0000000000000000000000000000000000000000000000000000000000000000000000000000F5000000000000F500000000000000F5F500000000000000000000000000000000000000000000000000000000F5F5F5F5F5F5F5F5F5F5F5F5F5F5F5F5F5F5F5F5F5F5F5F5F5F5F5F5F5F5F5F5F5F5F5F5F5F5F5F5F5F50000
310
000000000000000000000000000000000000F5F5F5F5F5F5F5F5F5F5F5F5F5F5F5F5F5F5F5F5F5F5F5F5F5F5F5F5F5F5F5F5F5F5F5F5F5F5F5F5F5000000000000000000F500000000000000000000000000000000000000000000000000000000000000000000000000000000000000000000000000000000000000000000
310
00000000000000000000000000000000000000000000000000000000000000000000000000000000F50000000000F5F500000000000000F5F5F5F5F5F5F5F5F5F5F5F5F5F5F5F5F5F5F5F5F5F5F5F5F5F5F5F5F5F5F5F5F5F5F5F5F5F5F5F5F5F5F5F5F5F5F5F5F5F5F5F5F5F5F5F5F5F5F5F5F5000000000000000000F500
310
0000000000000000000000000000000000000000F5F5F5F5F5F5F5F5F5F5F5F5F5F5F5F5F5F5F5F5F5F5F5F5F5F5F5F5F5F5F5F5F5F5F5F5F5F5F5F5F5000000000000000000F50000000000000000000000000000000000000000000000000000000000000000000000000000000000000000000000000000000000000000
310
000000000000000000000000000000000000000000000000000000000000000000000000000000000000F5000000000000F500000000000000F5F50000000000000000000000000000000000000000000000000000000000000000000000000000F5F5F5F5F5F5F5F5F5F5F5F5F5F5F5F5F5F5F5F5F5000000000000000000
310
F500000000000000000000000000F5F5F5F5F5F5F5F5F5F500000000000000000000000000000000000000000000000000000000000000000000000000F5F5000000000000000000F5000000000000000000000000000000000000000000000000000000000000000000000000000000000000000000000000000000000000
310
0000000000000000000000000000000000000000000000000000000000000000000000000000000000000000F5000000000000F50000000000000000F50000F5F5F5F5F5F5F5F5F5F5F5F5F5F5F5F5F5F5F5F5F5F5F5F5F5F5F5F5F5F5F5F5F5F5F500F500000000000000000000000000000000000000F500000000000000
310
0000F500000000000000F5F5F5F500F5F5F5F5F5F5F5F5F5F5F500000000000000000000000000000000000000000000000000000000000000000000000000F500000000000000000000F500000000000000000000000000000000000000000000000000000000000000000000000000000000000000000000000000000000
310
00000000000000000000000000000000000000000000000000000000000000000000000000000000000000000000F50000000000F5F50000000000000000F50000F5000000000000000000000000000000000000000000000000000000000000000000F500F5000000000000F5F5F5F5F5F5F5000000000000F50000000000
310
00000000F5000000000000000000F50000F5F50000000000000000F500000000000000000000000000000000000000000000000000000000000000000000000000F5F5F5F500F5F5F5F50000F50000000000000000000000000000000000000000000000000000000000000000000000000000000000000000000000000000
310
000000000000000000000000000000000000000000000000000000000000000000000000000000000000000000000000F50000000000F5F5F500000000000000F50000F5000000000000000000000000000000000000000000000000000000000000000000F500F5000000000000F50000000000F5000000000000F5000000
310
000000000000F50000000000000000F5F50000F5F50000000000000000F500000000000000000000000000000000000000000000000000000000000000000000000000F50000F50000F500000000F5000000000000000000000000000000000000000000000000000000000000000000000000000000000000000000000000
310
0000000000000000000000000000000000000000000000000000000000000000000000000000000000000000000000000000F50000000000F5F5F500000000000000F50000F5000000000000000000000000000000000000000000000000000000000000000000F500F5000000000000F50000000000F5000000000000F500
310
0000000000000000F5000000000000000000F50000F5F50000000000000000F5000000000000000000F500F500F500F5F50000000000F500F5000000F50000000000000000F50000F50000F500000000F500000000000000000000000000000000000000000000000000000000000000000000000000000000000000000000
310
00000000000000000000000000000000000000000000000000000000000000000000000000000000000000000000000000000000F50000000000F5F5F500000000000000F50000F5000000000000000000000000000000000000000000000000000000000000000000F500F5000000000000F50000000000F5000000000000
310
F5000000000000000000F5000000000000000000F50000F5F50000000000000000F5000000000000000000F500F500F500F5F5F5F500F5F5F5F500F50000F50000000000000000F50000F50000F500000000F50000000000000000000000000000000000000000000000000000000000000000000000000000000000000000
310
000000000000000000000000000000000000000000000000000000000000000000000000000000000000000000000000000000000000F50000000000F5F5F500000000000000F50000F5000000000000000000000000000000000000000000000000000000000000000000F500F5000000000000F50000000000F500000000
310
0000F5000000000000000000F5000000000000000000F50000F5F50000000000000000F5000000000000000000F5F5F5F500F500F500F5F500F5F50000F50000F50000000000000000F50000F50000F500000000F5000000000000000000000000000000000000000000000000000000000000000000000000000000000000
310
0000000000000000000000000000000000000000000000000000000000000000000000000000000000000000000000000000000000000000F50000000000F5F5F500000000000000F50000F5000000000000000000000000000000000000000000000000000000000000000000F500F5000000000000F50000000000F50000
310
00000000F50000000000000000F500F5000000000000F5F5F5F500F5F50000000000000000F5000000000000000000F500F5F500F500F5F5F5F50000F5F5F5F5F5F500F500000000000000F50000F500000000000000F500000000000000000000000000000000000000000000000000000000000000000000000000000000
310
00000000000000000000000000000000000000000000000000000000000000000000000000000000000000000000000000000000000000000000F50000000000F5F50000000000000000F50000F500000000000000F500F50000F5F500F500000000F500F5000000F5000000000000F500F5000000000000F50000000000F5
310
000000000000F500000000F5F5F500F5F5F5000000000000F5F5F5F500F5F50000000000000000F500000000000000000000000000000000000000000000000000000000000000000000000000F50000F500F5F5F5000000F50000000000000000000000000000000000000000000000000000000000000000000000000000
310
000000000000000000000000000000000000000000000000000000000000000000000000000000000000000000000000000000000000000000000000F5000000000000000000000000000000F50000F500000000000000F500F50000F5F500F50000F5F5F5F500F50000F5000000000000F500F5000000000000F500000000
310
00F5000000000000F500000000F500F500F500F5000000000000F5F5F50000F5F50000000000000000F50000F5F5F500000000000000000000000000000000000000000000000000000000F5000000F50000F500F5F5F5000000F5000000000000000000000000000000000000000000000000000000000000000000000000
310
0000000000000000000000000000000000000000000000000000000000000000000000000000000000000000000000000000000000000000000000000000F5000000000000000000000000000000F50000F500000000000000F5F5F50000F5F5F5F5F5F500F5F50000F50000F5000000000000F500F5000000000000F50000
310
000000F5000000000000F500000000F5F5F500F5F5F5000000000000F5F500F500F5F50000000000000000F5F5F5F5F5F5000000000000000000000000000000000000000000000000000000F5F5F5F5F5F50000F500F5F5F5000000F500000000000000000000000000000000000000000000000000000000000000000000
310
00000000000000000000000000000000000000000000000000000000000000000000000000000000000000000000000000000000000000000000000000000000F50000000000F5F5F500000000000000F50000F500000000000000F500F500F5F500F5F500F500F5F5000000F500F5F50000000000F500F5000000000000F5
310
0000000000F5000000000000F500000000F5F5F500F5F5F5000000000000F500F50000F5F50000000000000000F500F5F500000000000000000000000000000000000000000000000000000000F500F5F5F5F5F50000F500F5F5F5000000F50000000000000000000000000000000000000000000000000000000000000000
310
000000000000000000000000000000000000000000000000000000000000000000000000000000000000000000000000000000000000000000000000000000000000F50000000000F5F5F500000000000000F50000F500000000000000F500F500F5F500F5F5F5000000F500F5F5F5F50000F500000000F500F50000000000
310
00F50000000000F5000000000000F50000000000F50000F500F5000000000000F500F5F500F5F50000000000000000F500000000F5F5F5F5F5F5F5F50000000000000000000000000000000000000000F5F5000000F50000F500F500F5000000F5000000000000000000000000000000000000000000000000000000000000
310
0000000000000000000000000000000000000000000000000000000000000000000000000000000000000000000000000000000000000000000000000000000000000000F500000000000000F5000000F5F5F500F50000F5000000000000000000000000000000000000000000000000000000000000000000F500F5000000
310
000000F5F5F5F5F5F5F5000000000000F5F5F5F50000F50000F5F500000000000000F5F5000000F5F50000000000000000F5F5F50000F5F50000F5F500000000000000000000000000000000000000000000000000F5F5F50000F500F5F500000000F500000000000000000000000000000000000000000000000000000000
310
00000000000000000000000000000000000000000000000000000000000000000000000000000000000000000000000000000000000000000000000000000000000000000000F50000000000F5F500000000F5F5F5F5F50000F5000000000000000000000000000000000000000000000000000000000000000000F500F500
310
000000000000000000000000000000000000F5F5F5F500F5F5F50000F5000000000000000000F50000F5F50000000000000000F5F5F5F5000000000000F5F500F5F50000000000000000000000000000000000000000F5F5F5F50000F500000000000000F50000000000000000000000000000000000000000000000000000
310
000000000000000000000000000000000000000000000000000000000000000000000000000000000000000000000000000000000000000000000000000000000000000000000000F5000000000000F5F5000000F5F5F5F5F50000F5000000000000000000000000000000000000000000000000000000000000000000F500
310
F500000000000000000000000000000000000000F5F5F5F50000F5000000F5000000000000000000F50000F5F50000000000000000F50000F5000000000000F500F5F5F50000000000000000000000000000000000000000F50000F50000F50000F500000000F5000000000000000000000000000000000000000000000000
310
0000000000000000000000000000000000000000000000000000000000000000000000000000000000000000000000000000000000000000000000000000000000000000000000000000F50000000000F5F5F500000000000000F50000F5000000000000000000000000000000000000000000000000000000000000000000
310
F500F500000000000000000000000000000000000000F500000000F5F5000000F5000000000000000000F50000F5F50000000000000000F50000F5000000000000F5F5F5F5F50000000000000000000000000000000000000000F50000F50000F50000F500000000F500000000000000000000000000000000000000000000
310
00000000000000000000000000000000000000000000000000000000000000000000000000000000000000000000000000000000000000000000000000000000000000000000000000000000F5000000000000000000000000000000F50000F500000000000000000000000000000000000000000000000000000000000000
310
0000F500F500000000000000000000000000000000000000F50000000000F5000000F50000000000000000F5F50000F5F50000000000000000F50000F500F5F50000F5F5000000000000000000000000000000000000000000000000F50000F50000F50000F500000000F50000000000000000000000000000000000000000
310
000000000000000000000000000000000000000000000000000000000000000000000000000000000000000000000000000000000000000000000000000000000000000000000000000000000000F5000000000000F50000000000000000F50000F50000000000000000000000000000000000000000000000000000000000
310
00000000F500F500000000000000000000000000000000000000F50000000000F5000000F5000000000000000000F50000F5F50000000000000000F50000F500F5F5F5F5F5F5F5F500000000000000000000000000000000000000000000F50000F50000F50000F500000000F5000000000000000000000000000000000000
310
0000000000000000000000000000000000000000000000000000000000000000000000000000000000000000000000000000000000000000000000000000000000000000000000000000000000000000F5000000000000F50000000000000000F50000F5F5F5F5F5F5F5F5F5F5F5F5F5F5F5F5F5F5F5F5F5F5F5F5F5F5F5F5
310
F5F5F5F5F5F5F500F500000000000000000000000000000000000000F50000000000F5000000F500000000000000F5F5F5F500F5F5F5F5F5F5F5F5F5F5F5F5F5F50000F5000000F5F5F5F5F50000000000000000000000000000000000000000F5F5F5F50000F50000F500000000F500000000000000000000000000000000
310
00000000000000000000000000000000000000000000000000000000000000000000000000000000000000000000000000000000000000000000000000000000000000000000000000000000000000000000F50000000000F5F50000000000000000F50000F500000000000000000000000000000000000000000000000000
310
0000000000000000F500F500000000000000000000000000000000000000F500000000F5F5000000F500000000000000000000000000F50000000000000000F50000000000F5000000F5F5F5F5F50000000000000000000000000000000000000000000000F5F5F5F500F5F5F5F50000F50000000000000000000000000000
310
000000000000000000000000000000000000000000000000000000000000000000000000000000000000000000000000000000000000000000000000000000000000000000000000000000000000000000000000F5000000000000F500000000000000F5F50000F50000000000000000000000000000000000000000000000
310
00000000000000000000F500F5F5F5F5F5F5F5F5F5F5F5F5F5F5F5F5F5F5F5F5F50000000000F5000000F500000000000000000000000000F5F5F5F5F5F5F5F5F5F500F5000000F50000F5F5F5F500F50000000000000000000000000000000000000000F50000F5F5000000000000000000F5000000000000000000000000
310
0000000000000000000000000000000000000000000000000000000000000000000000000000000000000000000000000000000000000000000000000000000000000000000000000000000000000000000000000000F500000000F5F5F5F5F5F5F5F5F5F5F5F5F5F5F5F5F5F5F5F5F5F5F5F5F5F5F5F5F5F5F5F5F5F5F5F5
310
F5F5F5F5F5F5F5F5F5F5F5F5F5F5F5F5F5F5F5F5F5F5F5F5F5F5F5F5F5F5F5F5F5F5F5F5F5F5F5F5F5F5F5F5F5F5000000000000F5F5F5F5F5F5F5F5F5F5F5F5F500F5F5F5F5F5F5F5F5F5F5F5F5F5F5F5F5F5F5F5F5F5F5F5F5F5F5F5F5F5F5F5F5F5F5F5F5F5F5F5F5F500F5F5F5F5F5F50000F500000000000000000000
310
00000000000000000000000000000000000000000000000000000000000000000000000000000000000000000000000000000000000000000000000000000000000000000000000000000000000000000000000000000000F50000000000000000000000000000F5000000F500000000000000000000000000000000000000
310
0000000000000000000000000000F5000000000000000000000000000000000000000000F500000000000000000000000000000000000000F50000000000000000000000F5000000000000F500000000000000000000000000000000000000000000000000000000000000000000000000F500000000F50000000000000000
310
000000000000000000000000000000000000000000000000000000000000000000000000000000000000000000000000000000000000000000000000000000000000000000000000000000000000000000000000000000000000F50000000000F5F5F5F5000000F500F5000000F500F50000000000000000000000F5F5F500
310
F5000000000000000000000000F5F500F5000000000000000000000000000000000000000000F5000000000000000000000000000000000000F5F50000000000000000000000F5000000000000F500000000000000000000000000000000000000000000000000000000000000000000000000F500000000F5000000000000
310
0000000000000000000000000000000000000000000000000000000000000000000000000000000000000000000000000000000000000000000000000000000000000000000000000000000000000000000000000000000000000000F50000000000F5F5F5F500F5F5F5F5F5000000F5F5F5F5F5F5F5F5F5F5F5F5F50000F5
310
00F500F500F5F5F5F5F5F5F5F5F5F5F5F5F5F5000000000000000000000000000000000000000000F500000000000000000000000000000000000000F50000000000000000000000F5000000000000F50000F5F5F5F5F5F50000000000000000000000000000000000000000000000000000000000F500000000F500000000
310
00000000000000000000000000000000000000000000000000000000000000000000000000000000000000000000000000000000000000000000000000000000000000000000000000000000000000000000000000000000000000000000F50000000000F5F5F5F50000000000F5000000F500000000000000000000000000
310
00F5F5F5F5F50000000000000000000000000000F5000000000000000000000000000000000000000000F500000000000000000000000000000000000000F50000000000000000000000F5F5F5F5F5F5F5F5F5F500F5F5F5F5F50000000000000000000000000000000000000000000000000000000000F500000000F50000
310
000000000000000000000000000000000000000000000000000000000000000000000000000000000000000000000000000000000000000000000000000000000000000000000000000000000000000000000000000000000000000000000000F50000000000000000000000000000F5000000000000000000000000000000
310
0000000000000000000000000000000000000000000000000000000000000000000000000000000000000000F5000000000000000000000000000000000000F5F50000000000000000000000F5000000000000F50000F5F5F5F5F5F50000000000000000000000000000000000000000000000000000000000F5F5000000F5
310
0000000000000000000000000000000000000000000000000000000000000000000000000000000000000000000000000000000000000000000000000000000000000000000000000000000000000000000000000000000000000000000000000000F50000000000000000000000000000F500000000000000000000000000
310
000000000000000000F5F500F500F50000F5F5F5F500F5F500000000000000000000000000000000000000000000F50000000000000000000000000000000000F500F5F5000000000000000000000000000000000000000000000000000000000000000000000000000000000000000000000000000000000000F5F5F50000
310
00F50000000000000000000000000000000000000000000000000000000000000000000000000000000000000000000000000000000000000000000000000000000000000000000000000000000000000000000000000000000000000000000000000000F50000000000000000000000000000F5F5F5F5F5F5F5F5F5F5F5F5
310
F5F5F5F5F5F5F5F5F5F500F5F5F5F5F5F5F500F500F500F5F5F500F5F5F5F5F5F5F5F5F5F5F5F5F5F5F5F5F5F5F5F5F5F5000000000000000000000000000000000000F5F50000000000000000000000000000000000000000000000000000000000000000000000000000000000000000000000000000000000000000F5F5
310
000000F50000000000000000000000000000000000000000000000000000000000000000000000000000000000000000000000000000000000000000000000000000000000000000000000000000000000000000000000000000000000000000000000000000F50000000000000000000000000000F5F5F500000000000000
310
00000000000000000000000000F5F500F5F5F50000F5F5F500F5F5000000000000000000000000000000000000000000F5F5F50000000000000000000000000000000000F500F5F5000000000000000000000000000000000000000000000000000000000000000000000000000000000000000000000000000000000000F5
310
F5F5000000F50000000000000000000000000000000000000000000000000000000000000000000000000000000000000000000000000000000000000000000000000000000000000000000000000000000000000000000000000000000000000000000000000000F50000000000000000000000000000F500000000000000
310
00000000000000000000000000000000000000000000000000000000000000000000000000000000000000000000000000000000F50000000000000000000000000000000000F5F5F5000000000000000000000000000000000000000000000000000000000000000000000000000000000000000000000000000000000000
310
00F5F5F5000000F50000000000000000000000000000000000000000000000000000000000000000000000000000000000000000000000000000000000000000000000000000000000000000000000000000000000000000000000000000000000000000000000000000F50000000000000000000000000000000000000000
310
00000000000000000000000000000000000000000000000000000000000000000000000000000000000000000000000000000000000000000000000000000000000000000000000000000000000000000000000000000000000000000000000000000000000000000000000000000000000000000000000000000000000000
310
000000000000000000F50000000000000000000000000000000000000000000000000000000000000000000000000000000000000000000000000000000000000000000000000000000000000000000000000000000000000000000000000000000000000000000000000000F5000000000000000000000000000000000000
310
00000000000000000000000000000000000000000000000000000000000000000000000000000000000000000000000000000000000000000000000000000000000000000000000000000000000000000000000000000000000000000000000000000000000000000000000000000000000000000000000000000000000000
310
0000000000000000000000F50000000000000000000000000000000000000000000000000000000000000000000000000000000000000000000000000000000000000000000000000000000000000000000000000000000000000000000000000000000000000000000000000000F500000000000000000000000000000000
310
00000000000000000000000000000000000000000000000000000000000000000000000000000000000000000000000000000000000000000000000000000000000000000000000000000000000000000000000000000000000000000000000000000000000000000000000000000000000000000000000000000000000000
310
00000000000000000000000000F50000000000000000000000000000000000000000000000000000000000000000000000000000000000000000000000000000000000000000000000000000000000000000000000000000000000000000000000000000000000000000000000000000F50000000000000000000000000000
310
00000000000000000000000000000000000000000000000000000000000000000000000000000000000000000000000000000000000000000000000000000000000000000000000000000000000000000000000000000000000000000000000000000000000000000000000000000000000000000000000000000000000000
310
000000000000000000000000000000F50000000000000000000000000000000000000000000000000000000000000000000000000000000000000000000000000000000000000000000000000000000000000000000000000000000000000000000000000000000000000000000000000000F5000000000000000000000000
310
00000000000000000000000000000000000000000000000000000000000000000000000000000000000000000000000000000000000000000000000000000000000000000000000000000000000000000000000000000000000000000000000000000000000000000000000000000000000000000000000000000000000000
310
0000000000000000000000000000000000F50000000000000000000000000000000000000000000000000000000000000000000000000000000000000000000000000000000000000000000000000000000000000000000000000000000000000000000000000000000000000000000000000000F500000000000000000000
310
00000000000000000000000000000000000000000000000000000000000000000000000000000000000000000000000000000000000000000000000000000000000000000000000000000000000000000000000000000000000000000000000000000000000000000000000000000000000000000000000000000000000000
310
00000000000000000000000000000000000000F50000000000000000000000000000000000000000000000000000000000000000000000000000000000000000000000000000000000000000000000000000000000000000000000000000000000000000000000000000000000000000000000000000F50000000000000000
310
00000000000000000000000000000000000000000000000000000000000000000000000000000000000000000000000000000000000000000000000000000000000000000000000000000000000000000000000000000000000000000000000000000000000000000000000000000000000000000000000000000000000000
310
000000000000000000000000000000000000000000F50000000000000000000000000000000000000000000000000000000000000000000000000000000000000000000000000000000000000000000000000000000000000000000000000000000000000000000000000000000000000000000000000000F5000000000000
310
00000000000000000000000000000000000000000000000000000000000000000000000000000000000000000000000000000000000000000000000000000000000000000000000000000000000000000000000000000000000000000000000000000000000000000000000000000000000000000000000000000000000000
310
0000000000000000000000000000000000000000000000F50000000000000000000000000000000000000000000000000000000000000000000000000000000000000000000000000000000000000000000000000000000000000000000000000000000000000000000000000000000000000000000000000000F500000000
310
0000000000000000F5000000F500F5F5F5F500F5F5F5F500F500F5F5F5F500F500F5F5F50000F5F5F500F500F5F5F5F5F5F50000F500F5F5F5F5F50000F5F5F500F5F5F5F5000000F5000000000000000000000000000000000000000000000000000000000000000000000000000000000000000000000000000000000000
310
00000000000000000000000000000000000000000000000000F50000000000000000000000000000000000000000000000000000000000000000000000000000000000000000000000000000000000000000000000000000000000000000000000000000000000000000000000000000000000000000000000000000F50000
310
000000000000F5F5F5F5F5000000F5F5F5F500F500F500F5F5F5F500F5F500F5F5F5F5F5F500000000F5F5F5F5F5F5F5F5F5F5F50000F5F5F5F5F5F5F50000F500F500F5F500F5000000F5F5F5F5F5000000000000000000000000000000000000000000000000000000000000000000000000000000000000000000000000
310
000000000000000000000000000000000000000000000000000000F50000000000000000000000000000000000000000000000000000000000000000000000000000000000000000000000000000000000000000000000000000000000000000000000000000000000000000000000000000000000000000000000000000F5
310
000000000000000000000000F5000000F5F5F5F5F5F500F5F5F5F5F5F5F5F5F5F5F500F5F500F5000000F5F5F5F5F5F5F5F5F5F5F5F50000F500F5F5F5F5F50000F5F5F5F5F5F5F5F5000000F50000000000000000000000000000000000000000000000000000000000000000000000000000000000000000000000000000
310
0000000000000000000000000000000000000000000000000000000000F500000000000000000000000000000000000000000000000000000000000000000000000000000000000000000000000000000000000000000000000000000000000000000000000000000000000000000000000000000000000000000000000000
310
00F5000000000000000000000000F5000000000000000000000000000000000000000000000000000000000000000000000000000000000000000000000000000000000000000000000000000000F5000000000000000000000000000000000000000000000000000000000000000000000000000000000000000000000000
310
00000000000000000000000000000000000000000000000000000000000000F50000000000000000000000000000000000000000000000000000000000000000000000000000000000000000000000000000000000000000000000000000000000000000000000000000000000000000000000000000000000000000000000
310
000000F5000000000000000000000000F50000F5000000000000000000000000F5F5F5F500F50000F500F500F500F5F5F5F5F500F5F5F50000F5F5F500F5F5F5F5000000000000000000000000F50000F500000000000000000000000000000000000000000000000000000000000000000000000000000000000000000000
310
000000000000000000000000000000000000000000000000000000000000000000F5000000000000000000000000000000000000000000000000000000000000000000000000000000000000000000000000000000000000000000000000000000000000000000000000000000000000000000000000000000000000000000
310
0000000000F5000000000000000000000000F50000F5F5F5F5F5F5F5F5F5F5F5F500F5F5F5F5F5F50000F5F5F5F5F5F5F5F5F5F5F5F5F5F5F50000F5F5F500F5F5F5F500F5F5F5F5F5F5F5F5F5F5F5F50000F50000000000000000000000000000000000000000000000000000000000000000000000000000000000000000
310
0000000000000000000000000000000000000000000000000000000000000000000000F500000000000000000000000000000000000000000000000000000000000000000000000000000000000000000000000000000000000000000000000000000000000000000000000000000000000000000000000000000000000000
310
00000000000000F5000000000000000000000000F50000F5F5F500000000000000000000F5F5F5F500F50000F500F5F5F500F5F5F5F5F500F5F5F50000F5F5F5F5F5F5F5F500000000000000000000F5F5F50000F5000000000000000000000000000000000000000000000000000000000000000000000000000000000000
310
00000000000000000000000000000000000000000000000000000000000000000000000000F50000000000000000000000000000000000000000000000000000000000000000000000000000000000000000000000000000000000000000000000000000000000000000000000000000000000000000000000000000000000
310
000000000000000000F5000000000000000000000000F50000F5000000000000000000000000000000000000000000000000000000000000000000000000000000000000000000000000000000000000000000F50000F500000000000000000000000000000000000000000000000000000000000000000000000000000000
310
000000000000000000000000000000000000000000000000000000000000000000000000000000F5000000000000000000000000000000000000000000000000000000000000000000000000000000000000000000000000000000000000000000000000000000000000000000000000000000000000000000000000000000
310
0000000000000000000000F5000000000000000000000000F50000F5000000000000000000000000000000000000000000000000000000000000000000000000000000000000000000000000000000000000000000F50000F50000000000000000000000000000000000000000000000000000000000000000000000000000
310
0000000000000000000000000000000000000000000000000000000000000000000000000000000000F500000000000000000000000000000000000000000000000000000000000000000000000000000000000000000000000000000000000000000000000000000000000000000000000000000000000000000000000000
310
00000000000000000000000000F5000000000000000000000000F50000F5000000000000000000000000000000000000000000000000000000000000000000000000000000000000000000000000000000000000000000F50000F5000000000000000000000000000000000000000000000000000000000000000000000000
310
00000000000000000000000000000000000000000000000000000000000000000000000000000000000000F50000000000000000000000000000000000000000000000000000000000000000000000000000000000000000000000000000000000000000000000000000000000000000000000000000000000000000000000
310
000000000000000000000000000000F5000000000000000000000000F50000F5000000000000000000000000000000000000000000000000000000000000000000000000000000000000000000000000000000000000000000F50000F500000000000000000000000000000000000000000000000000000000000000000000
310
000000000000000000000000000000000000000000000000000000000000000000000000000000000000000000F5000000000000000000000000000000000000000000000000000000000000000000000000000000000000000000000000000000000000000000000000000000000000000000000000000000000000000000
310
0000000000000000000000000000000000F500000000F5F5F5F5F5F5F5F5F5F5F5F5F500F5F5F5F5F5F5F5F5F5F5F5F5F5F5F5F5F5F5F5F5F5F5F5F5F5F5F5F5F5F5F5F5F5F5F50000000000000000F5F5F5F5F5F5F50000000000F50000F50000000000000000000000000000000000000000000000000000000000000000
310
0000000000000000000000000000000000000000000000000000000000000000000000000000000000000000000000F500000000000000000000000000000000000000000000000000000000000000000000000000000000000000000000000000000000000000000000000000000000000000000000000000000000000000
310
00000000000000000000000000000000000000F5000000000000F50000000000F50000F50000F5000000000000000000000000000000000000000000000000000000000000000000F50000000000000000F50000000000F50000000000F50000F5000000000000000000000000000000000000000000000000000000000000
310
00000000000000000000000000000000000000000000000000000000000000000000000000000000000000000000000000F50000000000000000000000000000000000000000000000000000000000000000000000000000000000000000000000000000000000000000000000000000000000000000000000000000000000
310
000000000000000000000000000000000000000000F50000000000F5F50000000000F50000F50000F5000000000000000000000000000000000000000000000000000000000000000000F500F5F5F5F5F5F5F5F5F5F5F5F5F5F5F5F5F5F5F5F5F500F500000000000000000000000000000000000000000000000000000000
310
000000000000000000000000000000000000000000000000000000000000000000000000000000000000000000000000000000F5000000000000000000000000000000000000000000000000000000000000000000000000000000000000000000000000000000000000000000000000000000000000000000000000000000
310
0000000000000000000000000000000000000000000000F50000000000F5F50000000000F50000F50000F5000000000000000000000000000000000000000000000000000000000000000000F500F5000000000000000000000000000000000000F5F500F50000000000000000000000000000000000000000000000000000
310
0000000000000000000000000000000000000000000000000000000000000000000000000000000000000000000000000000000000F500000000000000000000000000000000000000000000000000000000000000000000000000000000000000000000000000000000000000000000000000000000000000000000000000
310
00000000000000000000000000000000000000000000000000F5000000000000F50000000000F50000F50000F5000000000000000000000000000000000000000000000000000000000000000000F500F5000000000000000000000000000000000000F5F500F5000000000000000000000000000000000000000000000000
310
00000000000000000000000000000000000000000000000000000000000000000000000000000000000000000000000000000000000000F50000000000000000000000000000000000000000000000000000000000000000000000000000000000000000000000000000000000000000000000000000000000000000000000
310
000000000000000000000000000000000000000000000000000000F5000000000000F50000000000F50000F50000F5000000000000000000000000000000000000000000000000000000000000000000F500F5000000000000000000000000000000000000F5F500F500000000000000000000000000000000000000000000
310
000000000000000000000000000000000000000000000000000000000000000000000000000000000000000000000000000000000000000000F5000000000000000000000000000000000000000000000000000000000000000000000000000000000000000000000000000000000000000000000000000000000000000000
310
0000000000000000000000000000000000000000000000000000000000F5000000000000F50000000000F50000F50000F5000000000000000000000000000000000000000000000000000000000000000000F500F5000000000000000000000000000000000000F5F500F50000000000000000000000000000000000000000
310
0000000000000000000000000000000000000000000000000000000000000000000000000000000000000000000000000000000000000000000000F500000000000000000000000000000000000000000000000000000000000000000000000000000000000000000000000000000000000000000000000000000000000000
310
00000000000000000000000000000000000000000000000000000000000000F5000000000000F50000000000F50000F50000F5000000000000000000000000000000000000000000000000000000000000000000F500F5000000000000000000000000000000000000F5F500F5000000000000000000000000000000000000
310
00000000000000000000000000000000000000000000000000000000000000000000000000000000000000000000000000000000000000000000000000F50000000000000000000000000000000000000000000000000000000000000000000000000000000000000000000000000000000000000000000000000000000000
310
000000000000000000000000000000000000000000000000000000000000000000F5000000000000F50000000000F50000F50000F5000000000000000000000000000000000000000000000000000000000000000000F500F5000000000000000000000000000000000000F5F500F500000000000000000000000000000000
310
000000000000000000000000000000000000000000000000000000000000000000000000000000000000000000000000000000000000000000000000000000F5000000000000000000000000000000000000000000000000000000000000000000000000000000000000000000000000000000000000000000000000000000
310
0000000000000000000000000000000000000000000000000000000000000000000000F5000000000000F50000000000F50000F5F5F5F5F5F5F5F5F5F5F5F5F5F5F5F5F5F5F5F5F5F5F5F5F5F5F5F5F5F5F5F5F5F5F5F5F5F5F5F5F5F5F5F5F5F5F5F5F5F5F5F5F5F5F5F5F5F5F5F500F50000000000000000000000000000
310
0000000000000000000000000000000000000000000000000000000000000000000000000000000000000000000000000000000000000000000000000000000000F500000000000000000000000000000000000000000000000000000000000000000000000000000000000000000000000000000000000000000000000000
310
00000000000000000000000000000000000000000000000000000000000000000000000000F5000000000000F500000000F5F5F5F5F5F5F5F5F5F5F5F5F5F5F5F5F5F5F5F5F5F5F5F5F5F5F5F5F5F5F5F5F5F5F5F5F5F5F5F5F5F5F5F5F5F5F5F5F5F5F5F5F5F5F5F5F5F5F5F5F5F5F5F5F5F5F50000000000000000000000
310
00000000000000000000000000000000000000000000000000000000000000000000000000000000000000000000000000000000000000000000000000000000000000F50000000000000000000000000000000000000000000000000000000000000000000000000000000000000000000000000000000000000000000000
310
000000000000000000000000000000000000000000000000000000000000000000000000000000F5000000000000F500000000F5F5F5F5F5000000000000000000000000000000000000000000000000000000000000000000000000000000000000000000000000000000000000000000F5F5F5F5F5000000000000000000
310
000000000000000000000000000000000000000000000000000000000000000000000000000000000000000000000000000000000000000000000000000000000000000000F5000000000000000000000000000000000000000000000000000000000000000000000000000000000000000000000000000000000000000000
310
0000000000000000000000000000000000000000000000000000000000000000000000000000000000F5000000000000F500000000F5F5F5F5F500000000000000000000000000000000000000F500000000000000000000000000000000000000000000000000000000000000000000000000F5F5F5F5F5F5F5F5F5F5F5F5
310
F5F5F5F5F5000000000000000000000000000000000000000000000000000000000000000000000000000000000000000000000000000000000000000000000000000000000000F500000000000000000000000000000000000000000000000000000000000000000000000000000000000000000000000000000000000000
310
00000000000000000000000000000000000000000000000000000000000000000000000000000000000000F5000000000000F500000000F5F5F5F5F5000000000000000000000000000000000000F500F5000000000000000000000000000000000000000000000000000000000000000000000000F5F5F5F5F5F5F5F5F5F5
310
F5F5000000F500000000000000000000000000000000000000000000000000000000000000000000000000000000000000000000000000000000000000000000000000000000000000F50000000000000000000000000000000000000000000000000000000000000000000000000000000000000000000000000000000000
310
000000000000000000000000000000000000000000000000000000000000000000000000000000000000000000F5000000000000F500000000000000F5F50000000000000000000000000000000000F5F5F5F5000000000000000000000000000000000000000000000000000000000000000000000000F5F5000000000000
310
0000F500000000F500000000000000000000000000000000000000000000000000000000000000000000000000000000000000000000000000000000000000000000000000000000000000F5000000000000000000000000000000000000000000000000000000000000000000000000000000000000000000000000000000
310
0000000000000000000000000000000000000000000000000000000000000000000000000000000000000000000000F5000000000000F500000000000000F5F5000000000000000000000000000000000000F5F500000000000000000000000000000000000000000000000000000000000000000000000000F5F500000000
310
000000F5F500000000F500000000000000000000000000000000000000000000000000000000000000000000000000000000000000000000000000000000000000000000000000000000000000F500000000000000000000000000000000000000000000000000000000000000000000000000000000000000000000000000
310
00000000000000000000000000000000000000000000000000000000000000000000000000000000000000000000000000F5000000000000F500000000000000F5F5000000000000000000000000000000000000F5F500000000000000000000000000000000000000000000000000000000000000000000000000F5F50000
310
000000000000F500000000F500000000000000000000000000000000000000000000000000000000000000000000000000000000000000000000000000000000000000000000000000000000000000F50000000000000000000000000000000000000000000000000000000000000000000000000000000000000000000000
310
000000000000000000000000000000000000000000000000000000000000000000000000000000000000000000000000000000F5000000000000F500000000000000F5F5000000000000000000000000000000000000F5F500000000000000000000000000000000000000000000000000000000000000000000000000F5F5
310
0000000000000000F500000000F500000000000000000000000000000000000000000000000000000000000000000000000000000000000000000000000000000000000000000000000000000000000000F5000000000000000000000000000000000000000000000000000000000000000000000000000000000000000000
310
0000000000000000000000000000000000000000000000000000000000000000000000000000000000000000000000000000000000F5000000000000F500000000000000F5F5000000000000000000000000000000000000000000000000000000000000000000000000000000000000000000000000000000000000000000
310
F5F50000000000000000F500000000F500000000000000000000000000000000000000000000000000000000000000000000000000000000000000000000000000000000000000000000000000000000000000F500000000000000000000000000000000000000000000000000000000000000000000000000000000000000
310
00000000000000000000000000000000000000000000000000000000000000000000000000000000000000000000000000000000000000F5000000000000F500000000000000F5F500000000000000000000000000000000000000000000000000000000000000000000000000000000000000000000000000000000000000
310
0000F5F50000000000000000F500000000F500000000000000000000000000000000000000000000000000000000000000000000000000000000000000000000000000000000000000000000000000000000000000F50000000000000000000000000000000000000000000000000000000000000000000000000000000000
310
000000000000000000000000000000000000000000000000000000000000000000000000000000000000000000000000000000000000000000F50000000000000000000000000000F5F50000000000000000000000000000000000000000000000000000000000000000000000000000000000000000000000000000000000
310
00000000F5F50000000000000000F500000000F500000000000000000000000000000000000000000000000000000000000000000000000000000000000000000000000000000000000000000000000000000000000000F5000000000000000000000000000000000000000000000000000000000000000000000000000000
310
0000000000000000000000000000000000000000000000000000000000000000000000000000000000000000000000000000000000000000000000F50000000000F500F5000000000000F5F5000000000000000000000000000000000000000000000000000000000000000000000000000000000000000000000000000000
310
000000000000F5F50000000000000000F500000000F500000000000000000000000000000000000000000000000000000000000000000000000000000000000000000000000000000000000000000000000000000000000000F500000000000000000000000000000000000000000000000000000000000000000000000000
310
00000000000000000000000000000000000000000000000000000000000000000000000000000000000000000000000000000000000000000000000000F50000000000F5F500000000000000F5F500000000000000000000000000000000000000000000000000000000000000000000000000000000000000000000000000
310
0000000000000000F5F50000000000000000F5000000F5F5F5000000000000000000000000000000000000000000000000000000000000000000000000000000000000000000000000000000000000000000000000000000000000F50000000000000000000000000000000000000000000000000000000000000000000000
310
000000000000000000000000000000000000000000000000000000000000000000000000000000000000000000000000000000000000000000000000000000F50000000000F5F5F5000000000000F5F50000000000000000000000000000000000000000000000000000000000000000000000000000000000000000000000
310
00000000000000000000F5F500000000000000F5F5F50000F5F500000000000000000000000000000000000000000000000000000000000000000000000000000000000000000000000000000000000000000000000000000000000000F5000000000000000000000000000000000000000000000000000000000000000000
310
0000000000000000000000000000000000000000000000000000000000000000000000000000000000000000000000000000000000000000000000000000000000F50000000000F5F5F5000000000000F5F5000000000000000000000000000000000000000000000000000000000000000000000000000000000000000000
310
000000000000000000000000F5F500000000000000F5F5F50000F5F5F5000000000000000000000000000000000000000000000000000000000000000000000000000000000000000000000000000000000000000000000000000000000000F500000000000000000000000000000000000000000000000000000000000000
310
00000000000000000000000000000000000000000000000000000000000000000000000000000000000000000000000000000000000000000000000000000000000000F5000000000000F500000000000000F5F500000000000000000000000000000000000000000000000000000000000000000000000000000000000000
310
0000000000000000000000000000F5F500000000000000F5F5F50000F5F500000000000000000000000000000000000000000000000000000000000000000000000000000000000000000000000000000000000000000000000000000000000000F50000000000000000000000000000000000000000000000000000000000
310
000000000000000000000000000000000000000000000000000000000000000000000000000000000000000000000000000000000000000000000000000000000000000000F50000000000F5F5F5000000000000F5F50000000000000000000000000000000000000000000000000000000000000000000000000000000000
310
00000000000000000000000000000000F5F500000000000000F5F5F50000F5F5F5000000000000000000000000000000000000000000000000000000000000000000000000000000000000000000000000000000000000000000000000000000000000F5000000000000000000000000000000000000000000000000000000
310
0000000000000000000000000000000000000000000000000000000000000000000000000000000000000000000000000000000000000000000000000000000000000000000000F50000000000000000000000000000F5F500000000000000000000F500F50000F5F500F500000000F500F5000000F5000000000000000000
310
000000000000000000000000000000000000F5F500000000000000F5F5F50000F5F5F5000000000000000000000000000000000000000000000000000000000000000000000000000000000000000000000000000000000000000000000000000000000000F500000000000000000000000000000000000000000000000000
310
00000000000000000000000000000000000000000000000000000000000000000000000000000000000000000000000000000000000000000000000000000000000000000000000000F50000000000000000000000000000F5F500000000000000000000F500F50000F5F500F500000000F50000F50000F500000000000000
310
0000000000000000000000000000000000000000F5F5000000000000000000000000000000000000000000000000000000000000000000000000000000000000000000000000000000000000000000000000000000000000000000000000000000000000000000F50000000000000000000000000000000000000000000000
310
000000000000000000000000000000000000000000000000000000000000000000000000000000000000000000000000000000000000000000000000000000000000000000000000000000F50000000000F5F5F5000000000000F5F500000000000000000000F5F5F50000F5F5F5F5F5F5F5F5F5F500F50000F50000000000
310
00000000000000000000000000000000000000000000F5F5000000000000000000000000000000000000000000000000000000000000000000000000000000000000000000000000000000000000000000000000000000000000000000000000000000000000000000F5000000000000000000000000000000000000000000
310
0000000000000000000000000000000000000000000000000000000000000000000000000000000000000000000000000000000000000000000000000000000000000000000000000000000000F50000000000F5F5F5000000000000F5F500000000000000000000F500F500F5F500F5F500F500F5F5000000F500F5F50000
310
000000000000000000000000000000000000000000000000F5F500000000000000F5F5F50000F5F5F5000000000000000000000000000000000000000000000000000000000000000000000000000000000000000000000000000000000000000000000000000000000000F500000000000000000000000000000000000000
310
00000000000000000000000000000000000000000000000000000000000000000000000000000000000000000000000000000000000000000000000000000000000000000000000000000000000000F500000000000000F5000000000000F5F500000000000000000000F500F500F5F500F5F5F5F50000F500F5F5F5F50000
310
F500000000000000000000000000000000000000000000000000F5F500000000000000F500F50000F500F5000000000000000000000000000000000000000000000000000000000000000000000000000000000000000000000000000000000000000000000000000000000000F50000000000000000000000000000000000
310
000000000000000000000000000000000000000000000000000000000000000000000000000000000000000000000000000000000000000000000000000000000000000000000000000000000000000000F50000000000F5F500000000000000F5F50000000000000000000000000000000000000000000000000000000000
310
00000000000000000000000000000000000000000000000000000000F5F500000000000000F5F5F50000F50000000000000000000000000000000000000000000000000000000000000000000000000000000000000000000000000000000000000000000000000000000000000000F5000000000000000000000000000000
310
0000000000000000000000000000000000000000000000000000000000000000000000000000000000000000000000000000000000000000000000000000000000000000000000000000000000000000000000F5000000000000F5F5000000000000F5F5000000000000000000000000000000000000000000000000000000
310
000000000000000000000000000000000000000000000000000000000000F5F500000000000000F500000000F5F5F5000000000000000000000000000000000000000000000000000000000000000000000000000000000000000000000000000000000000000000000000000000000000F500000000000000000000000000
310
00000000000000000000000000000000000000000000000000000000000000000000000000000000000000000000000000000000000000000000000000000000000000000000000000000000000000000000000000F50000000000F5F500000000000000F5F500000000000000000000000000000000000000000000000000
310
0000000000000000000000000000000000000000000000000000000000000000F5F500000000000000F5F5F50000F5F5F5000000000000000000000000000000000000000000000000000000000000000000000000000000000000000000000000000000000000000000000000000000000000F50000000000000000000000
310
000000000000000000000000000000000000000000000000000000000000000000000000000000000000000000000000000000000000000000000000000000000000000000000000000000000000000000000000000000F5000000000000F5F5000000000000F5F50000000000000000000000000000000000000000000000
310
00000000000000000000000000000000000000000000000000000000000000000000F5F500000000000000F5F5F50000F5F5F5000000000000000000000000000000000000000000000000000000000000000000000000000000000000000000000000000000000000000000000000000000000000F5000000000000000000
310
0000000000000000000000000000000000000000000000000000000000000000000000000000000000000000000000000000000000000000000000000000000000000000000000000000000000000000000000000000000000F5000000000000F500000000000000F5F5000000000000000000000000000000000000000000
310
000000000000000000000000000000000000000000000000000000000000000000000000F5F500000000000000F500F50000F500F5000000000000000000000000000000000000000000000000000000000000000000000000000000000000000000000000000000000000000000000000000000000000F500000000000000
310
00000000000000000000000000000000000000000000000000000000000000000000000000000000000000000000000000000000000000000000000000000000000000000000000000000000000000000000000000000000000000F5000000000000F500000000000000F5F500000000000000000000000000000000000000
310
0000000000000000000000000000000000000000000000000000000000000000000000000000F5F500000000000000F5F5F50000F5F5F5000000000000000000000000000000000000000000000000000000000000000000000000000000000000000000000000000000000000000000000000000000000000F50000000000
310
000000000000000000000000000000000000000000000000000000000000000000000000000000000000000000000000000000000000000000000000000000000000000000000000000000000000000000000000000000000000000000F5000000000000F500000000000000F5F50000000000000000000000000000000000
310
00000000000000000000000000000000000000000000000000000000000000000000000000000000F5F50000000000000000F5000000F5F5F5000000000000000000000000000000000000000000000000000000000000000000000000000000000000000000000000000000000000000000000000000000000000F5000000
310
0000000000000000000000000000000000000000000000000000000000000000000000000000000000000000000000000000000000000000000000000000000000000000000000000000000000000000000000000000000000000000000000F5000000000000F500000000000000F5F5000000000000000000000000000000
310
000000000000000000000000000000000000000000000000000000000000000000000000000000000000F5F50000000000000000F500000000F500000000000000000000000000000000000000000000000000000000000000000000000000000000000000000000000000000000000000000000000000000000000000F500
310
00000000000000000000000000000000000000000000000000000000000000000000000000000000000000000000000000000000000000000000000000000000000000000000000000000000000000000000000000000000000000000000000000F5000000000000F500000000000000F5F500000000000000000000000000
310
0000000000000000000000000000000000000000000000000000000000000000000000000000000000000000F5F50000000000000000F500000000F500000000000000000000000000000000000000000000000000000000000000000000000000000000000000000000000000000000000000000000000000000000000000
310
F50000000000000000000000000000000000000000000000000000000000000000000000000000000000000000000000000000000000000000000000000000000000000000000000000000000000000000000000000000000000000000000000000000F5000000000000F500000000000000F5F50000000000000000000000
310
00000000000000F50000000000000000000000000000000000000000000000000000000000000000000000000000F5F50000000000000000F500000000F50000000000000000000000000000000000000000000000000000000000000000000000000000000000000000000000000000000000000000000000000000000000
310
0000F50000000000000000000000000000000000000000000000000000000000000000000000000000000000000000000000000000000000000000000000000000000000000000000000000000000000000000000000000000000000000000000000000000F5000000000000F500000000000000F5F5000000000000000000
310
0000000000000000F5F50000000000000000000000000000000000000000000000000000000000000000000000000000F5F50000000000000000F500000000F5000000000000000000000000000000000000000000000000000000000000000000000000000000000000000000000000000000000000000000000000000000
310
00000000F50000000000000000000000000000000000000000000000000000000000000000000000000000000000000000000000000000000000000000000000000000000000000000000000000000000000000000000000000000000000000000000000000000F5000000000000F500000000000000F5F500000000000000
310
00000000000000000000F500F500000000000000000000000000000000000000000000000000000000000000000000000000F5F500000000000000F5F500000000F500000000000000000000000000000000000000000000000000000000000000000000000000000000000000000000000000000000000000000000000000
310
000000000000F50000000000000000000000000000000000000000000000000000000000000000000000000000000000000000000000000000000000000000000000000000000000000000000000000000000000000000000000000000000000000000000000000000F5000000000000F500000000000000F5F50000000000
310
0000000000000000000000F5F5F5F500000000000000000000000000000000000000000000000000000000000000000000000000F5F50000000000000000F500000000F50000000000000000000000000000000000000000000000000000000000000000000000000000000000000000000000000000000000000000000000
310
0000000000000000F50000000000000000000000000000000000000000000000000000000000000000000000000000000000000000000000000000000000000000000000000000000000000000000000000000000000000000000000000000000000000000000000000000F5000000000000F500000000F5F5F5F5F5000000
310
0000000000000000000000000000F5F50000000000000000000000000000000000000000000000000000000000000000000000000000F5F5F5F5F5F5F5F5F5F5F5F5000000F5000000000000000000000000000000000000000000000000000000000000000000000000000000000000000000000000000000000000000000
310
00000000000000000000F50000000000000000000000000000000000000000000000000000000000000000000000000000000000000000000000000000000000000000000000000000000000000000000000000000000000000000000000000000000000000000000000000000F5000000000000F500000000F5F5F5F5F500
310
00000000000000000000000000000000F5F50000000000000000000000000000000000000000000000000000000000000000000000000000F5F5F5F5F5F5F5F5F5F5F5F5F5F5F5F5F5000000000000000000000000000000000000000000000000000000000000000000000000000000000000000000000000000000000000
310
000000000000000000000000F50000000000000000000000000000000000000000000000000000000000000000000000000000000000000000000000000000000000000000000000000000000000000000000000000000000000000000000000000000000000000000000000000000F5000000000000F500000000F5F5F5F5
310
F5000000000000000000000000000000000000000000000000000000000000000000000000000000000000000000000000000000000000000000F5F5F5F5F500000000000000000000000000000000000000000000000000000000000000000000000000000000000000000000000000000000000000000000000000000000
310
0000000000000000000000000000F50000000000000000000000000000000000000000000000000000000000000000000000000000000000000000000000000000000000000000000000000000000000000000000000000000000000000000000000000000000000000000000000000000F5000000000000F500000000F5F5
310
F5F5F5F5F5F5F5F5F5F5F5F5F5F5F5F5F5F5F5F5F5F5F5F5F5F5F5F5F5F5F5F5F5F5F5F5F5F5F5F5F5F5F5F5F5F5F5F5F5F5F5F5F5F5F5F5F5F5F5F5F5F5F5F5F50000000000000000000000000000000000000000000000000000000000000000000000000000000000000000000000000000000000000000000000000000
310
00000000000000000000000000000000F50000000000000000000000000000000000000000000000000000000000000000000000000000000000000000000000000000000000000000000000000000000000000000000000000000000000000000000000000000000000000000000000000000F50000000000F5F500000000
310
000000F5F5F5F5F5F5F5F5F5F5F5F5F5F5F5F5F5F5F5F5F5F5F5F5F5F5F5F5F5F5F5F5F5F5F5F5F5F5F5F5F5F5F5F5F5F5F5F5F5F5F5F5F5F5F5F5F5F5F5F500F5F5F5F5F5F5F5F5F5F5F5F5F5F5F5000000000000000000000000000000000000000000000000000000000000000000000000000000000000000000000000
310
000000000000000000000000000000000000F50000000000000000000000000000000000000000000000000000000000000000000000000000000000000000000000000000000000000000000000000000000000000000000000000000000000000000000000000000000000000000000000000000F5000000000000F50000
310
0000000000F50000F5000000000000000000000000000000000000000000000000000000000000000000F500000000000000000000000000000000000000000000000000000000000000F500000000F50000000000000000000000000000000000000000000000000000000000000000000000000000000000000000000000
310
0000000000000000000000000000000000000000F50000000000000000000000000000000000000000000000000000000000000000000000000000000000000000000000000000000000000000000000000000000000000000000000000000000000000000000000000000000000000000000000000000F500000000F5F5F5
310
F5F5F5F5F5F5F5F5F500F5F5F5F5F5F5F5F5F5F5F5F5F5F5F5F5F5F5F5F5F5F5F5F5F5F5F5F5F5F5F5F5F5F5F5000000000000000000000000000000000000000000000000000000000000F5F500000000F5000000000000000000000000000000000000000000000000000000000000000000000000000000000000000000
310
00000000000000000000000000000000000000000000F50000000000000000000000000000000000000000000000000000000000000000000000000000000000000000000000000000000000000000000000000000000000000000000000000000000000000000000000000000000000000000000000000000F50000000000
310
000000000000000000F50000000000000000000000000000000000000000000000000000000000000000000000000000000000000000000000000000000000000000000000000000000000000000F500000000F500000000000000000000000000000000000000000000000000000000000000000000000000000000000000
310
000000000000000000000000000000000000000000000000F50000000000000000000000000000000000000000000000000000000000000000000000000000000000000000000000000000000000000000000000000000000000000000000000000000000000000000000000000000000000000000000000000000F5000000
310
0000000000000000000000F50000F5000000000000000000000000000000000000000000000000000000000000000000F500000000000000000000000000000000000000000000000000000000000000F500000000F50000000000000000000000000000000000000000000000000000000000000000000000000000000000
310
0000000000000000000000000000000000000000000000000000F50000000000000000000000000000000000000000000000000000000000000000000000000000000000000000000000000000000000000000000000000000000000000000000000000000000000000000000000000000000000000000000000000000F500
310
00000000F5F5F5F500F5F5F5F5F50000F5F5F5F5F5F5F5F5F5F5F5F5F500F5F5F500F5F5F5F5F5F5F5F5F5F5F5F5F5F5F5F5F500000000000000000000000000000000000000000000000000000000000000000000000000000000000000000000000000000000000000000000000000000000000000000000000000000000
310
00000000000000000000000000000000000000000000000000000000F50000000000000000000000000000000000000000000000000000000000000000000000000000000000000000000000000000000000000000000000000000000000000000000000000000000000000000000000000000000000000000000000000000
310
F5000000000000F5F5F5000000F5F5F50000F5F5F5000000000000000000000000F500F5F5F5F50000000000000000000000F5F5F5000000000000000000000000000000000000000000000000000000000000F500F50000F5F5F5000000000000000000000000000000000000000000000000000000000000000000000000
310
000000000000000000000000000000000000000000000000000000000000F5000000000000000000000000000000000000000000000000000000000000000000000000000000000000000000000000000000000000000000000000000000000000000000000000000000000000000000000000000000000000000000000000
310
0000F5000000000000F500F50000000000F50000F50000000000000000000000000000F5F5F500F50000000000000000000000000000F5000000000000000000000000000000000000000000000000000000000000F5F5F50000F5F5F500000000000000000000000000000000000000000000000000000000000000000000
310
0000000000000000000000000000000000000000000000000000000000000000F500000000000000000000000000000000000000000000000000000000000000000000000000000000000000000000000000000000000000000000000000000000000000000000000000000000000000000000000000000000000000000000
310
00000000F50000000000000000000000000000000000000000000000000000000000000000000000000000000000000000000000000000000000000000000000000000000000000000000000000000000000000000000000F5000000F500F50000000000000000000000000000000000000000000000000000000000000000
310
00000000000000000000000000000000000000000000000000000000000000000000F50000000000000000000000000000000000000000000000000000000000000000000000000000000000000000000000000000000000000000000000000000000000000000000000000000000000000000000000000000000000000000
310
000000000000F500000000000000000000000000000000000000000000000000000000000000000000000000000000000000000000000000000000000000000000000000000000000000000000000000000000000000000000F5F5F50000F5F500000000000000000000000000000000000000000000000000000000000000
310
000000000000000000000000000000000000000000000000000000000000000000000000F5000000000000000000000000000000000000000000000000000000000000000000000000000000000000000000000000000000000000000000000000000000000000000000000000000000000000000000000000000000000000
310
0000000000000000F500000000000000000000000000000000000000000000000000000000000000000000000000000000000000000000000000000000000000000000000000000000000000000000000000000000000000000000000000000000000000000000000000000000000000000000000000000000000000000000
310
0000000000000000000000000000000000000000000000000000000000000000000000000000F500000000000000000000000000000000000000000000000000000000000000000000000000000000000000000000000000000000000000000000000000000000000000000000000000000000000000000000000000000000
310
00000000000000000000F50000000000000000000000000000000000000000000000000000000000000000000000000000000000000000000000000000000000000000000000000000000000000000000000000000000000000000000000000000000000000000000000000000000000000000000000000000000000000000
310
00000000000000000000000000000000000000000000000000000000000000000000000000000000F50000000000000000000000000000000000000000000000000000000000000000000000000000000000000000000000000000000000000000000000000000000000000000000000000000000000000000000000000000
310
000000000000000000000000F5000000000000000000000000000000000000000000000000000000000000000000000000000000000000000000000000000000000000000000000000000000000000000000000000000000000000000000000000000000000000000000000000000000000000000000000000000000000000
310
000000000000000000000000000000000000000000000000000000000000000000000000000000000000F5000000000000000000000000000000000000000000000000000000000000000000000000000000000000000000000000000000000000000000000000000000000000000000000000000000000000000000000000
310
0000000000000000000000000000F5F5F5F5F5F5F5F5F5F5F5F5F5F5F5F5F5F5F5F5F5F5F5F5F5F5F5F5F5F5F5F5F5F5F5F5F5F5F5F5F5F5F5F5F5F5F5F5F5F5F5F5F5F5F5F5F5F5F5F5F5F5F5F5F5F5F5F5F5F5F5F5F5F5F5F5F5F5F5F5F5F5F5F5F5F5F5F5F5F5F5F5F5F5F5F5F5F5F5F5F5F5F5F5F5F5F5F5F5F5F5F5F5
310
F5F5F5F5F5F5F5F5F5F5F5F5F5F5F5F5F5F5F5F5F5F5F5F5F5F5F5F5F5F5F5F5F5F5F5F5F5F5F5F5F5F5F5F5F500000000000000000000000000000000000000000000000000000000000000000000000000000000000000000000000000
  0
XRECORD
  5
1E87
102
{ACAD_REACTORS
330
1BA5
102
}
330
1BA5
100
AcDbXrecord
280
     1
102
MATERIAL
148
0.0
149
0.0
149
0.0
 93
        0
 94
      127
282
     0
 72
     0
 77
     0
171
     0
175
     0
179
     0
273
     0
  0
XRECORD
  5
1BA7
102
{ACAD_REACTORS
330
1BA5
102
}
330
1BA5
100
AcDbXrecord
280
     1
270
     1
271
     1
  0
XRECORD
  5
1BA6
102
{ACAD_REACTORS
330
1BA5
102
}
330
1BA5
100
AcDbXrecord
280
     1
270
     1
271
     1
  0
XRECORD
  5
1BAA
102
{ACAD_REACTORS
330
1BA5
102
}
330
1BA5
100
AcDbXrecord
280
     1
270
     1
271
     1
  0
XRECORD
  5
1BA9
102
{ACAD_REACTORS
330
1BA5
102
}
330
1BA5
100
AcDbXrecord
280
     1
270
     1
271
     1
  0
XRECORD
  5
1BAB
102
{ACAD_REACTORS
330
1BA5
102
}
330
1BA5
100
AcDbXrecord
280
     1
270
     1
271
     1
  0
XRECORD
  5
1BA8
102
{ACAD_REACTORS
330
1BA5
102
}
330
1BA5
100
AcDbXrecord
280
     1
270
     1
271
     1
  0
XRECORD
  5
1E86
102
{ACAD_REACTORS
330
1B9D
102
}
330
1B9D
100
AcDbXrecord
280
     1
102
MATERIAL
148
0.0
149
0.0
149
0.0
 93
        0
 94
      127
282
     0
 72
     0
 77
     0
171
     0
175
     0
179
     0
273
     0
  0
XRECORD
  5
1B9F
102
{ACAD_REACTORS
330
1B9D
102
}
330
1B9D
100
AcDbXrecord
280
     1
270
     1
271
     1
  0
XRECORD
  5
1B9E
102
{ACAD_REACTORS
330
1B9D
102
}
330
1B9D
100
AcDbXrecord
280
     1
270
     1
271
     1
  0
XRECORD
  5
1BA2
102
{ACAD_REACTORS
330
1B9D
102
}
330
1B9D
100
AcDbXrecord
280
     1
270
     1
271
     1
  0
XRECORD
  5
1BA1
102
{ACAD_REACTORS
330
1B9D
102
}
330
1B9D
100
AcDbXrecord
280
     1
270
     1
271
     1
  0
XRECORD
  5
1BA3
102
{ACAD_REACTORS
330
1B9D
102
}
330
1B9D
100
AcDbXrecord
280
     1
270
     1
271
     1
  0
XRECORD
  5
1BA0
102
{ACAD_REACTORS
330
1B9D
102
}
330
1B9D
100
AcDbXrecord
280
     1
270
     1
271
     1
  0
XRECORD
  5
1E88
102
{ACAD_REACTORS
330
1BAD
102
}
330
1BAD
100
AcDbXrecord
280
     1
102
MATERIAL
148
0.0
149
0.0
149
0.0
 93
        0
 94
      127
282
     0
 72
     0
 77
     0
171
     0
175
     0
179
     0
273
     0
  0
XRECORD
  5
1BAF
102
{ACAD_REACTORS
330
1BAD
102
}
330
1BAD
100
AcDbXrecord
280
     1
270
     1
271
     1
  0
XRECORD
  5
1BAE
102
{ACAD_REACTORS
330
1BAD
102
}
330
1BAD
100
AcDbXrecord
280
     1
270
     1
271
     1
  0
XRECORD
  5
1BB2
102
{ACAD_REACTORS
330
1BAD
102
}
330
1BAD
100
AcDbXrecord
280
     1
270
     1
271
     1
  0
XRECORD
  5
1BB1
102
{ACAD_REACTORS
330
1BAD
102
}
330
1BAD
100
AcDbXrecord
280
     1
270
     1
271
     1
  0
XRECORD
  5
1BB3
102
{ACAD_REACTORS
330
1BAD
102
}
330
1BAD
100
AcDbXrecord
280
     1
270
     1
271
     1
  0
XRECORD
  5
1BB0
102
{ACAD_REACTORS
330
1BAD
102
}
330
1BAD
100
AcDbXrecord
280
     1
270
     1
271
     1
  0
CELLSTYLEMAP
  5
1E84
102
{ACAD_REACTORS
330
1E83
102
}
330
1E83
100
AcDbCellStyleMap
 90
        3
300
CELLSTYLE
  1
TABLEFORMAT_BEGIN
 90
        5
170
     1
 91
        0
 92
    32768
 62
   257
 93
        1
300
CONTENTFORMAT
  1
CONTENTFORMAT_BEGIN
 90
        0
 91
        0
 92
      512
 93
        0
300

 40
0.0
140
1.0
 94
        5
 62
     0
340
1BE0
144
0.25
309
CONTENTFORMAT_END
171
     0
 94
        0
309
TABLEFORMAT_END
  1
CELLSTYLE_BEGIN
 90
        1
 91
        1
300
_TITLE
309
CELLSTYLE_END
300
CELLSTYLE
  1
TABLEFORMAT_BEGIN
 90
        5
170
     1
 91
        0
 92
        0
 62
   257
 93
        1
300
CONTENTFORMAT
  1
CONTENTFORMAT_BEGIN
 90
        0
 91
        0
 92
      512
 93
        0
300

 40
0.0
140
1.0
 94
        5
 62
     0
340
1BE0
144
0.18
309
CONTENTFORMAT_END
171
     0
 94
        0
309
TABLEFORMAT_END
  1
CELLSTYLE_BEGIN
 90
        2
 91
        1
300
_HEADER
309
CELLSTYLE_END
300
CELLSTYLE
  1
TABLEFORMAT_BEGIN
 90
        5
170
     1
 91
        0
 92
        0
 62
   257
 93
        1
300
CONTENTFORMAT
  1
CONTENTFORMAT_BEGIN
 90
        0
 91
        0
 92
      512
 93
        0
300

 40
0.0
140
1.0
 94
        2
 62
     0
340
1BE0
144
0.18
309
CONTENTFORMAT_END
171
     0
 94
        0
309
TABLEFORMAT_END
  1
CELLSTYLE_BEGIN
 90
        3
 91
        2
300
_DATA
309
CELLSTYLE_END
  0
XRECORD
  5
1EB9
102
{ACAD_REACTORS
330
1E83
102
}
330
1E83
100
AcDbXrecord
280
     1
102
ACAD_ROUNDTRIP_PRE2007_TABLESTYLE
 90
      512
 91
        0
  1

 92
      512
 93
        0
  2

 94
      512
 95
        0
  3

  0
XRECORD
  5
1E94
102
{ACAD_REACTORS
330
1E93
102
}
330
1E93
100
AcDbXrecord
280
     1
102
RTVSPropertyOp0
 70
     1
102
RTVSPropertyOp1
 70
     1
102
RTVSPropertyOp2
 70
     1
102
RTVSPropertyOp3
 70
     1
102
RTVSPropertyOp4
 70
     1
102
RTVSPropertyOp5
 70
     1
102
RTVSPropertyOp6
 70
     1
102
RTVSPropertyOp7
 70
     1
102
RTVSPropertyOp8
 70
     1
102
RTVSPropertyOp9
 70
     1
102
RTVSPropertyOp10
 70
     1
102
RTVSPropertyOp11
 70
     1
102
RTVSPropertyOp12
 70
     1
102
RTVSPropertyOp13
 70
     1
102
RTVSPropertyOp14
 70
     1
102
RTVSPropertyOp15
 70
     1
102
RTVSPropertyOp16
 70
     1
102
RTVSPropertyOp17
 70
     1
102
RTVSPropertyOp18
 70
     1
102
RTVSPropertyOp19
 70
     1
102
RTVSPropertyOp20
 70
     1
102
RTVSPropertyOp21
 70
     1
102
RTVSPropertyOp22
 70
     1
102
RTVSPropertyOp23
 70
     1
102
RTVSPropertyOp24
 70
     1
102
RTVSPropertyOp25
 70
     1
102
RTVSPropertyOp26
 70
     1
102
RTVSPropertyOp27
 70
     1
102
RTVSPropertyOp28
 70
     1
102
RTVSPropertyOp29
 70
     1
102
RTVSPropertyOp30
 70
     1
102
RTVSPropertyOp31
 70
     1
102
RTVSPropertyOp32
 70
     1
  0
XRECORD
  5
1E92
102
{ACAD_REACTORS
330
1E91
102
}
330
1E91
100
AcDbXrecord
280
     1
102
RTVSPropertyOp0
 70
     1
102
RTVSPropertyOp1
 70
     1
102
RTVSPropertyOp2
 70
     1
102
RTVSPropertyOp3
 70
     1
102
RTVSPropertyOp4
 70
     1
102
RTVSPropertyOp5
 70
     1
102
RTVSPropertyOp6
 70
     1
102
RTVSPropertyOp7
 70
     1
102
RTVSPropertyOp8
 70
     1
102
RTVSPropertyOp9
 70
     1
102
RTVSPropertyOp10
 70
     1
102
RTVSPropertyOp11
 70
     1
102
RTVSPropertyOp12
 70
     1
102
RTVSPropertyOp13
 70
     1
102
RTVSPropertyOp14
 70
     1
102
RTVSPropertyOp15
 70
     1
102
RTVSPropertyOp16
 70
     1
102
RTVSPropertyOp17
 70
     1
102
RTVSPropertyOp18
 70
     1
102
RTVSPropertyOp19
 70
     1
102
RTVSPropertyOp20
 70
     1
102
RTVSPropertyOp21
 70
     1
102
RTVSPropertyOp22
 70
     1
102
RTVSPropertyOp23
 70
     1
102
RTVSPropertyOp24
 70
     1
102
RTVSPropertyOp25
 70
     1
102
RTVSPropertyOp26
 70
     1
102
RTVSPropertyOp27
 70
     1
102
RTVSPropertyOp28
 70
     1
102
RTVSPropertyOp29
 70
     1
102
RTVSPropertyOp30
 70
     1
102
RTVSPropertyOp31
 70
     1
102
RTVSPropertyOp32
 70
     1
  0
XRECORD
  5
1EA0
102
{ACAD_REACTORS
330
1E9F
102
}
330
1E9F
100
AcDbXrecord
280
     1
102
RTVSPropertyOp0
 70
     1
102
RTVSPropertyOp1
 70
     1
102
RTVSPropertyOp2
 70
     1
102
RTVSPropertyOp3
 70
     1
102
RTVSPropertyOp4
 70
     1
102
RTVSPropertyOp5
 70
     1
102
RTVSPropertyOp6
 70
     1
102
RTVSPropertyOp7
 70
     1
102
RTVSPropertyOp8
 70
     1
102
RTVSPropertyOp9
 70
     1
102
RTVSPropertyOp10
 70
     1
102
RTVSPropertyOp11
 70
     1
102
RTVSPropertyOp12
 70
     1
102
RTVSPropertyOp13
 70
     1
102
RTVSPropertyOp14
 70
     1
102
RTVSPropertyOp15
 70
     1
102
RTVSPropertyOp16
 70
     1
102
RTVSPropertyOp17
 70
     1
102
RTVSPropertyOp18
 70
     1
102
RTVSPropertyOp19
 70
     1
102
RTVSPropertyOp20
 70
     1
102
RTVSPropertyOp21
 70
     1
102
RTVSPropertyOp22
 70
     1
102
RTVSPropertyOp23
 70
     1
102
RTVSPropertyOp24
 70
     1
102
RTVSPropertyOp25
 70
     1
102
RTVSPropertyOp26
 70
     1
102
RTVSPropertyOp27
 70
     1
102
RTVSPropertyOp28
 70
     1
102
RTVSPropertyOp29
 70
     1
102
RTVSPropertyOp30
 70
     1
102
RTVSPropertyOp31
 70
     1
102
RTVSPropertyOp32
 70
     1
  0
XRECORD
  5
1EA8
102
{ACAD_REACTORS
330
1EA7
102
}
330
1EA7
100
AcDbXrecord
280
     1
102
RTVSPropertyOp0
 70
     1
102
RTVSPropertyOp1
 70
     1
102
RTVSPropertyOp2
 70
     1
102
RTVSPropertyOp3
 70
     1
102
RTVSPropertyOp4
 70
     1
102
RTVSPropertyOp5
 70
     1
102
RTVSPropertyOp6
 70
     1
102
RTVSPropertyOp7
 70
     1
102
RTVSPropertyOp8
 70
     1
102
RTVSPropertyOp9
 70
     1
102
RTVSPropertyOp10
 70
     1
102
RTVSPropertyOp11
 70
     1
102
RTVSPropertyOp12
 70
     1
102
RTVSPropertyOp13
 70
     1
102
RTVSPropertyOp14
 70
     1
102
RTVSPropertyOp15
 70
     1
102
RTVSPropertyOp16
 70
     1
102
RTVSPropertyOp17
 70
     1
102
RTVSPropertyOp18
 70
     1
102
RTVSPropertyOp19
 70
     1
102
RTVSPropertyOp20
 70
     1
102
RTVSPropertyOp21
 70
     1
102
RTVSPropertyOp22
 70
     1
102
RTVSPropertyOp23
 70
     1
102
RTVSPropertyOp24
 70
     1
102
RTVSPropertyOp25
 70
     1
102
RTVSPropertyOp26
 70
     1
102
RTVSPropertyOp27
 70
     1
102
RTVSPropertyOp28
 70
     1
102
RTVSPropertyOp29
 70
     1
102
RTVSPropertyOp30
 70
     1
102
RTVSPropertyOp31
 70
     1
102
RTVSPropertyOp32
 70
     1
  0
XRECORD
  5
1E9A
102
{ACAD_REACTORS
330
1E99
102
}
330
1E99
100
AcDbXrecord
280
     1
102
RTVSPropertyOp0
 70
     1
102
RTVSPropertyOp1
 70
     1
102
RTVSPropertyOp2
 70
     1
102
RTVSPropertyOp3
 70
     1
102
RTVSPropertyOp4
 70
     1
102
RTVSPropertyOp5
 70
     1
102
RTVSPropertyOp6
 70
     1
102
RTVSPropertyOp7
 70
     1
102
RTVSPropertyOp8
 70
     1
102
RTVSPropertyOp9
 70
     1
102
RTVSPropertyOp10
 70
     1
102
RTVSPropertyOp11
 70
     1
102
RTVSPropertyOp12
 70
     1
102
RTVSPropertyOp13
 70
     1
102
RTVSPropertyOp14
 70
     1
102
RTVSPropertyOp15
 70
     1
102
RTVSPropertyOp16
 70
     1
102
RTVSPropertyOp17
 70
     1
102
RTVSPropertyOp18
 70
     1
102
RTVSPropertyOp19
 70
     1
102
RTVSPropertyOp20
 70
     1
102
RTVSPropertyOp21
 70
     1
102
RTVSPropertyOp22
 70
     1
102
RTVSPropertyOp23
 70
     1
102
RTVSPropertyOp24
 70
     1
102
RTVSPropertyOp25
 70
     1
102
RTVSPropertyOp26
 70
     1
102
RTVSPropertyOp27
 70
     1
102
RTVSPropertyOp28
 70
     1
102
RTVSPropertyOp29
 70
     1
102
RTVSPropertyOp30
 70
     1
102
RTVSPropertyOp31
 70
     1
102
RTVSPropertyOp32
 70
     1
  0
XRECORD
  5
1E9E
102
{ACAD_REACTORS
330
1E9D
102
}
330
1E9D
100
AcDbXrecord
280
     1
102
RTVSPropertyOp0
 70
     1
102
RTVSPropertyOp1
 70
     1
102
RTVSPropertyOp2
 70
     1
102
RTVSPropertyOp3
 70
     1
102
RTVSPropertyOp4
 70
     1
102
RTVSPropertyOp5
 70
     1
102
RTVSPropertyOp6
 70
     1
102
RTVSPropertyOp7
 70
     1
102
RTVSPropertyOp8
 70
     1
102
RTVSPropertyOp9
 70
     1
102
RTVSPropertyOp10
 70
     1
102
RTVSPropertyOp11
 70
     1
102
RTVSPropertyOp12
 70
     1
102
RTVSPropertyOp13
 70
     1
102
RTVSPropertyOp14
 70
     1
102
RTVSPropertyOp15
 70
     1
102
RTVSPropertyOp16
 70
     1
102
RTVSPropertyOp17
 70
     1
102
RTVSPropertyOp18
 70
     1
102
RTVSPropertyOp19
 70
     1
102
RTVSPropertyOp20
 70
     1
102
RTVSPropertyOp21
 70
     1
102
RTVSPropertyOp22
 70
     1
102
RTVSPropertyOp23
 70
     1
102
RTVSPropertyOp24
 70
     1
102
RTVSPropertyOp25
 70
     1
102
RTVSPropertyOp26
 70
     1
102
RTVSPropertyOp27
 70
     1
102
RTVSPropertyOp28
 70
     1
102
RTVSPropertyOp29
 70
     1
102
RTVSPropertyOp30
 70
     1
102
RTVSPropertyOp31
 70
     1
102
RTVSPropertyOp32
 70
     1
  0
XRECORD
  5
1EB8
102
{ACAD_REACTORS
330
1EB7
102
}
330
1EB7
100
AcDbXrecord
280
     1
102
RTVSPropertyOp0
 70
     0
102
RTVSPropertyOp1
 70
     0
102
RTVSPropertyOp2
 70
     0
102
RTVSPropertyOp3
 70
     0
102
RTVSPropertyOp4
 70
     0
102
RTVSPropertyOp5
 70
     0
102
RTVSPropertyOp6
 70
     0
102
RTVSPropertyOp7
 70
     0
102
RTVSPropertyOp8
 70
     0
102
RTVSPropertyOp9
 70
     0
102
RTVSPropertyOp10
 70
     0
102
RTVSPropertyOp11
 70
     0
102
RTVSPropertyOp12
 70
     0
102
RTVSPropertyOp13
 70
     0
102
RTVSPropertyOp14
 70
     2
102
RTVSPropertyOp15
 70
     0
102
RTVSPropertyOp16
 70
     0
102
RTVSPropertyOp17
 70
     0
102
RTVSPropertyOp18
 70
     0
102
RTVSPropertyOp19
 70
     0
102
RTVSPropertyOp20
 70
     0
102
RTVSPropertyOp21
 70
     0
102
RTVSPropertyOp22
 70
     0
102
RTVSPropertyOp23
 70
     0
102
RTVSPropertyOp24
 70
     0
102
RTVSPropertyOp25
 70
     0
102
RTVSPropertyOp26
 70
     0
102
RTVSPropertyOp27
 70
     0
102
RTVSPropertyOp28
 70
     0
102
RTVSPropertyOp29
 70
     0
102
RTVSPropertyOp30
 70
     0
102
RTVSPropertyOp31
 70
     0
102
RTVSPropertyOp32
 70
     0
  0
XRECORD
  5
1EA6
102
{ACAD_REACTORS
330
1EA5
102
}
330
1EA5
100
AcDbXrecord
280
     1
102
RTVSPropertyOp0
 70
     1
102
RTVSPropertyOp1
 70
     1
102
RTVSPropertyOp2
 70
     1
102
RTVSPropertyOp3
 70
     1
102
RTVSPropertyOp4
 70
     1
102
RTVSPropertyOp5
 70
     1
102
RTVSPropertyOp6
 70
     1
102
RTVSPropertyOp7
 70
     1
102
RTVSPropertyOp8
 70
     1
102
RTVSPropertyOp9
 70
     1
102
RTVSPropertyOp10
 70
     1
102
RTVSPropertyOp11
 70
     1
102
RTVSPropertyOp12
 70
     1
102
RTVSPropertyOp13
 70
     1
102
RTVSPropertyOp14
 70
     1
102
RTVSPropertyOp15
 70
     1
102
RTVSPropertyOp16
 70
     1
102
RTVSPropertyOp17
 70
     1
102
RTVSPropertyOp18
 70
     1
102
RTVSPropertyOp19
 70
     1
102
RTVSPropertyOp20
 70
     1
102
RTVSPropertyOp21
 70
     1
102
RTVSPropertyOp22
 70
     1
102
RTVSPropertyOp23
 70
     1
102
RTVSPropertyOp24
 70
     1
102
RTVSPropertyOp25
 70
     1
102
RTVSPropertyOp26
 70
     1
102
RTVSPropertyOp27
 70
     1
102
RTVSPropertyOp28
 70
     1
102
RTVSPropertyOp29
 70
     1
102
RTVSPropertyOp30
 70
     1
102
RTVSPropertyOp31
 70
     1
102
RTVSPropertyOp32
 70
     1
  0
XRECORD
  5
1E8A
102
{ACAD_REACTORS
330
1E89
102
}
330
1E89
100
AcDbXrecord
280
     1
102
RTVSPropertyOp0
 70
     1
102
RTVSPropertyOp1
 70
     1
102
RTVSPropertyOp2
 70
     1
102
RTVSPropertyOp3
 70
     1
102
RTVSPropertyOp4
 70
     1
102
RTVSPropertyOp5
 70
     1
102
RTVSPropertyOp6
 70
     1
102
RTVSPropertyOp7
 70
     1
102
RTVSPropertyOp8
 70
     1
102
RTVSPropertyOp9
 70
     1
102
RTVSPropertyOp10
 70
     1
102
RTVSPropertyOp11
 70
     1
102
RTVSPropertyOp12
 70
     1
102
RTVSPropertyOp13
 70
     1
102
RTVSPropertyOp14
 70
     1
102
RTVSPropertyOp15
 70
     1
102
RTVSPropertyOp16
 70
     1
102
RTVSPropertyOp17
 70
     1
102
RTVSPropertyOp18
 70
     1
102
RTVSPropertyOp19
 70
     1
102
RTVSPropertyOp20
 70
     1
102
RTVSPropertyOp21
 70
     1
102
RTVSPropertyOp22
 70
     1
102
RTVSPropertyOp23
 70
     1
102
RTVSPropertyOp24
 70
     1
102
RTVSPropertyOp25
 70
     1
102
RTVSPropertyOp26
 70
     1
102
RTVSPropertyOp27
 70
     1
102
RTVSPropertyOp28
 70
     1
102
RTVSPropertyOp29
 70
     1
102
RTVSPropertyOp30
 70
     1
102
RTVSPropertyOp31
 70
     1
102
RTVSPropertyOp32
 70
     1
  0
XRECORD
  5
1E8C
102
{ACAD_REACTORS
330
1E8B
102
}
330
1E8B
100
AcDbXrecord
280
     1
102
RTVSPropertyOp0
 70
     1
102
RTVSPropertyOp1
 70
     1
102
RTVSPropertyOp2
 70
     1
102
RTVSPropertyOp3
 70
     1
102
RTVSPropertyOp4
 70
     1
102
RTVSPropertyOp5
 70
     1
102
RTVSPropertyOp6
 70
     1
102
RTVSPropertyOp7
 70
     1
102
RTVSPropertyOp8
 70
     1
102
RTVSPropertyOp9
 70
     1
102
RTVSPropertyOp10
 70
     1
102
RTVSPropertyOp11
 70
     1
102
RTVSPropertyOp12
 70
     1
102
RTVSPropertyOp13
 70
     1
102
RTVSPropertyOp14
 70
     1
102
RTVSPropertyOp15
 70
     1
102
RTVSPropertyOp16
 70
     1
102
RTVSPropertyOp17
 70
     1
102
RTVSPropertyOp18
 70
     1
102
RTVSPropertyOp19
 70
     1
102
RTVSPropertyOp20
 70
     1
102
RTVSPropertyOp21
 70
     1
102
RTVSPropertyOp22
 70
     1
102
RTVSPropertyOp23
 70
     1
102
RTVSPropertyOp24
 70
     1
102
RTVSPropertyOp25
 70
     1
102
RTVSPropertyOp26
 70
     1
102
RTVSPropertyOp27
 70
     1
102
RTVSPropertyOp28
 70
     1
102
RTVSPropertyOp29
 70
     1
102
RTVSPropertyOp30
 70
     1
102
RTVSPropertyOp31
 70
     1
102
RTVSPropertyOp32
 70
     1
  0
XRECORD
  5
1E8E
102
{ACAD_REACTORS
330
1E8D
102
}
330
1E8D
100
AcDbXrecord
280
     1
102
RTVSPropertyOp0
 70
     1
102
RTVSPropertyOp1
 70
     1
102
RTVSPropertyOp2
 70
     1
102
RTVSPropertyOp3
 70
     1
102
RTVSPropertyOp4
 70
     1
102
RTVSPropertyOp5
 70
     1
102
RTVSPropertyOp6
 70
     1
102
RTVSPropertyOp7
 70
     1
102
RTVSPropertyOp8
 70
     1
102
RTVSPropertyOp9
 70
     1
102
RTVSPropertyOp10
 70
     1
102
RTVSPropertyOp11
 70
     1
102
RTVSPropertyOp12
 70
     1
102
RTVSPropertyOp13
 70
     1
102
RTVSPropertyOp14
 70
     1
102
RTVSPropertyOp15
 70
     1
102
RTVSPropertyOp16
 70
     1
102
RTVSPropertyOp17
 70
     1
102
RTVSPropertyOp18
 70
     1
102
RTVSPropertyOp19
 70
     1
102
RTVSPropertyOp20
 70
     1
102
RTVSPropertyOp21
 70
     1
102
RTVSPropertyOp22
 70
     1
102
RTVSPropertyOp23
 70
     1
102
RTVSPropertyOp24
 70
     1
102
RTVSPropertyOp25
 70
     1
102
RTVSPropertyOp26
 70
     1
102
RTVSPropertyOp27
 70
     1
102
RTVSPropertyOp28
 70
     1
102
RTVSPropertyOp29
 70
     1
102
RTVSPropertyOp30
 70
     1
102
RTVSPropertyOp31
 70
     1
102
RTVSPropertyOp32
 70
     1
  0
XRECORD
  5
1E90
102
{ACAD_REACTORS
330
1E8F
102
}
330
1E8F
100
AcDbXrecord
280
     1
102
RTVSPropertyOp0
 70
     1
102
RTVSPropertyOp1
 70
     1
102
RTVSPropertyOp2
 70
     1
102
RTVSPropertyOp3
 70
     1
102
RTVSPropertyOp4
 70
     1
102
RTVSPropertyOp5
 70
     1
102
RTVSPropertyOp6
 70
     1
102
RTVSPropertyOp7
 70
     1
102
RTVSPropertyOp8
 70
     1
102
RTVSPropertyOp9
 70
     1
102
RTVSPropertyOp10
 70
     1
102
RTVSPropertyOp11
 70
     1
102
RTVSPropertyOp12
 70
     1
102
RTVSPropertyOp13
 70
     1
102
RTVSPropertyOp14
 70
     1
102
RTVSPropertyOp15
 70
     1
102
RTVSPropertyOp16
 70
     1
102
RTVSPropertyOp17
 70
     1
102
RTVSPropertyOp18
 70
     1
102
RTVSPropertyOp19
 70
     1
102
RTVSPropertyOp20
 70
     1
102
RTVSPropertyOp21
 70
     1
102
RTVSPropertyOp22
 70
     1
102
RTVSPropertyOp23
 70
     1
102
RTVSPropertyOp24
 70
     1
102
RTVSPropertyOp25
 70
     1
102
RTVSPropertyOp26
 70
     1
102
RTVSPropertyOp27
 70
     1
102
RTVSPropertyOp28
 70
     1
102
RTVSPropertyOp29
 70
     1
102
RTVSPropertyOp30
 70
     1
102
RTVSPropertyOp31
 70
     1
102
RTVSPropertyOp32
 70
     1
  0
XRECORD
  5
1E98
102
{ACAD_REACTORS
330
1E97
102
}
330
1E97
100
AcDbXrecord
280
     1
102
RTVSPropertyOp0
 70
     1
102
RTVSPropertyOp1
 70
     1
102
RTVSPropertyOp2
 70
     1
102
RTVSPropertyOp3
 70
     1
102
RTVSPropertyOp4
 70
     1
102
RTVSPropertyOp5
 70
     1
102
RTVSPropertyOp6
 70
     1
102
RTVSPropertyOp7
 70
     1
102
RTVSPropertyOp8
 70
     1
102
RTVSPropertyOp9
 70
     1
102
RTVSPropertyOp10
 70
     1
102
RTVSPropertyOp11
 70
     1
102
RTVSPropertyOp12
 70
     1
102
RTVSPropertyOp13
 70
     1
102
RTVSPropertyOp14
 70
     1
102
RTVSPropertyOp15
 70
     1
102
RTVSPropertyOp16
 70
     1
102
RTVSPropertyOp17
 70
     1
102
RTVSPropertyOp18
 70
     1
102
RTVSPropertyOp19
 70
     1
102
RTVSPropertyOp20
 70
     1
102
RTVSPropertyOp21
 70
     1
102
RTVSPropertyOp22
 70
     1
102
RTVSPropertyOp23
 70
     1
102
RTVSPropertyOp24
 70
     1
102
RTVSPropertyOp25
 70
     1
102
RTVSPropertyOp26
 70
     1
102
RTVSPropertyOp27
 70
     1
102
RTVSPropertyOp28
 70
     1
102
RTVSPropertyOp29
 70
     1
102
RTVSPropertyOp30
 70
     1
102
RTVSPropertyOp31
 70
     1
102
RTVSPropertyOp32
 70
     1
  0
XRECORD
  5
1EB4
102
{ACAD_REACTORS
330
1EB3
102
}
330
1EB3
100
AcDbXrecord
280
     1
102
RTVSPropertyOp0
 70
     0
102
RTVSPropertyOp1
 70
     0
102
RTVSPropertyOp2
 70
     0
102
RTVSPropertyOp3
 70
     0
102
RTVSPropertyOp4
 70
     0
102
RTVSPropertyOp5
 70
     0
102
RTVSPropertyOp6
 70
     0
102
RTVSPropertyOp7
 70
     0
102
RTVSPropertyOp8
 70
     0
102
RTVSPropertyOp9
 70
     0
102
RTVSPropertyOp10
 70
     0
102
RTVSPropertyOp11
 70
     0
102
RTVSPropertyOp12
 70
     0
102
RTVSPropertyOp13
 70
     0
102
RTVSPropertyOp14
 70
     2
102
RTVSPropertyOp15
 70
     0
102
RTVSPropertyOp16
 70
     0
102
RTVSPropertyOp17
 70
     0
102
RTVSPropertyOp18
 70
     0
102
RTVSPropertyOp19
 70
     0
102
RTVSPropertyOp20
 70
     0
102
RTVSPropertyOp21
 70
     0
102
RTVSPropertyOp22
 70
     0
102
RTVSPropertyOp23
 70
     0
102
RTVSPropertyOp24
 70
     0
102
RTVSPropertyOp25
 70
     0
102
RTVSPropertyOp26
 70
     0
102
RTVSPropertyOp27
 70
     0
102
RTVSPropertyOp28
 70
     0
102
RTVSPropertyOp29
 70
     0
102
RTVSPropertyOp30
 70
     0
102
RTVSPropertyOp31
 70
     0
102
RTVSPropertyOp32
 70
     0
  0
XRECORD
  5
1EA4
102
{ACAD_REACTORS
330
1EA3
102
}
330
1EA3
100
AcDbXrecord
280
     1
102
RTVSPropertyOp0
 70
     1
102
RTVSPropertyOp1
 70
     1
102
RTVSPropertyOp2
 70
     1
102
RTVSPropertyOp3
 70
     1
102
RTVSPropertyOp4
 70
     1
102
RTVSPropertyOp5
 70
     1
102
RTVSPropertyOp6
 70
     1
102
RTVSPropertyOp7
 70
     1
102
RTVSPropertyOp8
 70
     1
102
RTVSPropertyOp9
 70
     1
102
RTVSPropertyOp10
 70
     1
102
RTVSPropertyOp11
 70
     1
102
RTVSPropertyOp12
 70
     1
102
RTVSPropertyOp13
 70
     1
102
RTVSPropertyOp14
 70
     1
102
RTVSPropertyOp15
 70
     1
102
RTVSPropertyOp16
 70
     1
102
RTVSPropertyOp17
 70
     1
102
RTVSPropertyOp18
 70
     1
102
RTVSPropertyOp19
 70
     1
102
RTVSPropertyOp20
 70
     1
102
RTVSPropertyOp21
 70
     1
102
RTVSPropertyOp22
 70
     1
102
RTVSPropertyOp23
 70
     1
102
RTVSPropertyOp24
 70
     1
102
RTVSPropertyOp25
 70
     1
102
RTVSPropertyOp26
 70
     1
102
RTVSPropertyOp27
 70
     1
102
RTVSPropertyOp28
 70
     1
102
RTVSPropertyOp29
 70
     1
102
RTVSPropertyOp30
 70
     1
102
RTVSPropertyOp31
 70
     1
102
RTVSPropertyOp32
 70
     1
  0
XRECORD
  5
1EB6
102
{ACAD_REACTORS
330
1EB5
102
}
330
1EB5
100
AcDbXrecord
280
     1
102
RTVSPropertyOp0
 70
     0
102
RTVSPropertyOp1
 70
     0
102
RTVSPropertyOp2
 70
     0
102
RTVSPropertyOp3
 70
     0
102
RTVSPropertyOp4
 70
     0
102
RTVSPropertyOp5
 70
     0
102
RTVSPropertyOp6
 70
     0
102
RTVSPropertyOp7
 70
     0
102
RTVSPropertyOp8
 70
     0
102
RTVSPropertyOp9
 70
     0
102
RTVSPropertyOp10
 70
     0
102
RTVSPropertyOp11
 70
     0
102
RTVSPropertyOp12
 70
     0
102
RTVSPropertyOp13
 70
     0
102
RTVSPropertyOp14
 70
     2
102
RTVSPropertyOp15
 70
     0
102
RTVSPropertyOp16
 70
     0
102
RTVSPropertyOp17
 70
     0
102
RTVSPropertyOp18
 70
     0
102
RTVSPropertyOp19
 70
     0
102
RTVSPropertyOp20
 70
     0
102
RTVSPropertyOp21
 70
     0
102
RTVSPropertyOp22
 70
     0
102
RTVSPropertyOp23
 70
     0
102
RTVSPropertyOp24
 70
     0
102
RTVSPropertyOp25
 70
     0
102
RTVSPropertyOp26
 70
     0
102
RTVSPropertyOp27
 70
     0
102
RTVSPropertyOp28
 70
     0
102
RTVSPropertyOp29
 70
     0
102
RTVSPropertyOp30
 70
     0
102
RTVSPropertyOp31
 70
     0
102
RTVSPropertyOp32
 70
     0
  0
XRECORD
  5
1E9C
102
{ACAD_REACTORS
330
1E9B
102
}
330
1E9B
100
AcDbXrecord
280
     1
102
RTVSPropertyOp0
 70
     1
102
RTVSPropertyOp1
 70
     1
102
RTVSPropertyOp2
 70
     1
102
RTVSPropertyOp3
 70
     1
102
RTVSPropertyOp4
 70
     1
102
RTVSPropertyOp5
 70
     1
102
RTVSPropertyOp6
 70
     1
102
RTVSPropertyOp7
 70
     1
102
RTVSPropertyOp8
 70
     1
102
RTVSPropertyOp9
 70
     1
102
RTVSPropertyOp10
 70
     1
102
RTVSPropertyOp11
 70
     1
102
RTVSPropertyOp12
 70
     1
102
RTVSPropertyOp13
 70
     1
102
RTVSPropertyOp14
 70
     1
102
RTVSPropertyOp15
 70
     1
102
RTVSPropertyOp16
 70
     1
102
RTVSPropertyOp17
 70
     1
102
RTVSPropertyOp18
 70
     1
102
RTVSPropertyOp19
 70
     1
102
RTVSPropertyOp20
 70
     1
102
RTVSPropertyOp21
 70
     1
102
RTVSPropertyOp22
 70
     1
102
RTVSPropertyOp23
 70
     1
102
RTVSPropertyOp24
 70
     1
102
RTVSPropertyOp25
 70
     1
102
RTVSPropertyOp26
 70
     1
102
RTVSPropertyOp27
 70
     1
102
RTVSPropertyOp28
 70
     1
102
RTVSPropertyOp29
 70
     1
102
RTVSPropertyOp30
 70
     1
102
RTVSPropertyOp31
 70
     1
102
RTVSPropertyOp32
 70
     1
  0
XRECORD
  5
1EB2
102
{ACAD_REACTORS
330
1EB1
102
}
330
1EB1
100
AcDbXrecord
280
     1
102
RTVSPropertyOp0
 70
     1
102
RTVSPropertyOp1
 70
     1
102
RTVSPropertyOp2
 70
     1
102
RTVSPropertyOp3
 70
     1
102
RTVSPropertyOp4
 70
     1
102
RTVSPropertyOp5
 70
     1
102
RTVSPropertyOp6
 70
     1
102
RTVSPropertyOp7
 70
     1
102
RTVSPropertyOp8
 70
     1
102
RTVSPropertyOp9
 70
     1
102
RTVSPropertyOp10
 70
     1
102
RTVSPropertyOp11
 70
     1
102
RTVSPropertyOp12
 70
     1
102
RTVSPropertyOp13
 70
     1
102
RTVSPropertyOp14
 70
     1
102
RTVSPropertyOp15
 70
     1
102
RTVSPropertyOp16
 70
     1
102
RTVSPropertyOp17
 70
     1
102
RTVSPropertyOp18
 70
     1
102
RTVSPropertyOp19
 70
     1
102
RTVSPropertyOp20
 70
     1
102
RTVSPropertyOp21
 70
     1
102
RTVSPropertyOp22
 70
     1
102
RTVSPropertyOp23
 70
     1
102
RTVSPropertyOp24
 70
     1
102
RTVSPropertyOp25
 70
     1
102
RTVSPropertyOp26
 70
     1
102
RTVSPropertyOp27
 70
     1
102
RTVSPropertyOp28
 70
     1
102
RTVSPropertyOp29
 70
     1
102
RTVSPropertyOp30
 70
     1
102
RTVSPropertyOp31
 70
     1
102
RTVSPropertyOp32
 70
     1
  0
XRECORD
  5
1EB0
102
{ACAD_REACTORS
330
1EAF
102
}
330
1EAF
100
AcDbXrecord
280
     1
102
RTVSPropertyOp0
 70
     1
102
RTVSPropertyOp1
 70
     1
102
RTVSPropertyOp2
 70
     1
102
RTVSPropertyOp3
 70
     1
102
RTVSPropertyOp4
 70
     1
102
RTVSPropertyOp5
 70
     1
102
RTVSPropertyOp6
 70
     1
102
RTVSPropertyOp7
 70
     1
102
RTVSPropertyOp8
 70
     1
102
RTVSPropertyOp9
 70
     1
102
RTVSPropertyOp10
 70
     1
102
RTVSPropertyOp11
 70
     1
102
RTVSPropertyOp12
 70
     1
102
RTVSPropertyOp13
 70
     1
102
RTVSPropertyOp14
 70
     1
102
RTVSPropertyOp15
 70
     1
102
RTVSPropertyOp16
 70
     1
102
RTVSPropertyOp17
 70
     1
102
RTVSPropertyOp18
 70
     1
102
RTVSPropertyOp19
 70
     1
102
RTVSPropertyOp20
 70
     1
102
RTVSPropertyOp21
 70
     1
102
RTVSPropertyOp22
 70
     1
102
RTVSPropertyOp23
 70
     1
102
RTVSPropertyOp24
 70
     1
102
RTVSPropertyOp25
 70
     1
102
RTVSPropertyOp26
 70
     1
102
RTVSPropertyOp27
 70
     1
102
RTVSPropertyOp28
 70
     1
102
RTVSPropertyOp29
 70
     1
102
RTVSPropertyOp30
 70
     1
102
RTVSPropertyOp31
 70
     1
102
RTVSPropertyOp32
 70
     1
  0
XRECORD
  5
1EAA
102
{ACAD_REACTORS
330
1EA9
102
}
330
1EA9
100
AcDbXrecord
280
     1
102
RTVSPropertyOp0
 70
     1
102
RTVSPropertyOp1
 70
     1
102
RTVSPropertyOp2
 70
     1
102
RTVSPropertyOp3
 70
     1
102
RTVSPropertyOp4
 70
     1
102
RTVSPropertyOp5
 70
     1
102
RTVSPropertyOp6
 70
     1
102
RTVSPropertyOp7
 70
     1
102
RTVSPropertyOp8
 70
     1
102
RTVSPropertyOp9
 70
     1
102
RTVSPropertyOp10
 70
     1
102
RTVSPropertyOp11
 70
     1
102
RTVSPropertyOp12
 70
     1
102
RTVSPropertyOp13
 70
     1
102
RTVSPropertyOp14
 70
     1
102
RTVSPropertyOp15
 70
     1
102
RTVSPropertyOp16
 70
     1
102
RTVSPropertyOp17
 70
     1
102
RTVSPropertyOp18
 70
     1
102
RTVSPropertyOp19
 70
     1
102
RTVSPropertyOp20
 70
     1
102
RTVSPropertyOp21
 70
     1
102
RTVSPropertyOp22
 70
     1
102
RTVSPropertyOp23
 70
     1
102
RTVSPropertyOp24
 70
     1
102
RTVSPropertyOp25
 70
     1
102
RTVSPropertyOp26
 70
     1
102
RTVSPropertyOp27
 70
     1
102
RTVSPropertyOp28
 70
     1
102
RTVSPropertyOp29
 70
     1
102
RTVSPropertyOp30
 70
     1
102
RTVSPropertyOp31
 70
     1
102
RTVSPropertyOp32
 70
     1
  0
XRECORD
  5
1EAC
102
{ACAD_REACTORS
330
1EAB
102
}
330
1EAB
100
AcDbXrecord
280
     1
102
RTVSPropertyOp0
 70
     1
102
RTVSPropertyOp1
 70
     1
102
RTVSPropertyOp2
 70
     1
102
RTVSPropertyOp3
 70
     1
102
RTVSPropertyOp4
 70
     1
102
RTVSPropertyOp5
 70
     1
102
RTVSPropertyOp6
 70
     1
102
RTVSPropertyOp7
 70
     1
102
RTVSPropertyOp8
 70
     1
102
RTVSPropertyOp9
 70
     1
102
RTVSPropertyOp10
 70
     1
102
RTVSPropertyOp11
 70
     1
102
RTVSPropertyOp12
 70
     1
102
RTVSPropertyOp13
 70
     1
102
RTVSPropertyOp14
 70
     1
102
RTVSPropertyOp15
 70
     1
102
RTVSPropertyOp16
 70
     1
102
RTVSPropertyOp17
 70
     1
102
RTVSPropertyOp18
 70
     1
102
RTVSPropertyOp19
 70
     1
102
RTVSPropertyOp20
 70
     1
102
RTVSPropertyOp21
 70
     1
102
RTVSPropertyOp22
 70
     1
102
RTVSPropertyOp23
 70
     1
102
RTVSPropertyOp24
 70
     1
102
RTVSPropertyOp25
 70
     1
102
RTVSPropertyOp26
 70
     1
102
RTVSPropertyOp27
 70
     1
102
RTVSPropertyOp28
 70
     1
102
RTVSPropertyOp29
 70
     1
102
RTVSPropertyOp30
 70
     1
102
RTVSPropertyOp31
 70
     1
102
RTVSPropertyOp32
 70
     1
  0
XRECORD
  5
1EA2
102
{ACAD_REACTORS
330
1EA1
102
}
330
1EA1
100
AcDbXrecord
280
     1
102
RTVSPropertyOp0
 70
     1
102
RTVSPropertyOp1
 70
     1
102
RTVSPropertyOp2
 70
     1
102
RTVSPropertyOp3
 70
     1
102
RTVSPropertyOp4
 70
     1
102
RTVSPropertyOp5
 70
     1
102
RTVSPropertyOp6
 70
     1
102
RTVSPropertyOp7
 70
     1
102
RTVSPropertyOp8
 70
     1
102
RTVSPropertyOp9
 70
     1
102
RTVSPropertyOp10
 70
     1
102
RTVSPropertyOp11
 70
     1
102
RTVSPropertyOp12
 70
     1
102
RTVSPropertyOp13
 70
     1
102
RTVSPropertyOp14
 70
     1
102
RTVSPropertyOp15
 70
     1
102
RTVSPropertyOp16
 70
     1
102
RTVSPropertyOp17
 70
     1
102
RTVSPropertyOp18
 70
     1
102
RTVSPropertyOp19
 70
     1
102
RTVSPropertyOp20
 70
     1
102
RTVSPropertyOp21
 70
     1
102
RTVSPropertyOp22
 70
     1
102
RTVSPropertyOp23
 70
     1
102
RTVSPropertyOp24
 70
     1
102
RTVSPropertyOp25
 70
     1
102
RTVSPropertyOp26
 70
     1
102
RTVSPropertyOp27
 70
     1
102
RTVSPropertyOp28
 70
     1
102
RTVSPropertyOp29
 70
     1
102
RTVSPropertyOp30
 70
     1
102
RTVSPropertyOp31
 70
     1
102
RTVSPropertyOp32
 70
     1
  0
XRECORD
  5
1E96
102
{ACAD_REACTORS
330
1E95
102
}
330
1E95
100
AcDbXrecord
280
     1
102
RTVSPropertyOp0
 70
     1
102
RTVSPropertyOp1
 70
     1
102
RTVSPropertyOp2
 70
     1
102
RTVSPropertyOp3
 70
     1
102
RTVSPropertyOp4
 70
     1
102
RTVSPropertyOp5
 70
     1
102
RTVSPropertyOp6
 70
     1
102
RTVSPropertyOp7
 70
     1
102
RTVSPropertyOp8
 70
     1
102
RTVSPropertyOp9
 70
     1
102
RTVSPropertyOp10
 70
     1
102
RTVSPropertyOp11
 70
     1
102
RTVSPropertyOp12
 70
     1
102
RTVSPropertyOp13
 70
     1
102
RTVSPropertyOp14
 70
     1
102
RTVSPropertyOp15
 70
     1
102
RTVSPropertyOp16
 70
     1
102
RTVSPropertyOp17
 70
     1
102
RTVSPropertyOp18
 70
     1
102
RTVSPropertyOp19
 70
     1
102
RTVSPropertyOp20
 70
     1
102
RTVSPropertyOp21
 70
     1
102
RTVSPropertyOp22
 70
     1
102
RTVSPropertyOp23
 70
     1
102
RTVSPropertyOp24
 70
     1
102
RTVSPropertyOp25
 70
     1
102
RTVSPropertyOp26
 70
     1
102
RTVSPropertyOp27
 70
     1
102
RTVSPropertyOp28
 70
     1
102
RTVSPropertyOp29
 70
     1
102
RTVSPropertyOp30
 70
     1
102
RTVSPropertyOp31
 70
     1
102
RTVSPropertyOp32
 70
     1
  0
XRECORD
  5
1EAE
102
{ACAD_REACTORS
330
1EAD
102
}
330
1EAD
100
AcDbXrecord
280
     1
102
RTVSPropertyOp0
 70
     1
102
RTVSPropertyOp1
 70
     1
102
RTVSPropertyOp2
 70
     1
102
RTVSPropertyOp3
 70
     1
102
RTVSPropertyOp4
 70
     1
102
RTVSPropertyOp5
 70
     1
102
RTVSPropertyOp6
 70
     1
102
RTVSPropertyOp7
 70
     1
102
RTVSPropertyOp8
 70
     1
102
RTVSPropertyOp9
 70
     1
102
RTVSPropertyOp10
 70
     1
102
RTVSPropertyOp11
 70
     1
102
RTVSPropertyOp12
 70
     1
102
RTVSPropertyOp13
 70
     1
102
RTVSPropertyOp14
 70
     1
102
RTVSPropertyOp15
 70
     1
102
RTVSPropertyOp16
 70
     1
102
RTVSPropertyOp17
 70
     1
102
RTVSPropertyOp18
 70
     1
102
RTVSPropertyOp19
 70
     1
102
RTVSPropertyOp20
 70
     1
102
RTVSPropertyOp21
 70
     1
102
RTVSPropertyOp22
 70
     1
102
RTVSPropertyOp23
 70
     1
102
RTVSPropertyOp24
 70
     1
102
RTVSPropertyOp25
 70
     1
102
RTVSPropertyOp26
 70
     1
102
RTVSPropertyOp27
 70
     1
102
RTVSPropertyOp28
 70
     1
102
RTVSPropertyOp29
 70
     1
102
RTVSPropertyOp30
 70
     1
102
RTVSPropertyOp31
 70
     1
102
RTVSPropertyOp32
 70
     1
  0
ENDSEC
  0
EOF
