  0
SECTION
  2
HEADER
  9
$ACADVER
  1
AC1009
  9
$INSBASE
 10
0.0
 20
0.0
 30
0.0
  9
$EXTMIN
 10
446.19435074341669
 20
0.0
 30
0.0
  9
$EXTMAX
 10
3890.000000000156
 20
2668.5147229613081
 30
0.0
  9
$LIMMIN
 10
0.0
 20
0.0
  9
$LIMMAX
 10
3890.0
 20
2660.0
  9
$ORTHOMODE
 70
     1
  9
$REGENMODE
 70
     1
  9
$FILLMODE
 70
     1
  9
$QTEXTMODE
 70
     0
  9
$MIRRTEXT
 70
     0
  9
$DRAGMODE
 70
     2
  9
$LTSCALE
 40
100.0
  9
$OSMODE
 70
    39
  9
$ATTMODE
 70
     1
  9
$TEXTSIZE
 40
25.0
  9
$TRACEWID
 40
0.05
  9
$TEXTSTYLE
  7
TITLE3
  9
$CLAYER
  8
0
  9
$CELTYPE
  6
BYLAYER
  9
$CECOLOR
 62
   256
  9
$DIMSCALE
 40
1.0
  9
$DIMASZ
 40
0.12
  9
$DIMEXO
 40
0.05
  9
$DIMDLI
 40
0.5
  9
$DIMRND
 40
0.0
  9
$DIMDLE
 40
0.0
  9
$DIMEXE
 40
0.1
  9
$DIMTP
 40
0.1
  9
$DIMTM
 40
0.1
  9
$DIMTXT
 40
0.12
  9
$DIMCEN
 40
0.0
  9
$DIMTSZ
 40
0.0
  9
$DIMTOL
 70
     0
  9
$DIMLIM
 70
     0
  9
$DIMTIH
 70
     1
  9
$DIMTOH
 70
     1
  9
$DIMSE1
 70
     0
  9
$DIMSE2
 70
     0
  9
$DIMTAD
 70
     0
  9
$DIMZIN
 70
     7
  9
$DIMBLK
  1

  9
$DIMASO
 70
     0
  9
$DIMSHO
 70
     0
  9
$DIMPOST
  1

  9
$DIMAPOST
  1
mm
  9
$DIMALT
 70
     0
  9
$DIMALTD
 70
     2
  9
$DIMALTF
 40
25.399999999999999
  9
$DIMLFAC
 40
1.0
  9
$DIMTOFL
 70
     0
  9
$DIMTVP
 40
0.0
  9
$DIMTIX
 70
     0
  9
$DIMSOXD
 70
     0
  9
$DIMSAH
 70
     0
  9
$DIMBLK1
  1

  9
$DIMBLK2
  1

  9
$DIMSTYLE
  2
AM_ANSI
  9
$DIMCLRD
 70
   256
  9
$DIMCLRE
 70
   256
  9
$DIMCLRT
 70
     2
  9
$DIMTFAC
 40
0.71
  9
$DIMGAP
 40
0.06
  9
$LUNITS
 70
     2
  9
$LUPREC
 70
     2
  9
$SKETCHINC
 40
0.1
  9
$FILLETRAD
 40
0.0
  9
$AUNITS
 70
     0
  9
$AUPREC
 70
     2
  9
$MENU
  1
\acad12\support\cnc
  9
$ELEVATION
 40
0.0
  9
$PELEVATION
 40
0.0
  9
$THICKNESS
 40
0.0
  9
$LIMCHECK
 70
     0
  9
$BLIPMODE
 70
     0
  9
$CHAMFERA
 40
0.0
  9
$CHAMFERB
 40
0.0
  9
$SKPOLY
 70
     0
  9
$TDCREATE
 40
2450764.4272488421
  9
$TDUPDATE
 40
2456149.626726666
  9
$TDINDWG
 40
1.1388158101999999
  9
$TDUSRTIMER
 40
1.1388078472000001
  9
$USRTIMER
 70
     1
  9
$ANGBASE
 50
0.0
  9
$ANGDIR
 70
     0
  9
$PDMODE
 70
     2
  9
$PDSIZE
 40
10.0
  9
$PLINEWID
 40
0.0
  9
$COORDS
 70
     1
  9
$SPLFRAME
 70
     0
  9
$SPLINETYPE
 70
     6
  9
$SPLINESEGS
 70
     8
  9
$ATTDIA
 70
     1
  9
$ATTREQ
 70
     1
  9
$HANDLING
 70
     1
  9
$HANDSEED
  5
6D7D
  9
$SURFTAB1
 70
     6
  9
$SURFTAB2
 70
     6
  9
$SURFTYPE
 70
     6
  9
$SURFU
 70
     6
  9
$SURFV
 70
     6
  9
$UCSNAME
  2

  9
$UCSORG
 10
0.0
 20
0.0
 30
0.0
  9
$UCSXDIR
 10
1.0
 20
0.0
 30
0.0
  9
$UCSYDIR
 10
0.0
 20
1.0
 30
0.0
  9
$PUCSNAME
  2

  9
$PUCSORG
 10
0.0
 20
0.0
 30
0.0
  9
$PUCSXDIR
 10
1.0
 20
0.0
 30
0.0
  9
$PUCSYDIR
 10
0.0
 20
1.0
 30
0.0
  9
$USERI1
 70
     0
  9
$USERI2
 70
     0
  9
$USERI3
 70
     0
  9
$USERI4
 70
     0
  9
$USERI5
 70
     0
  9
$USERR1
 40
0.0
  9
$USERR2
 40
0.0
  9
$USERR3
 40
0.0
  9
$USERR4
 40
0.0
  9
$USERR5
 40
0.0
  9
$WORLDVIEW
 70
     1
  9
$SHADEDGE
 70
     3
  9
$SHADEDIF
 70
    70
  9
$TILEMODE
 70
     1
  9
$MAXACTVP
 70
    16
  9
$PLIMCHECK
 70
     0
  9
$PEXTMIN
 10
1.0000000000000000E+020
 20
1.0000000000000000E+020
 30
1.0000000000000000E+020
  9
$PEXTMAX
 10
-1.0000000000000000E+020
 20
-1.0000000000000000E+020
 30
-1.0000000000000000E+020
  9
$PLIMMIN
 10
0.0
 20
0.0
  9
$PLIMMAX
 10
12.0
 20
9.0
  9
$UNITMODE
 70
     0
  9
$VISRETAIN
 70
     0
  9
$PLINEGEN
 70
     0
  9
$PSLTSCALE
 70
     0
  0
ENDSEC
  0
SECTION
  2
TABLES
  0
TABLE
  2
VPORT
 70
     1
  0
VPORT
  2
*ACTIVE
 70
     0
 10
0.0
 20
0.0
 11
1.0
 21
1.0
 12
-197.1785125706933
 22
342.20549470999958
 13
0.0
 23
0.0
 14
25.0
 24
25.0
 15
100.0
 25
100.0
 16
0.0
 26
0.0
 36
1.0
 17
2400.3461643507289
 27
992.05187298377427
 37
-1.642992328338549
 40
2358.3018354349711
 41
1.8022471910112361
 42
50.0
 43
0.0
 44
0.0
 50
0.0
 51
0.0
 71
     0
 72
   100
 73
     1
 74
     0
 75
     0
 76
     0
 77
     0
 78
     0
  0
ENDTAB
  0
TABLE
  2
LTYPE
 70
    21
  0
LTYPE
  2
CONTINUOUS
 70
     0
  3
Solid line
 72
    65
 73
     0
 40
0.0
  0
LTYPE
  2
PHANTOM
 70
     0
  3
Phantom ______  __  __  ______  __  __  ______
 72
    65
 73
     6
 40
2.5
 49
1.25
 49
-0.25
 49
0.25
 49
-0.25
 49
0.25
 49
-0.25
  0
LTYPE
  2
HIDDEN
 70
     0
  3
__ __ __ __ __ __ __ __ __ __ __ __ __ __ __ __
 72
    65
 73
     2
 40
0.375
 49
0.25
 49
-0.125
  0
LTYPE
  2
PHANTOM2
 70
     0
  3
Phantom (.5x) ___ _ _ ___ _ _ ___ _ _ ___ _ _
 72
    65
 73
     6
 40
1.25
 49
0.625
 49
-0.125
 49
0.125
 49
-0.125
 49
0.125
 49
-0.125
  0
LTYPE
  2
CENTER
 70
     0
  3
Center ____ _ ____ _ ____ _ ____ _ ____ _ ____
 72
    65
 73
     4
 40
2.0
 49
1.25
 49
-0.25
 49
0.25
 49
-0.25
  0
LTYPE
  2
AMCONSTR
 70
     0
  3
_______________________
 72
    65
 73
     2
 40
9999.0
 49
9999.0
 49
0.0
  0
LTYPE
  2
CENTER2
 70
     0
  3
Center (.5x) ___ _ ___ _ ___ _ ___ _ ___ _ ___
 72
    65
 73
     4
 40
1.125
 49
0.75
 49
-0.125
 49
0.125
 49
-0.125
  0
LTYPE
  2
HIDDEN2
 70
     0
  3
Hidden (.5x) _ _ _ _ _ _ _ _ _ _ _ _ _ _ _ _ _
 72
    65
 73
     2
 40
0.1875
 49
0.125
 49
-0.0625
  0
LTYPE
  2
AMZIGZAG2
 70
     0
  3
/\/-/\/-/\/-/\/-/\/-/\/
 72
    65
 73
     2
 40
0.4401
 49
0.0001
 49
-0.4400000000000003
  0
LTYPE
  2
ACANSTGB
 70
     0
  3
__ . . __ . .
 72
    65
 73
     6
 40
0.35433070866
 49
0.15748031496
 49
-0.03937007874
 49
0.03937007874
 49
-0.03937007874
 49
0.03937007874
 49
-0.03937007874
  0
LTYPE
  2
ACANSTGL
 70
     0
  3
_ _ _ _ _
 72
    65
 73
     2
 40
0.11811023622
 49
0.07874015748
 49
-0.03937007874
  0
LTYPE
  2
ASULTYPE
 70
     0
  3
Solid line
 72
    65
 73
     2
 40
3.0
 49
2.5
 49
0.5
  0
LTYPE
  2
ASVLTYPE
 70
     0
  3
__ __ __ __ __ __ __ __ __ __ __ __ __ __ __ __ __ __ __ __ __
 72
    65
 73
     2
 40
0.75
 49
0.5
 49
-0.25
  0
LTYPE
  2
AM_ISO02W050
 70
     0
  3
__ __ __ __ __ __ __ __ __ __ __ __ __ __ __
 72
    65
 73
     2
 40
7.5
 49
6.0
 49
-1.5
  0
LTYPE
  2
AM_ISO08W050
 70
     0
  3
____ . ____ . ____ . ____ . ____ . ____ . ____
 72
    65
 73
     4
 40
18.0
 49
12.0
 49
-1.5
 49
3.0
 49
-1.5
  0
LTYPE
  2
AM_ISO09W050
 70
     0
  3
_____ . . _____ . . _____ . . ____ .. ____
 72
    65
 73
     6
 40
22.5
 49
12.0
 49
-1.5
 49
3.0
 49
-1.5
 49
3.0
 49
-1.5
  0
LTYPE
  2
AM_ISO08W050X2
 70
     0
  3
__ . __ . __ . __ . __ . __
 72
    65
 73
     4
 40
9.0
 49
6.0
 49
-0.75
 49
1.5
 49
-0.75
  0
LTYPE
  2
AM_ISO02W050X2
 70
     0
  3
 _ _ _ _ _ _ _ _ _ _ _ _
 72
    65
 73
     2
 40
3.75
 49
3.0
 49
-0.75
  0
LTYPE
  2
AMZIGZAG
 70
     0
  3
/\/-/\/-/\/-/\/-/\/-/\/
 72
    65
 73
     2
 40
11.0001
 49
0.0001
 49
-11.0
  0
LTYPE
  2
DASHED
 70
     0
  3
Dashed __ __ __ __ __ __ __ __ __ __ __ __ __ _
 72
    65
 73
     2
 40
0.75
 49
0.5
 49
-0.25
  0
LTYPE
  2
DOT
 70
     0
  3
Dot . . . . . . . . . . . . . . . . . . . . . .
 72
    65
 73
     2
 40
0.25
 49
0.0
 49
-0.25
  0
ENDTAB
  0
TABLE
  2
LAYER
 70
     3
  0
LAYER
  2
0
 70
     0
 62
     7
  6
CONTINUOUS
  0
LAYER
  2
AM_5
 70
     0
 62
     3
  6
CONTINUOUS
  0
LAYER
  2
DEFPOINTS
 70
     0
 62
     7
  6
CONTINUOUS
  0
ENDTAB
  0
TABLE
  2
STYLE
 70
     8
  0
STYLE
  2
STANDARD
 70
     0
 40
0.0
 41
1.0
 50
0.0
 71
     0
 42
0.2
  3
txt
  4

  0
STYLE
  2
ANNOTATIVE
 70
     0
 40
0.0
 41
1.0
 50
0.0
 71
     0
 42
0.2
  3
txt
  4

  0
STYLE
  2
TITLE3
 70
     0
 40
25.0
 41
1.0
 50
0.0
 71
     0
 42
25.0
  3
SIMPLEX.shx
  4

  0
STYLE
  2
SIMPLEX
 70
     0
 40
40.0
 41
1.0
 50
0.0
 71
     0
 42
25.0
  3
SIMPLEX
  4

  0
STYLE
  2
TITLE5
 70
     0
 40
25.0
 41
1.0
 50
0.0
 71
     0
 42
25.0
  3
SIMPLEX
  4

  0
STYLE
  2

 70
     1
 40
0.0
 41
1.0
 50
0.0
 71
     0
 42
25.0
  3
genltshp.shx
  4

  0
STYLE
  2
ACANSTS
 70
     0
 40
1.0
 41
1.0
 50
0.0
 71
     0
 42
25.0
  3
romans.shx
  4

  0
STYLE
  2
ACANSGDT
 70
     0
 40
0.0
 41
1.0
 50
0.0
 71
     0
 42
25.0
  3
amgdt.shx
  4

  0
ENDTAB
  0
TABLE
  2
VIEW
 70
     0
  0
ENDTAB
  0
TABLE
  2
UCS
 70
     0
  0
ENDTAB
  0
TABLE
  2
APPID
 70
    35
  0
APPID
  2
ACAD
 70
     0
  0
APPID
  2
ACADANNOTATIVE
 70
     0
  0
APPID
  2
ACAD_MLEADERVER
 70
     0
  0
APPID
  2
ACAD_EXEMPT_FROM_CAD_STANDARDS
 70
     0
  0
APPID
  2
ACAECLAYERSTANDARD
 70
     0
  0
APPID
  2
ACAD_DSTYLE_DIMTEXT_FILL
 70
     0
  0
APPID
  2
ACAD_DSTYLE_DIMEXT_LENGTH
 70
     0
  0
APPID
  2
ACAD_DSTYLE_DIMEXT_ENABLED
 70
     0
  0
APPID
  2
ACAD_DSTYLE_DIM_LINETYPE
 70
     0
  0
APPID
  2
ACAD_DSTYLE_DIM_EXT1_LINETYPE
 70
     0
  0
APPID
  2
ACAD_DSTYLE_DIM_EXT2_LINETYPE
 70
     0
  0
APPID
  2
ACAD_DSTYLE_DIMJOGGED_JOGA
 70
     0
  0
APPID
  2
ACAD_DSTYLE_DIMARC_LENGTH_
 70
     0
  0
APPID
  2
ACAD_PSEXT
 70
     0
  0
APPID
  2
CONTENTBLOCKICON
 70
     0
  0
APPID
  2
GENIUS_GENDIM_13
 70
     0
  0
APPID
  2
GENIUS_GENDTOL_13
 70
     0
  0
APPID
  2
GENIUS_GE3DTOL_13
 70
     0
  0
APPID
  2
MCAD_NO_VIS
 70
     0
  0
APPID
  2
ACAD_TEMP_GRAPHIC
 70
     0
  0
APPID
  2
AD_DRAW
 70
     0
  0
APPID
  2
ACATTRIBSERVICES
 70
     0
  0
APPID
  2
ASURF_PCURVE_APPNAME
 70
     0
  0
APPID
  2
AMG_3D2D_5_0
 70
     0
  0
APPID
  2
DESIGNERASSEMBLIES
 70
     0
  0
APPID
  2
ACADM_DIM_EDIT
 70
     0
  0
APPID
  2
AMDT_DM_ADJ
 70
     0
  0
APPID
  2
AMG_3D2D_5_00
 70
     0
  0
APPID
  2
AMG_3D2D_5_01
 70
     0
  0
APPID
  2
ACAD_DSTYLE_DIMBREAK
 70
     0
  0
APPID
  2
ACAD_DSTYLE_DIMJAG
 70
     0
  0
APPID
  2
ACAD_NAV_VCDISPLAY
 70
     0
  0
APPID
  2
ACAD_DSTYLE_DIMINSPECT
 70
     0
  0
APPID
  2
ACAD_DSTYLE_DIMRADIAL_EXTENSION
 70
     0
  0
APPID
  2
ACDBDYNAMICBLOCKTRUENAME2
 70
     0
  0
ENDTAB
  0
TABLE
  2
DIMSTYLE
 70
     9
  0
DIMSTYLE
  2
STANDARD
 70
     0
  3

  4

  5

  6

  7

 40
1.0
 41
0.18
 42
0.0625
 43
0.38
 44
0.18
 45
0.0
 46
0.0
 47
0.0
 48
0.0
140
0.18
141
0.09
142
0.0
143
25.399999999999999
144
1.0
145
0.0
146
1.0
147
0.09
 71
     0
 72
     0
 73
     1
 74
     1
 75
     0
 76
     0
 77
     0
 78
     0
170
     0
171
     2
172
     0
173
     0
174
     0
175
     0
176
     0
177
     0
178
     0
  0
DIMSTYLE
  2
ANNOTATIVE
 70
     0
  3

  4

  5

  6

  7

 40
1.0
 41
0.18
 42
0.0625
 43
0.38
 44
0.18
 45
0.0
 46
0.0
 47
0.0
 48
0.0
140
0.18
141
0.09
142
0.0
143
25.399999999999999
144
1.0
145
0.0
146
1.0
147
0.09
 71
     0
 72
     0
 73
     1
 74
     1
 75
     0
 76
     0
 77
     0
 78
     0
170
     0
171
     2
172
     0
173
     0
174
     0
175
     0
176
     0
177
     0
178
     0
  0
DIMSTYLE
  2
COPY_OF_STANDARD
 70
     0
  3

  4

  5

  6

  7

 40
1.0
 41
30.0
 42
20.0
 43
0.38
 44
20.0
 45
0.0
 46
0.0
 47
0.0
 48
0.0
140
25.0
141
0.09
142
0.0
143
25.399999999999999
144
1.0
145
0.0
146
1.0
147
20.0
 71
     0
 72
     0
 73
     0
 74
     0
 75
     0
 76
     0
 77
     0
 78
     0
170
     0
171
     2
172
     0
173
     0
174
     0
175
     0
176
     7
177
     7
178
     7
  0
DIMSTYLE
  2
AM_ANSI
 70
     0
  3

  4
mm
  5

  6

  7

 40
1.0
 41
0.12
 42
0.05
 43
0.5
 44
0.1
 45
0.0
 46
0.0
 47
0.1
 48
0.1
140
0.12
141
0.0
142
0.0
143
25.399999999999999
144
1.0
145
0.0
146
0.71
147
0.06
 71
     0
 72
     0
 73
     1
 74
     1
 75
     0
 76
     0
 77
     0
 78
     7
170
     0
171
     2
172
     0
173
     0
174
     0
175
     0
176
   256
177
   256
178
     2
  0
DIMSTYLE
  2
AM_ANSI$3
 70
     0
  3

  4
mm
  5

  6

  7

 40
1.0
 41
0.12
 42
0.05
 43
0.5
 44
0.1
 45
0.0
 46
0.0
 47
0.1
 48
0.1
140
0.12
141
0.0
142
0.0
143
25.399999999999999
144
1.0
145
0.0
146
0.71
147
0.06
 71
     0
 72
     0
 73
     1
 74
     1
 75
     0
 76
     0
 77
     0
 78
     7
170
     0
171
     2
172
     0
173
     0
174
     0
175
     0
176
   256
177
   256
178
     2
  0
DIMSTYLE
  2
AM_ANSI$4
 70
     0
  3

  4
mm
  5

  6

  7

 40
1.0
 41
0.12
 42
0.05
 43
0.5
 44
0.1
 45
0.0
 46
0.0
 47
0.1
 48
0.1
140
0.12
141
0.0
142
0.0
143
25.399999999999999
144
1.0
145
0.0
146
0.71
147
0.06
 71
     0
 72
     0
 73
     1
 74
     1
 75
     0
 76
     0
 77
     0
 78
     7
170
     0
171
     2
172
     0
173
     0
174
     0
175
     0
176
   256
177
   256
178
     2
  0
DIMSTYLE
  2
AM_ANSI$7
 70
     0
  3

  4
mm
  5

  6

  7

 40
1.0
 41
0.12
 42
0.05
 43
0.5
 44
0.1
 45
0.0
 46
0.0
 47
0.1
 48
0.1
140
0.12
141
0.0
142
0.0
143
25.399999999999999
144
1.0
145
0.0
146
0.71
147
0.06
 71
     0
 72
     0
 73
     1
 74
     1
 75
     0
 76
     0
 77
     0
 78
     7
170
     0
171
     2
172
     0
173
     0
174
     0
175
     0
176
   256
177
   256
178
     2
  0
DIMSTYLE
  2
AM_ANSI$SF
 70
     0
  3

  4
mm
  5

  6

  7

 40
1.0
 41
0.12
 42
0.05
 43
0.5
 44
0.1
 45
0.0
 46
0.0
 47
0.1
 48
0.1
140
0.12
141
0.0
142
0.0
143
25.399999999999999
144
1.0
145
0.0
146
0.71
147
0.06
 71
     0
 72
     0
 73
     1
 74
     1
 75
     1
 76
     1
 77
     0
 78
     7
170
     0
171
     2
172
     0
173
     0
174
     0
175
     0
176
   256
177
   256
178
     2
  0
DIMSTYLE
  2
AM_ANSI$SH
 70
     0
  3

  4
mm
  5

  6

  7

 40
1.0
 41
0.12
 42
0.05
 43
0.5
 44
0.1
 45
0.0
 46
0.0
 47
0.1
 48
0.1
140
0.12
141
0.0
142
0.0
143
25.399999999999999
144
1.0
145
0.0
146
0.71
147
0.06
 71
     0
 72
     0
 73
     1
 74
     1
 75
     1
 76
     1
 77
     0
 78
     7
170
     0
171
     2
172
     0
173
     1
174
     0
175
     0
176
   256
177
   256
178
     2
  0
ENDTAB
  0
ENDSEC
  0
SECTION
  2
BLOCKS
  0
BLOCK
  8
0
  2
$MODEL_SPACE
 70
     0
 10
0.0
 20
0.0
 30
0.0
  3
$MODEL_SPACE
  1

  0
ENDBLK
  5
6C7B
  8
0
  0
BLOCK
 67
     1
  8
0
  2
$PAPER_SPACE
 70
     0
 10
0.0
 20
0.0
 30
0.0
  3
$PAPER_SPACE
  1

  0
ENDBLK
  5
6C77
 67
     1
  8
0
  0
BLOCK
  8
0
  2
GENAXEH
 70
     0
 10
0.0
 20
0.0
 30
0.0
  3
GENAXEH
  1

  0
LINE
  5
4286
  8
0
 10
-1.0
 20
0.0
 30
0.0
 11
1.0
 21
0.0
 31
0.0
  0
ENDBLK
  5
4288
  8
0
  0
BLOCK
  8
0
  2
*U3
 70
     1
 10
0.0
 20
0.0
 30
0.0
  3
*U3
  1

  0
TEXT
  5
452A
  8
0
 62
     7
 10
1568.3019457088981
 20
1155.630025377591
 30
0.0
 40
25.0
  1
1222 CTRS
  0
ENDBLK
  5
452C
  8
0
  0
BLOCK
  8
0
  2
*U4
 70
     1
 10
0.0
 20
0.0
 30
0.0
  3
*U4
  1

  0
TEXT
  5
452E
  8
0
 62
     7
 10
1310.3686123755649
 20
1236.3138397338359
 30
0.0
 40
25.0
  1
1282 (SPRING MTG CTRS - OPTION)
  0
ENDBLK
  5
4530
  8
0
  0
BLOCK
  8
0
  2
*U5
 70
     1
 10
0.0
 20
0.0
 30
0.0
  3
*U5
  1

  0
TEXT
  5
4532
  8
0
 62
     7
 10
1634.968612375566
 20
571.70117995546525
 30
0.0
 40
25.0
  1
1189
  0
ENDBLK
  5
4534
  8
0
  0
BLOCK
  8
0
  2
*U6
 70
     1
 10
0.0
 20
0.0
 30
0.0
  3
*U6
  1

  0
TEXT
  5
4536
  8
0
 62
     7
 10
1691.3852790422329
 20
502.66155073560799
 30
0.0
 40
25.0
  1
1306
  0
ENDBLK
  5
4538
  8
0
  0
BLOCK
  8
0
  2
*U7
 70
     1
 10
0.0
 20
0.0
 30
0.0
  3
*U7
  1

  0
TEXT
  5
453A
  8
0
 62
     7
 10
1618.301945708894
 20
1418.2321199048511
 30
0.0
 40
25.0
  1
861
  0
ENDBLK
  5
453C
  8
0
  0
BLOCK
  8
0
  2
*U8
 70
     1
 10
0.0
 20
0.0
 30
0.0
  3
*U8
  1

  0
TEXT
  5
453E
  8
0
 62
     7
 10
1607.88527904223
 20
2202.0702044592249
 30
0.0
 40
25.0
  1
1047
  0
ENDBLK
  5
4540
  8
0
  0
BLOCK
  8
0
  2
*U9
 70
     1
 10
0.0
 20
0.0
 30
0.0
  3
*U9
  1

  0
TEXT
  5
4856
  8
0
 10
-0.000000000001819
 20
0.0000018156206067
 30
0.0
 40
50.0
  1
ISD223K
  7
TITLE3
  0
ENDBLK
  5
4858
  8
0
  0
BLOCK
  8
0
  2
*U10
 70
     1
 10
0.0
 20
0.0
 30
0.0
  3
*U10
  1

  0
TEXT
  5
485A
  8
0
 10
1530.326037674597
 20
745.32926781310175
 30
0.0
 40
50.0
  1
ISD182K
  7
TITLE3
  0
ENDBLK
  5
485C
  8
0
  0
BLOCK
  8
0
  2
*U11
 70
     1
 10
0.0
 20
0.0
 30
0.0
  3
*U11
  1

  0
TEXT
  5
485E
  8
0
 10
1530.326037674597
 20
1801.865284972396
 30
0.0
 40
50.0
  1
ISD182K
  7
TITLE3
  0
ENDBLK
  5
4860
  8
0
  0
BLOCK
  8
0
  2
*U12
 70
     1
 10
0.0
 20
0.0
 30
0.0
  3
*U12
  1

  0
TEXT
  5
4862
  8
0
 10
3216.9092599178962
 20
838.84239564126415
 30
0.0
 40
50.0
  1
ISD182K
  7
TITLE3
  0
ENDBLK
  5
4864
  8
0
  0
BLOCK
  8
0
  2
*D13
 70
     1
 10
0.0
 20
0.0
 30
0.0
  3
*D13
  1

  0
LINE
  5
69E6
  8
AM_5
 10
3442.8367743947529
 20
742.32473537214571
 30
0.0
 11
3442.9567743947532
 21
742.32473537214582
 31
0.0
  0
LINE
  5
69E7
  8
AM_5
 10
3442.9567743947532
 20
742.32473537214582
 30
0.0
 11
3465.9788783922568
 21
727.93592037370615
 31
0.0
  0
INSERT
  5
69E8
  8
0
  2
*U14
 10
0.0
 20
0.0
 30
0.0
  0
SOLID
  5
69E9
  8
AM_5
 10
3465.989478371057
 20
727.95288033978625
 30
0.0
 11
3465.9682784134579
 21
727.91896040762583
 31
0.0
 12
3466.0806381887378
 22
727.8723205009062
 32
0.0
 13
3466.0806381887378
 23
727.8723205009062
 33
0.0
  0
POINT
  5
69EA
  8
DEFPOINTS
 62
     0
 10
3466.0806381887378
 20
727.8723205009062
 30
0.0
  0
POINT
  5
69EB
  8
DEFPOINTS
 62
     0
 10
3484.736600876849
 20
716.21234382083662
 30
0.0
  0
ENDBLK
  5
69B3
  8
0
  0
BLOCK
  8
0
  2
*U14
 70
     1
 10
0.0
 20
0.0
 30
0.0
  3
*U14
  1

  0
TEXT
  5
6C0C
  8
AM_5
 62
     2
 10
3442.0167743947532
 20
742.26473537214554
 30
0.0
 40
0.12
  1
\U+220522.0000
  0
ENDBLK
  5
6C0E
  8
0
  0
ENDSEC
  0
SECTION
  2
ENTITIES
  0
LINE
  5
23F5
  8
0
 62
     7
 10
1520.970884679341
 20
2618.3946402940192
 30
0.0
 11
1492.4382826939559
 21
2586.2214076668301
 31
0.0
  0
LINE
  5
23F7
  8
0
 62
     7
 10
1482.388308716429
 20
2635.8604411330311
 30
0.0
 11
1502.4882566714839
 21
2635.8604411330311
 31
0.0
  0
LINE
  5
23F8
  8
0
 62
     7
 10
1502.4882566714839
 20
2635.8604411330311
 30
0.0
 11
1502.4882566714839
 21
2618.3946402940169
 31
0.0
  0
LINE
  5
23F9
  8
0
 62
     7
 10
1502.4882566714839
 20
2618.3946402940169
 30
0.0
 11
1520.970884679341
 21
2618.3946402940192
 31
0.0
  0
LINE
  5
23FD
  8
0
 62
     7
 10
1463.9056807085731
 20
2618.3946402940192
 30
0.0
 11
1492.4382826939559
 21
2586.2214076668301
 31
0.0
  0
LINE
  5
23FE
  8
0
 62
     7
 10
1482.388308716429
 20
2635.8604411330311
 30
0.0
 11
1482.388308716429
 21
2618.3946402940169
 31
0.0
  0
LINE
  5
23FF
  8
0
 62
     7
 10
1482.388308716429
 20
2618.3946402940169
 30
0.0
 11
1463.9056807085731
 21
2618.3946402940192
 31
0.0
  0
LINE
  5
2400
  8
0
 62
     7
 10
1382.995700299258
 20
1465.701356737269
 30
0.0
 11
1354.4630983138729
 21
1433.528124110082
 31
0.0
  0
LINE
  5
2401
  8
0
 62
     7
 10
1344.4131243363461
 20
1483.16715757628
 30
0.0
 11
1364.5130722914021
 21
1483.16715757628
 31
0.0
  0
LINE
  5
2402
  8
0
 62
     7
 10
1364.5130722914021
 20
1483.16715757628
 30
0.0
 11
1364.5130722914021
 21
1465.701356737269
 31
0.0
  0
LINE
  5
2403
  8
0
 62
     7
 10
1364.5130722914021
 20
1465.701356737269
 30
0.0
 11
1382.995700299258
 21
1465.701356737269
 31
0.0
  0
LINE
  5
2404
  8
0
 62
     7
 10
1325.930496328489
 20
1465.701356737269
 30
0.0
 11
1354.4630983138729
 21
1433.528124110082
 31
0.0
  0
LINE
  5
2405
  8
0
 62
     7
 10
1344.4131243363461
 20
1483.16715757628
 30
0.0
 11
1344.4131243363461
 21
1465.701356737269
 31
0.0
  0
LINE
  5
2406
  8
0
 62
     7
 10
1344.4131243363461
 20
1465.701356737269
 30
0.0
 11
1325.930496328489
 21
1465.701356737269
 31
0.0
  0
LINE
  5
30F6
  8
0
 62
     7
 10
3890.000000000156
 20
0.0
 30
0.0
 11
446.19435074341669
 21
0.0
 31
0.0
  0
LINE
  5
30F7
  8
0
 62
     7
 10
446.19435074341669
 20
0.0
 30
0.0
 11
446.19435074341669
 21
2668.5147229613071
 31
0.0
  0
LINE
  5
30F8
  8
0
 62
     7
 10
446.19435074341669
 20
2668.5147229613081
 30
0.0
 11
3890.000000000156
 21
2668.5147229613081
 31
0.0
  0
LINE
  5
30F9
  8
0
 62
     7
 10
3890.000000000156
 20
2668.5147229613081
 30
0.0
 11
3890.000000000156
 21
0.0
 31
0.0
  0
TEXT
  5
3AC8
  8
0
 62
     7
 10
504.01797040702871
 20
51.50540564507029
 30
0.0
 40
33.599999999996733
  1
available on request
  7
TITLE3
  0
TEXT
  5
3AC9
  8
0
 62
     7
 10
504.01797040702871
 20
109.10540564506459
 30
0.0
 40
33.599999999996733
  1
Certified dimensions
  7
TITLE3
  0
TEXT
  5
3ACA
  8
0
 62
     7
 10
504.01797040702871
 20
166.70540564505899
 30
0.0
 40
33.599999999996733
  1
without notice or obligation.
  7
TITLE3
  0
TEXT
  5
3ACB
  8
0
 62
     7
 10
504.01797040702871
 20
224.3054056450533
 30
0.0
 40
33.599999999996733
  1
specifications at any time
  7
TITLE3
  0
TEXT
  5
3ACC
  8
0
 62
     7
 10
504.01797040702871
 20
281.90540564504778
 30
0.0
 40
33.599999999996733
  1
the right to change 
  7
TITLE3
  0
TEXT
  5
3ACD
  8
0
 62
     7
 10
504.01797040702871
 20
397.10540564503611
 30
0.0
 40
33.599999999996733
  1
NOTE
  7
TITLE3
  0
TEXT
  5
3ACE
  8
0
 62
     7
 10
504.01797040702871
 20
339.50540564504212
 30
0.0
 40
33.599999999996733
  1
The manufacturer reserves
  7
TITLE3
  0
TEXT
  5
430A
  8
0
 62
     7
 10
2349.9562436667161
 20
1924.5196667207481
 30
0.0
 40
25.0
  1
ELECTRIC
  7
TITLE3
  0
TEXT
  5
430B
  8
0
 62
     7
 10
2349.9562436667161
 20
1882.85300005408
 30
0.0
 40
25.0
  1
BOX
  7
TITLE3
  0
SOLID
  5
430C
  8
0
 62
     7
 10
2260.2005787433609
 20
1891.911272728785
 30
0.0
 11
2230.9335768057499
 21
1883.638268583748
 31
0.0
 12
2255.9354421591529
 22
1900.956083943953
 32
0.0
 13
2255.9354421591529
 23
1900.956083943953
 33
0.0
  0
TEXT
  5
4438
  8
0
 62
     7
 10
2564.0397805119551
 20
346.72214982266092
 30
0.0
 40
62.5
  1
temperzone ISD 235KY
 41
1.137229224903479
  7
TITLE5
 72
     5
 11
3812.9611614327409
 21
346.72214982266092
 31
0.0
  0
TEXT
  5
4439
  8
0
 62
     7
 10
3315.000000000156
 20
87.5
 30
0.0
 40
37.5
  1
ISD 235KY
 41
1.23030303030303
  7
TITLE3
 72
     5
 11
3677.500000000156
 21
87.5
 31
0.0
  0
TEXT
  5
443A
  8
0
 62
     7
 10
2748.958007352584
 20
137.5
 30
0.0
 40
37.5
  1
08-08-12
 41
0.6913580246913594
  7
TITLE3
 72
     5
 11
2948.9580073525849
 21
137.5
 31
0.0
  0
TEXT
  5
443B
  8
0
 62
     7
 10
2583.941228961347
 20
138.53901732512611
 30
0.0
 40
30.0
  1
Date
  7
SIMPLEX
  0
TEXT
  5
443C
  8
0
 62
     7
 10
3710.1389904671569
 20
161.879127529264
 30
0.0
 40
30.0
  1
Revision
 41
0.7812095035934841
  7
SIMPLEX
 72
     5
 11
3841.828592501487
 21
161.879127529264
 31
0.0
  0
LINE
  5
443D
  8
0
 62
     7
 10
3695.614187487854
 20
26.053116060396409
 30
0.0
 11
3695.614187487854
 21
210.3358196356829
 31
0.0
  0
LINE
  5
443E
  8
0
 62
     7
 10
2551.6894118215901
 20
433.29949611692632
 30
0.0
 11
2551.6894118215901
 21
26.053116060396409
 31
0.0
  0
LINE
  5
443F
  8
0
 62
     7
 10
3298.6420975165261
 20
26.053116060396409
 30
0.0
 11
3298.6420975165261
 21
210.3358196356829
 31
0.0
  0
LINE
  5
4440
  8
0
 62
     7
 10
3298.6420975165261
 20
116.6407490868297
 30
0.0
 11
2551.6894118215901
 21
116.6407490868297
 31
0.0
  0
LINE
  5
4441
  8
0
 62
     7
 10
3854.4693315474578
 20
210.3358196356829
 30
0.0
 11
2551.6894118215901
 21
210.3358196356829
 31
0.0
  0
LINE
  5
4442
  8
0
 62
     7
 10
2551.6894118215901
 20
26.053116060396409
 30
0.0
 11
3854.0974475745211
 21
26.053116060396409
 31
0.0
  0
LINE
  5
4443
  8
0
 62
     7
 10
3854.0974475745211
 20
26.053116060396409
 30
0.0
 11
3854.0974475745211
 21
433.29949611692632
 31
0.0
  0
LINE
  5
4444
  8
0
 62
     7
 10
3854.0974475745211
 20
433.29949611692632
 30
0.0
 11
2551.6894118215901
 21
433.29949611692632
 31
0.0
  0
TEXT
  5
4445
  8
0
 62
     7
 10
2583.1040238790438
 20
59.903110081697093
 30
0.0
 40
25.0
  1
Scale
 41
1.3701747965659681
  7
SIMPLEX
 72
     5
 11
2708.7033802309238
 21
59.903110081697093
 31
0.0
  0
TEXT
  5
4446
  8
0
 62
     7
 10
3371.0739045011542
 20
161.1167893833869
 30
0.0
 40
25.0
  1
Drawing No.
  7
SIMPLEX
 72
     2
 11
3588.9310473582959
 21
161.1167893833869
 31
0.0
  0
LINE
  5
446A
  8
0
 62
     7
 10
2258.068010451258
 20
1896.433678336371
 30
0.0
 11
2299.9562436667161
 21
1916.1863333874139
 31
0.0
  0
LINE
  5
446B
  8
0
 62
     7
 10
2299.9562436667161
 20
1916.1863333874139
 30
0.0
 11
2329.9562436667152
 21
1916.1863333874139
 31
0.0
  0
LINE
  5
50D1
  8
0
 10
650.30797616622704
 20
2375.6501991520772
 30
0.0
 11
2213.1079761662272
 21
2375.6501991520772
 31
0.0
  0
LINE
  5
50D2
  8
0
 10
2213.1079761662272
 20
2375.6501991520772
 30
0.0
 11
2213.1079761662272
 21
2122.7001991520769
 31
0.0
  0
LINE
  5
50D3
  8
0
 10
630.3579761662271
 20
2122.7001991520769
 30
0.0
 11
2233.057976166227
 21
2122.7001991520769
 31
0.0
  0
LINE
  5
50D6
  8
0
 10
650.30797616622704
 20
2375.6501991520772
 30
0.0
 11
650.30797616622704
 21
2122.7001991520769
 31
0.0
  0
LINE
  5
50D9
  8
0
 10
685.15797616622683
 20
2434.6501991520772
 30
0.0
 11
2132.1579761662269
 21
2434.6501991520772
 31
0.0
  0
LINE
  5
50DA
  8
0
 10
685.15797616622683
 20
2434.6501991520772
 30
0.0
 11
685.15797616622683
 21
2375.6501991520772
 31
0.0
  0
LINE
  5
50DC
  8
0
 10
630.3579761662271
 20
2385.600199152077
 30
0.0
 11
630.3579761662271
 21
2374.1501991520781
 31
0.0
  0
LINE
  5
50DD
  8
0
 10
2233.057976166227
 20
2385.600199152077
 30
0.0
 11
2233.057976166227
 21
2374.1501991520781
 31
0.0
  0
LINE
  5
50DE
  8
0
 10
630.3579761662271
 20
2385.600199152077
 30
0.0
 11
685.15797616622683
 21
2385.600199152077
 31
0.0
  0
LINE
  5
50DF
  8
0
 10
2132.1579761662269
 20
2385.6001991520779
 30
0.0
 11
2233.057976166227
 21
2385.600199152077
 31
0.0
  0
LINE
  5
513A
  8
0
 10
2263.057976166227
 20
2262.1751991520769
 30
0.0
 11
2263.057976166227
 21
2246.1751991520769
 31
0.0
  0
LINE
  5
513C
  8
0
 10
2233.057976166227
 20
2262.1751991520791
 30
0.0
 11
2263.057976166227
 21
2262.1751991520791
 31
0.0
  0
LINE
  5
513D
  8
0
 10
2233.057976166227
 20
2246.1751991520791
 30
0.0
 11
2263.057976166227
 21
2246.1751991520791
 31
0.0
  0
LINE
  5
513F
  8
0
 10
2213.1079761662272
 20
2160.7601991520769
 30
0.0
 11
2255.0519761662272
 21
2160.7601991520769
 31
0.0
  0
LINE
  5
5140
  8
0
 10
2213.1079761662272
 20
2140.760199152076
 30
0.0
 11
2255.0519761662272
 21
2140.7601991520769
 31
0.0
  0
LINE
  5
5141
  8
0
 10
2255.0519761662272
 20
2160.7601991520769
 30
0.0
 11
2255.0519761662272
 21
2140.7601991520769
 31
0.0
  0
LINE
  5
5142
  8
0
 10
2233.057976166227
 20
2140.7601991520769
 30
0.0
 11
2233.057976166227
 21
2122.7001991520769
 31
0.0
  0
LINE
  5
518F
  8
0
 10
2242.6079761662272
 20
2374.1501991520781
 30
0.0
 11
2242.6079761662272
 21
2346.1501991520772
 31
0.0
  0
LINE
  5
5190
  8
0
 10
2213.1079761662272
 20
2374.1501991520781
 30
0.0
 11
2242.6079761662272
 21
2374.1501991520781
 31
0.0
  0
LINE
  5
5191
  8
0
 10
2213.1079761662272
 20
2346.1501991520772
 30
0.0
 11
2242.6079761662272
 21
2346.1501991520772
 31
0.0
  0
POINT
  5
5193
  8
0
 10
2228.6079761662272
 20
2360.1501991520772
 30
0.0
  0
LINE
  5
51E5
  8
0
 10
650.30797616622704
 20
2374.1501991520781
 30
0.0
 11
620.80797616622715
 21
2374.1501991520781
 31
0.0
  0
LINE
  5
51E6
  8
0
 10
650.30797616622704
 20
2346.1501991520772
 30
0.0
 11
620.80797616622715
 21
2346.1501991520772
 31
0.0
  0
LINE
  5
51E7
  8
0
 10
620.80797616622715
 20
2374.1501991520781
 30
0.0
 11
620.80797616622715
 21
2346.1501991520772
 31
0.0
  0
POINT
  5
51E8
  8
0
 10
634.80797616622704
 20
2360.1501991520772
 30
0.0
 50
180.0
  0
LINE
  5
51EE
  8
0
 10
630.3579761662271
 20
2346.1501991520772
 30
0.0
 11
630.3579761662271
 21
2122.7001991520769
 31
0.0
  0
LINE
  5
5287
  8
0
 10
2133.7479761662239
 20
2122.7001991520769
 30
0.0
 11
2133.7479761662271
 21
1697.488199152077
 31
0.0
  0
LINE
  5
5288
  8
0
 10
679.75797616622594
 20
1697.488199152077
 30
0.0
 11
2133.7479761662239
 21
1697.488199152077
 31
0.0
  0
LINE
  5
5289
  8
0
 10
679.75797616622594
 20
2122.7001991520769
 30
0.0
 11
679.75797616622594
 21
1697.488199152077
 31
0.0
  0
LINE
  5
528B
  8
0
 10
860.70797616622588
 20
1650.652199152076
 30
0.0
 11
1955.707976166226
 21
1650.6521991520769
 31
0.0
  0
LINE
  5
528F
  8
0
 10
2133.7479761662271
 20
1729.938199152077
 30
0.0
 11
2163.2479761662271
 21
1729.938199152077
 31
0.0
  0
LINE
  5
5290
  8
0
 10
2133.7479761662271
 20
1701.938199152077
 30
0.0
 11
2163.2479761662271
 21
1701.938199152077
 31
0.0
  0
LINE
  5
5291
  8
0
 10
2163.2479761662271
 20
1729.938199152077
 30
0.0
 11
2163.2479761662271
 21
1701.938199152077
 31
0.0
  0
POINT
  5
5292
  8
0
 10
2149.2479761662271
 20
1715.938199152077
 30
0.0
  0
LINE
  5
5293
  8
0
 10
679.75797616622594
 20
1729.938199152077
 30
0.0
 11
654.25797616622617
 21
1729.938199152077
 31
0.0
  0
LINE
  5
5294
  8
0
 10
679.75797616622594
 20
1701.938199152077
 30
0.0
 11
654.25797616622617
 21
1701.938199152077
 31
0.0
  0
LINE
  5
5295
  8
0
 10
654.25797616622617
 20
1729.938199152077
 30
0.0
 11
654.25797616622617
 21
1701.938199152077
 31
0.0
  0
POINT
  5
5296
  8
0
 10
668.25797616622606
 20
1715.938199152077
 30
0.0
 50
180.0
  0
LINE
  5
52E3
  8
0
 10
2230.557976166227
 20
2071.4801991520771
 30
0.0
 11
2230.557976166227
 21
1738.938199152077
 31
0.0
  0
LINE
  5
52E4
  8
0
 10
2133.7479761662239
 20
1738.938199152077
 30
0.0
 11
2230.557976166227
 21
1738.938199152077
 31
0.0
  0
LINE
  5
52E5
  8
0
 10
2133.7479761662239
 20
2071.4801991520771
 30
0.0
 11
2230.557976166227
 21
2071.4801991520771
 31
0.0
  0
LINE
  5
536B
  8
0
 10
3503.0786195327919
 20
1044.162332160872
 30
0.0
 11
3503.0786195327919
 21
649.16233216087176
 31
0.0
  0
LINE
  5
536C
  8
0
 10
3250.1286195327898
 20
1044.162332160872
 30
0.0
 11
3250.1286195327898
 21
624.16233216087176
 31
0.0
  0
LINE
  5
536D
  8
0
 10
3513.0286195327908
 20
624.16233216087176
 30
0.0
 11
3250.1286195327898
 21
624.16233216087176
 31
0.0
  0
LINE
  5
536E
  8
0
 10
3503.0786195327919
 20
1044.162332160872
 30
0.0
 11
3501.5786195327919
 21
1044.162332160872
 31
0.0
  0
LINE
  5
536F
  8
0
 10
3513.0286195327908
 20
649.16233216087232
 30
0.0
 11
3513.0286195327908
 21
624.16233216087176
 31
0.0
  0
LINE
  5
5370
  8
0
 10
3513.0286195327908
 20
649.16233216087176
 30
0.0
 11
3290.88861953279
 21
649.16233216087176
 31
0.0
  0
LINE
  5
5371
  8
0
 10
3562.078619532791
 20
1026.5423321608721
 30
0.0
 11
3562.078619532791
 21
671.1623321608721
 31
0.0
  0
LINE
  5
5372
  8
0
 10
3562.078619532791
 20
671.1623321608721
 30
0.0
 11
3503.0786195327919
 21
671.1623321608721
 31
0.0
  0
LINE
  5
5373
  8
0
 10
3562.078619532791
 20
1026.5423321608721
 30
0.0
 11
3503.0786195327901
 21
1026.5423321608721
 31
0.0
  0
CIRCLE
  5
53C2
  8
0
 10
3381.6036195327902
 20
632.99833216087211
 30
0.0
 40
8.0
  0
ARC
  5
5412
  8
0
 10
3278.1886195327911
 20
649.16233216087176
 30
0.0
 40
12.699999999999999
 50
180.0
 51
0.0
  0
LINE
  5
5413
  8
0
 10
3265.4886195327908
 20
649.16233216087176
 30
0.0
 11
3250.1286195327898
 21
649.16233216087176
 31
0.0
  0
CIRCLE
  5
5415
  8
0
 10
3278.1886195327911
 20
649.82633216087231
 30
0.0
 40
10.0
  0
LINE
  5
54B4
  8
0
 10
3501.5786195327919
 20
1046.862332160872
 30
0.0
 11
3501.5786195327919
 21
959.76233216087235
 31
0.0
  0
LINE
  5
54B5
  8
0
 10
3473.578619532791
 20
1046.862332160872
 30
0.0
 11
3473.578619532791
 21
959.76233216087235
 31
0.0
  0
LINE
  5
54B6
  8
0
 10
3473.578619532791
 20
959.76233216087235
 30
0.0
 11
3501.5786195327919
 21
959.76233216087235
 31
0.0
  0
LINE
  5
54B7
  8
0
 10
3473.578619532791
 20
1046.862332160872
 30
0.0
 11
3501.5786195327919
 21
1046.862332160872
 31
0.0
  0
LINE
  5
54B8
  8
0
 10
3473.578619532791
 20
1044.362332160872
 30
0.0
 11
3501.5786195327919
 21
1044.362332160872
 31
0.0
  0
LINE
  5
54BB
  8
0
 10
3487.578619532791
 20
1039.362332160872
 30
0.0
 11
3487.578619532791
 21
1051.862332160872
 31
0.0
  0
LINE
  5
54BD
  8
0
 10
3473.578619532791
 20
1044.162332160872
 30
0.0
 11
3250.1286195327898
 21
1044.162332160872
 31
0.0
  0
CIRCLE
  5
54CA
  8
0
 10
3487.578619532791
 20
968.26233216087235
 30
0.0
 40
7.8499999999999988
  0
CIRCLE
  5
54CB
  8
0
 10
3487.578619532791
 20
1018.262332160872
 30
0.0
 40
6.0
  0
CIRCLE
  5
54CC
  8
0
 10
3487.578619532791
 20
998.26233216087235
 30
0.0
 40
7.8499999999999988
  0
LINE
  5
551A
  8
0
 10
3250.1286195327898
 20
635.11233216087226
 30
0.0
 11
2823.9166195327912
 21
635.11233216087226
 31
0.0
  0
LINE
  5
551B
  8
0
 10
2823.9166195327912
 20
1033.2123321608719
 30
0.0
 11
2823.9166195327912
 21
635.11233216087226
 31
0.0
  0
LINE
  5
551C
  8
0
 10
3250.1286195327898
 20
1033.2123321608719
 30
0.0
 11
2855.5766195327919
 21
1033.2123321608719
 31
0.0
  0
LINE
  5
551D
  8
0
 10
2824.9166195327912
 20
641.06233216087207
 30
0.0
 11
2777.0806195327918
 21
641.06233216087207
 31
0.0
  0
LINE
  5
551E
  8
0
 10
2777.0806195327918
 20
903.05533216087235
 30
0.0
 11
2777.0806195327918
 21
641.06233216087207
 31
0.0
  0
LINE
  5
551F
  8
0
 10
2824.9166195327912
 20
903.05533216087235
 30
0.0
 11
2777.0806195327918
 21
903.05533216087235
 31
0.0
  0
LINE
  5
5520
  8
0
 10
2866.3666195327928
 20
1028.477332160872
 30
0.0
 11
2866.3666195327892
 21
639.88733216087212
 31
0.0
  0
LINE
  5
5521
  8
0
 10
3198.9086195327918
 20
1028.477332160872
 30
0.0
 11
3198.9086195327918
 21
639.88733216087212
 31
0.0
  0
LINE
  5
5522
  8
0
 10
3198.9086195327918
 20
639.88733216087212
 30
0.0
 11
2866.3666195327892
 21
639.88733216087212
 31
0.0
  0
LINE
  5
5523
  8
0
 10
3198.9086195327918
 20
1028.477332160872
 30
0.0
 11
2866.3666195327928
 21
1028.477332160872
 31
0.0
  0
LINE
  5
5525
  8
0
 10
2855.5766195327919
 20
1046.862332160872
 30
0.0
 11
2855.5766195327919
 21
959.76233216087235
 31
0.0
  0
LINE
  5
5526
  8
0
 10
2827.576619532791
 20
1046.862332160872
 30
0.0
 11
2827.576619532791
 21
959.76233216087235
 31
0.0
  0
LINE
  5
5527
  8
0
 10
2827.576619532791
 20
959.76233216087235
 30
0.0
 11
2855.5766195327919
 21
959.76233216087235
 31
0.0
  0
LINE
  5
5528
  8
0
 10
2827.576619532791
 20
1046.862332160872
 30
0.0
 11
2855.5766195327919
 21
1046.862332160872
 31
0.0
  0
LINE
  5
5529
  8
0
 10
2827.576619532791
 20
1044.362332160872
 30
0.0
 11
2855.5766195327919
 21
1044.362332160872
 31
0.0
  0
LINE
  5
552A
  8
0
 10
2841.5766195327919
 20
1039.362332160872
 30
0.0
 11
2841.5766195327919
 21
1051.862332160872
 31
0.0
  0
CIRCLE
  5
552B
  8
0
 10
2841.5766195327919
 20
968.26233216087235
 30
0.0
 40
7.8499999999999988
  0
CIRCLE
  5
552C
  8
0
 10
2841.5766195327919
 20
1018.262332160872
 30
0.0
 40
6.0
  0
CIRCLE
  5
552D
  8
0
 10
2841.5766195327919
 20
998.26233216087235
 30
0.0
 40
7.8499999999999988
  0
LINE
  5
552E
  8
0
 10
2827.576619532791
 20
1033.2123321608719
 30
0.0
 11
2823.9166195327912
 21
1033.2123321608719
 31
0.0
  0
TEXT
  5
57D9
  8
0
 10
1320.994004831882
 20
1908.321484178045
 30
0.0
 40
37.5
  1
ISD235KY
  7
TITLE3
  0
TEXT
  5
57DA
  8
0
 10
2927.0976872129741
 20
900.24687402189466
 30
0.0
 40
37.5
  1
ISD235KY
  7
TITLE3
  0
LINE
  5
57DB
  8
0
 62
     7
 10
685.15797616622683
 20
2454.6501991520781
 30
0.0
 11
685.15797616622683
 21
2520.280023042938
 31
0.0
  0
LINE
  5
57DC
  8
0
 62
     7
 10
715.15797616622683
 20
2500.2800230429361
 30
0.0
 11
1372.417863088559
 21
2500.2800230429361
 31
0.0
  0
SOLID
  5
57DD
  8
0
 62
     7
 10
715.15797616622683
 20
2505.280023042938
 30
0.0
 11
715.15797616622683
 21
2495.280023042937
 31
0.0
 12
685.15797616622683
 22
2500.2800230429361
 32
0.0
 13
685.15797616622683
 23
2500.2800230429361
 33
0.0
  0
LINE
  5
57E1
  8
0
 62
     7
 10
2132.1579761662269
 20
2454.6501991520781
 30
0.0
 11
2132.1579761662269
 21
2520.280023042938
 31
0.0
  0
LINE
  5
57E2
  8
0
 62
     7
 10
2102.1579761662279
 20
2500.2800230429361
 30
0.0
 11
1637.471701029649
 21
2500.2800230429361
 31
0.0
  0
SOLID
  5
57E3
  8
0
 62
     7
 10
2102.1579761662279
 20
2505.280023042938
 30
0.0
 11
2102.1579761662279
 21
2495.280023042937
 31
0.0
 12
2132.1579761662269
 22
2500.2800230429361
 32
0.0
 13
2132.1579761662269
 23
2500.2800230429361
 33
0.0
  0
TEXT
  5
57EE
  8
0
 62
     7
 10
1378.668687034248
 20
2488.180023042938
 30
0.0
 40
25.0
  1
1447 SPIGOT
  0
LINE
  5
57EF
  8
0
 62
     7
 10
860.70797616622679
 20
1630.6521991520769
 30
0.0
 11
860.70797616622679
 21
1562.0439384885631
 31
0.0
  0
LINE
  5
57F0
  8
0
 62
     7
 10
890.70797616622679
 20
1582.043938488564
 30
0.0
 11
1297.291831624432
 21
1582.043938488564
 31
0.0
  0
SOLID
  5
57F1
  8
0
 62
     7
 10
890.70797616622679
 20
1587.043938488564
 30
0.0
 11
890.70797616622679
 21
1577.0439384885649
 31
0.0
 12
860.70797616622679
 22
1582.043938488564
 32
0.0
 13
860.70797616622679
 23
1582.043938488564
 33
0.0
  0
LINE
  5
57F3
  8
0
 62
     7
 10
1955.707976166226
 20
1630.6521991520769
 30
0.0
 11
1955.707976166226
 21
1562.0439384885631
 31
0.0
  0
LINE
  5
57F4
  8
0
 62
     7
 10
1925.7079761662251
 20
1582.043938488564
 30
0.0
 11
1388.9584982910981
 21
1582.043938488564
 31
0.0
  0
SOLID
  5
57F5
  8
0
 62
     7
 10
1925.7079761662251
 20
1587.043938488564
 30
0.0
 11
1925.7079761662251
 21
1577.0439384885649
 31
0.0
 12
1955.707976166226
 22
1582.043938488564
 32
0.0
 13
1955.707976166226
 23
1582.043938488564
 33
0.0
  0
TEXT
  5
57F9
  8
0
 62
     7
 10
1303.542655570119
 20
1569.3439384885639
 30
0.0
 40
25.0
  1
1095
  0
LINE
  5
57FA
  8
0
 62
     7
 10
2652.7457411984751
 20
742.83141917514513
 30
0.0
 11
2621.572508571287
 21
771.36402116053023
 31
0.0
  0
LINE
  5
57FB
  8
0
 62
     7
 10
2670.2115420374871
 20
781.41399513805663
 30
0.0
 11
2670.2115420374871
 21
761.31404718300109
 31
0.0
  0
LINE
  5
57FC
  8
0
 62
     7
 10
2670.2115420374871
 20
761.31404718300109
 30
0.0
 11
2652.7457411984751
 21
761.31404718300109
 31
0.0
  0
LINE
  5
57FD
  8
0
 62
     7
 10
2652.7457411984751
 20
761.31404718300109
 30
0.0
 11
2652.7457411984751
 21
742.83141917514513
 31
0.0
  0
LINE
  5
57FE
  8
0
 62
     7
 10
2652.7457411984751
 20
799.89662314591351
 30
0.0
 11
2621.572508571287
 21
771.36402116053023
 31
0.0
  0
LINE
  5
57FF
  8
0
 62
     7
 10
2670.2115420374871
 20
781.41399513805663
 30
0.0
 11
2652.7457411984751
 21
781.41399513805663
 31
0.0
  0
LINE
  5
5800
  8
0
 62
     7
 10
2652.7457411984751
 20
781.41399513805663
 30
0.0
 11
2652.7457411984751
 21
799.89662314591351
 31
0.0
  0
LINE
  5
5801
  8
0
 62
     7
 10
3782.9410840205192
 20
819.93655950172251
 30
0.0
 11
3750.7678513933338
 21
848.46916148710784
 31
0.0
  0
LINE
  5
5802
  8
0
 62
     7
 10
3800.4068848595311
 20
858.51913546463379
 30
0.0
 11
3800.4068848595311
 21
838.41918750957848
 31
0.0
  0
LINE
  5
5803
  8
0
 62
     7
 10
3800.4068848595311
 20
838.41918750957848
 30
0.0
 11
3782.9410840205192
 21
838.41918750957848
 31
0.0
  0
LINE
  5
5804
  8
0
 62
     7
 10
3782.9410840205192
 20
838.41918750957848
 30
0.0
 11
3782.9410840205192
 21
819.93655950172251
 31
0.0
  0
LINE
  5
5805
  8
0
 62
     7
 10
3782.9410840205192
 20
877.00176347249078
 30
0.0
 11
3750.7678513933338
 21
848.46916148710784
 31
0.0
  0
LINE
  5
5806
  8
0
 62
     7
 10
3800.4068848595311
 20
858.51913546463379
 30
0.0
 11
3782.9410840205192
 21
858.51913546463379
 31
0.0
  0
LINE
  5
5807
  8
0
 62
     7
 10
3782.9410840205192
 20
858.51913546463379
 30
0.0
 11
3782.9410840205192
 21
877.00176347249078
 31
0.0
  0
LINE
  5
5808
  8
0
 62
     7
 10
2757.0806195327909
 20
903.05533216087235
 30
0.0
 11
2693.542532033619
 21
903.05533216087235
 31
0.0
  0
LINE
  5
5809
  8
0
 62
     7
 10
2713.5425320336199
 20
873.05533216087224
 30
0.0
 11
2713.5425320336171
 21
812.65912758561763
 31
0.0
  0
SOLID
  5
580A
  8
0
 62
     7
 10
2708.542532033619
 20
873.05533216087224
 30
0.0
 11
2718.542532033619
 21
873.05533216087224
 31
0.0
 12
2713.5425320336199
 22
903.05533216087235
 32
0.0
 13
2713.5425320336199
 23
903.05533216087235
 33
0.0
  0
TEXT
  5
580B
  8
0
 62
     7
 10
2726.042532033619
 20
739.74328486464037
 30
0.0
 40
25.0
  1
262
 50
90.0
  0
LINE
  5
580C
  8
0
 62
     7
 10
2757.0806195327909
 20
641.06233216087207
 30
0.0
 11
2693.542532033619
 21
641.06233216087207
 31
0.0
  0
LINE
  5
580D
  8
0
 62
     7
 10
2713.542532033618
 20
671.06233216087196
 30
0.0
 11
2713.542532033618
 21
733.49246091895145
 31
0.0
  0
SOLID
  5
580E
  8
0
 62
     7
 10
2708.542532033619
 20
671.06233216087196
 30
0.0
 11
2718.542532033619
 21
671.06233216087196
 31
0.0
 12
2713.542532033618
 22
641.06233216087207
 32
0.0
 13
2713.542532033618
 23
641.06233216087207
 33
0.0
  0
LINE
  5
585C
  8
0
 62
     7
 10
3582.078619532791
 20
1026.5423321608721
 30
0.0
 11
3648.684446369421
 21
1026.5423321608721
 31
0.0
  0
LINE
  5
585D
  8
0
 62
     7
 10
3628.6844463694242
 20
996.54233216087232
 30
0.0
 11
3628.684446369421
 21
885.79960987752565
 31
0.0
  0
SOLID
  5
585E
  8
0
 62
     7
 10
3623.6844463694201
 20
996.54233216087232
 30
0.0
 11
3633.6844463694242
 21
996.54233216087232
 31
0.0
 12
3628.6844463694242
 22
1026.5423321608721
 32
0.0
 13
3628.6844463694242
 23
1026.5423321608721
 33
0.0
  0
TEXT
  5
585F
  8
0
 62
     7
 10
3641.184446369421
 20
812.88376715654772
 30
0.0
 40
25.0
  1
355
 50
90.0
  0
LINE
  5
5860
  8
0
 62
     7
 10
3582.0786195327919
 20
671.16233216087312
 30
0.0
 11
3648.6844463694219
 21
671.16233216087312
 31
0.0
  0
LINE
  5
5861
  8
0
 62
     7
 10
3628.6844463694242
 20
701.16233216087301
 30
0.0
 11
3628.6844463694242
 21
806.6329432108588
 31
0.0
  0
SOLID
  5
5862
  8
0
 62
     7
 10
3623.6844463694219
 20
701.16233216087301
 30
0.0
 11
3633.6844463694242
 21
701.16233216087301
 31
0.0
 12
3628.6844463694242
 22
671.16233216087312
 32
0.0
 13
3628.6844463694242
 23
671.16233216087312
 33
0.0
  0
LINE
  5
58B4
  8
0
 62
     7
 10
3521.578619532791
 20
1046.862332160872
 30
0.0
 11
3690.7330122880162
 21
1046.862332160872
 31
0.0
  0
LINE
  5
58B5
  8
0
 62
     7
 10
3670.7330122880171
 20
1016.862332160872
 30
0.0
 11
3670.7330122880139
 21
926.08841044381347
 31
0.0
  0
SOLID
  5
58B6
  8
0
 62
     7
 10
3665.7330122880148
 20
1016.862332160872
 30
0.0
 11
3675.7330122880171
 21
1016.862332160872
 31
0.0
 12
3670.7330122880171
 22
1046.862332160872
 32
0.0
 13
3670.7330122880171
 23
1046.862332160872
 33
0.0
  0
LINE
  5
58B8
  8
0
 62
     7
 10
3533.0286195327922
 20
624.16233216087176
 30
0.0
 11
3690.7330122880162
 21
624.16233216087176
 31
0.0
  0
LINE
  5
58B9
  8
0
 62
     7
 10
3670.733012288018
 20
654.1623321608721
 30
0.0
 11
3670.733012288018
 21
746.92174377714684
 31
0.0
  0
SOLID
  5
58BA
  8
0
 62
     7
 10
3665.7330122880148
 20
654.1623321608721
 30
0.0
 11
3675.7330122880171
 21
654.1623321608721
 31
0.0
 12
3670.733012288018
 22
624.16233216087176
 32
0.0
 13
3670.733012288018
 23
624.16233216087176
 33
0.0
  0
TEXT
  5
58BB
  8
0
 62
     7
 10
3683.2330122880171
 20
753.17256772283599
 30
0.0
 40
25.0
  1
423 O/A
 50
90.0
  0
LINE
  5
5909
  8
0
  6
PHANTOM
 62
     7
 10
2733.057976166227
 20
1400.6521991520769
 30
0.0
 11
2733.057976166227
 21
2385.600199152077
 31
0.0
  0
LINE
  5
590A
  8
0
  6
PHANTOM
 62
     7
 10
2733.057976166227
 20
2385.600199152077
 30
0.0
 11
2246.6369813536162
 21
2385.600199152077
 31
0.0
  0
TEXT
  5
590B
  8
0
 62
     7
 10
2774.3477268084221
 20
1690.6826100265141
 30
0.0
 40
25.0
  1
500 mm CLEARENCE
 50
90.0
  7
TITLE3
  0
LINE
  5
590C
  8
0
  6
PHANTOM
 62
     7
 10
2131.7979761662268
 20
1400.6521991520769
 30
0.0
 11
2733.057976166227
 21
1400.6521991520769
 31
0.0
  0
LINE
  5
590E
  8
0
  6
PHANTOM
 62
     7
 10
2131.7979761662268
 20
1400.6521991520769
 30
0.0
 11
2131.7979761662268
 21
1548.4649333011739
 31
0.0
  0
TEXT
  5
590F
  8
0
 62
     7
 10
2254.2359873227801
 20
1358.255303204239
 30
0.0
 40
25.0
  1
250 mm CLEARENCE
  7
TITLE3
  0
LINE
  5
5967
  8
0
 62
     7
 10
2777.0806195327918
 20
621.06233216087196
 30
0.0
 11
2777.0806195327918
 21
516.25069834741305
 31
0.0
  0
LINE
  5
5968
  8
0
 62
     7
 10
2807.0806195327909
 20
536.25069834741316
 30
0.0
 11
3085.72616330764
 21
536.25069834741328
 31
0.0
  0
SOLID
  5
5969
  8
0
 62
     7
 10
2807.0806195327909
 20
541.25069834741305
 30
0.0
 11
2807.0806195327909
 21
531.25069834741305
 31
0.0
 12
2777.0806195327918
 22
536.25069834741316
 32
0.0
 13
2777.0806195327918
 23
536.25069834741316
 33
0.0
  0
LINE
  5
596A
  8
0
 62
     7
 10
3562.078619532791
 20
650.32633216087231
 30
0.0
 11
3562.078619532791
 21
516.25069834741305
 31
0.0
  0
LINE
  5
596B
  8
0
 62
     7
 10
3532.0786195327919
 20
536.25069834741316
 30
0.0
 11
3264.8928299743061
 21
536.25069834741328
 31
0.0
  0
SOLID
  5
596C
  8
0
 62
     7
 10
3532.0786195327919
 20
541.25069834741305
 30
0.0
 11
3532.0786195327919
 21
531.25069834741305
 31
0.0
 12
3562.078619532791
 22
536.25069834741316
 32
0.0
 13
3562.078619532791
 23
536.25069834741316
 33
0.0
  0
TEXT
  5
596E
  8
0
 62
     7
 10
3091.9769872533288
 20
523.75069834741225
 30
0.0
 40
25.0
  1
785 O/A
  0
LINE
  5
59BF
  8
0
 62
     7
 10
2149.2479761662271
 20
1695.938199152077
 30
0.0
 11
2149.2479761662271
 21
1517.653822581141
 31
0.0
  0
LINE
  5
59C0
  8
0
 62
     7
 10
2119.2479761662271
 20
1537.653822581143
 30
0.0
 11
1456.4806908269579
 21
1537.653822581143
 31
0.0
  0
SOLID
  5
59C1
  8
0
 62
     7
 10
2119.2479761662271
 20
1542.653822581143
 30
0.0
 11
2119.2479761662271
 21
1532.653822581143
 31
0.0
 12
2149.2479761662271
 22
1537.653822581143
 32
0.0
 13
2149.2479761662271
 23
1537.653822581143
 33
0.0
  0
LINE
  5
59C2
  8
0
 62
     7
 10
698.25797616622594
 20
1537.653822581143
 30
0.0
 11
1214.647357493624
 21
1537.653822581143
 31
0.0
  0
SOLID
  5
59C3
  8
0
 62
     7
 10
698.25797616622594
 20
1542.653822581143
 30
0.0
 11
698.25797616622594
 21
1532.653822581143
 31
0.0
 12
668.25797616622606
 22
1537.653822581143
 32
0.0
 13
668.25797616622606
 23
1537.653822581143
 33
0.0
  0
TEXT
  5
59C4
  8
0
 62
     7
 10
1216.8981814393121
 20
1524.953822581142
 30
0.0
 40
25.0
  1
11481 CTRS
  0
LINE
  5
5A12
  8
0
 62
     7
 10
2841.5766195327919
 20
1071.8623321608729
 30
0.0
 11
2841.5766195327919
 21
1137.4921560517321
 31
0.0
  0
LINE
  5
5A13
  8
0
 62
     7
 10
2871.5766195327919
 20
1117.4921560517309
 30
0.0
 11
3049.9782654327241
 21
1117.4921560517309
 31
0.0
  0
SOLID
  5
5A14
  8
0
 62
     7
 10
2871.5766195327919
 20
1122.4921560517321
 30
0.0
 11
2871.5766195327919
 21
1112.4921560517321
 31
0.0
 12
2841.5766195327919
 22
1117.4921560517309
 32
0.0
 13
2841.5766195327919
 23
1117.4921560517309
 33
0.0
  0
LINE
  5
5A15
  8
0
 62
     7
 10
3487.578619532791
 20
1071.8623321608729
 30
0.0
 11
3487.578619532791
 21
1137.4921560517321
 31
0.0
  0
LINE
  5
5A16
  8
0
 62
     7
 10
3457.5786195327919
 20
1117.4921560517309
 30
0.0
 11
3287.4782654327232
 21
1117.4921560517309
 31
0.0
  0
SOLID
  5
5A17
  8
0
 62
     7
 10
3457.5786195327919
 20
1122.4921560517321
 30
0.0
 11
3457.5786195327919
 21
1112.4921560517321
 31
0.0
 12
3487.578619532791
 22
1117.4921560517309
 32
0.0
 13
3487.578619532791
 23
1117.4921560517309
 33
0.0
  0
TEXT
  5
5A18
  8
0
 62
     7
 10
3056.2290893784129
 20
1105.3921560517319
 30
0.0
 40
25.0
  1
646 CTRS
  0
LINE
  5
5A67
  8
0
 62
     7
 10
634.80797616622704
 20
2380.1501991520781
 30
0.0
 11
634.80797616622704
 21
2572.9594809006189
 31
0.0
  0
TEXT
  5
5A6A
  8
0
 62
     7
 10
1384.7227712413819
 20
2540.8594809006181
 30
0.0
 40
25.0
  1
1593 CTRS
  0
LINE
  5
5A6C
  8
0
 62
     7
 10
2228.6079761662272
 20
2380.1501991520781
 30
0.0
 11
2228.6079761662272
 21
2572.9594809006189
 31
0.0
  0
LINE
  5
5A6D
  8
0
 62
     7
 10
2198.6079761662272
 20
2552.959480900618
 30
0.0
 11
1628.471947295692
 21
2552.959480900618
 31
0.0
  0
SOLID
  5
5A6E
  8
0
 62
     7
 10
2198.6079761662272
 20
2557.9594809006189
 30
0.0
 11
2198.6079761662272
 21
2547.959480900618
 31
0.0
 12
2228.6079761662272
 22
2552.959480900618
 32
0.0
 13
2228.6079761662272
 23
2552.959480900618
 33
0.0
  0
LINE
  5
5D99
  8
0
 62
     7
 10
664.80797616622704
 20
2552.9594809006171
 30
0.0
 11
1378.4719472956931
 21
2552.9594809006171
 31
0.0
  0
SOLID
  5
5D9A
  8
0
 62
     7
 10
664.80797616622704
 20
2557.9594809006189
 30
0.0
 11
664.80797616622704
 21
2547.959480900618
 31
0.0
 12
634.80797616622704
 22
2552.9594809006171
 32
0.0
 13
634.80797616622704
 23
2552.9594809006171
 33
0.0
  0
LINE
  5
5D9B
  8
0
 10
2233.057976166227
 20
624.16233216087176
 30
0.0
 11
630.3579761662271
 21
624.16233216087176
 31
0.0
  0
LINE
  5
5D9C
  8
0
 10
2213.1079761662272
 20
1044.162332160872
 30
0.0
 11
2136.2479761662271
 21
1044.162332160872
 31
0.0
  0
LINE
  5
5D9E
  8
0
 10
630.3579761662271
 20
649.16233216087176
 30
0.0
 11
630.3579761662271
 21
624.16233216087176
 31
0.0
  0
LINE
  5
5D9F
  8
0
 10
2233.057976166227
 20
649.16233216087176
 30
0.0
 11
2233.057976166227
 21
624.16233216087176
 31
0.0
  0
LINE
  5
5DA0
  8
0
 10
650.30797616622704
 20
1046.862332160872
 30
0.0
 11
650.30797616622704
 21
624.16233216087176
 31
0.0
  0
LINE
  5
5DA1
  8
0
 10
650.30797616622704
 20
649.16233216087176
 30
0.0
 11
630.3579761662271
 21
649.16233216087176
 31
0.0
  0
LINE
  5
5DA2
  8
0
 10
2220.557976166227
 20
711.04233216087175
 30
0.0
 11
2245.057976166227
 21
711.04233216087175
 31
0.0
  0
LINE
  5
5DA3
  8
0
 10
2245.057976166227
 20
710.04233216087221
 30
0.0
 11
2261.057976166227
 21
710.04233216087221
 31
0.0
  0
LINE
  5
5DA4
  8
0
 10
2220.557976166227
 20
733.04233216087175
 30
0.0
 11
2245.057976166227
 21
733.04233216087175
 31
0.0
  0
LINE
  5
5DA5
  8
0
 10
2245.057976166227
 20
734.0423321608713
 30
0.0
 11
2261.057976166227
 21
734.0423321608713
 31
0.0
  0
LINE
  5
5DA6
  8
0
 10
2261.057976166227
 20
734.0423321608713
 30
0.0
 11
2261.057976166227
 21
710.04233216087221
 31
0.0
  0
LINE
  5
5DA7
  8
0
 10
2245.057976166227
 20
734.0423321608713
 30
0.0
 11
2245.057976166227
 21
710.04233216087221
 31
0.0
  0
LINE
  5
5DA8
  8
0
 10
2220.557976166227
 20
769.69233216087162
 30
0.0
 11
2248.3579761662272
 21
769.69233216087162
 31
0.0
  0
LINE
  5
5DA9
  8
0
 10
2248.3579761662272
 20
768.69233216087162
 30
0.0
 11
2261.057976166227
 21
768.69233216087162
 31
0.0
  0
LINE
  5
5DAA
  8
0
 10
2220.557976166227
 20
782.39233216087143
 30
0.0
 11
2248.3579761662272
 21
782.39233216087189
 31
0.0
  0
LINE
  5
5DAB
  8
0
 10
2248.3579761662272
 20
783.39233216087155
 30
0.0
 11
2261.057976166227
 21
783.39233216087155
 31
0.0
  0
LINE
  5
5DAD
  8
0
 10
2261.057976166227
 20
783.39233216087155
 30
0.0
 11
2261.057976166227
 21
768.69233216087162
 31
0.0
  0
LINE
  5
5DAE
  8
0
 10
2234.3579761662272
 20
624.99833216087245
 30
0.0
 11
2262.3579761662281
 21
624.99833216087211
 31
0.0
  0
LINE
  5
5DAF
  8
0
 10
2256.3519761662269
 20
640.99833216087245
 30
0.0
 11
2262.3579761662281
 21
640.99833216087245
 31
0.0
  0
LINE
  5
5DB0
  8
0
 10
2262.3579761662281
 20
640.99833216087211
 30
0.0
 11
2262.3579761662281
 21
624.998332160872
 31
0.0
  0
LINE
  5
5DB1
  8
0
 10
2233.057976166227
 20
639.16233216087187
 30
0.0
 11
2255.0519761662272
 21
639.1623321608721
 31
0.0
  0
LINE
  5
5DB2
  8
0
 10
2220.5579761662279
 20
659.1623321608721
 30
0.0
 11
2255.0519761662272
 21
659.1623321608721
 31
0.0
  0
LINE
  5
5DB3
  8
0
 10
2255.0519761662272
 20
659.1623321608721
 30
0.0
 11
2255.0519761662272
 21
639.1623321608721
 31
0.0
  0
LINE
  5
5DB5
  8
0
 10
2213.1079761662272
 20
1046.862332160872
 30
0.0
 11
2242.6079761662272
 21
1046.862332160872
 31
0.0
  0
LINE
  5
5DB6
  8
0
 10
2215.6079761662272
 20
1044.362332160872
 30
0.0
 11
2242.6079761662272
 21
1044.362332160872
 31
0.0
  0
LINE
  5
5DB7
  8
0
 10
2242.6079761662272
 20
1046.862332160872
 30
0.0
 11
2242.6079761662272
 21
1044.362332160872
 31
0.0
  0
LINE
  5
5DB8
  8
0
 10
2228.6079761662272
 20
1051.862332160872
 30
0.0
 11
2228.6079761662272
 21
1039.362332160872
 31
0.0
  0
LINE
  5
5DB9
  8
0
 10
647.80797616622795
 20
1044.362332160872
 30
0.0
 11
647.80797616622795
 21
959.76233216087235
 31
0.0
  0
LINE
  5
5DBA
  8
0
 10
650.30797616622704
 20
1046.862332160872
 30
0.0
 11
620.80797616622715
 21
1046.862332160872
 31
0.0
  0
LINE
  5
5DBB
  8
0
 10
647.80797616622795
 20
1044.362332160872
 30
0.0
 11
620.80797616622715
 21
1044.362332160872
 31
0.0
  0
LINE
  5
5DBC
  8
0
 10
650.30797616622704
 20
959.76233216087235
 30
0.0
 11
647.80797616622795
 21
959.76233216087235
 31
0.0
  0
LINE
  5
5DBD
  8
0
 10
620.80797616622715
 20
1046.862332160872
 30
0.0
 11
620.80797616622715
 21
1044.362332160872
 31
0.0
  0
LINE
  5
5DBE
  8
0
 10
634.80797616622704
 20
1051.862332160872
 30
0.0
 11
634.80797616622704
 21
1039.362332160872
 31
0.0
  0
LINE
  5
5DBF
  8
0
 10
2133.7479761662239
 20
1033.2123321608719
 30
0.0
 11
2133.7479761662271
 21
635.11233216087226
 31
0.0
  0
LINE
  5
5DC0
  8
0
 10
679.75797616622594
 20
1033.2123321608719
 30
0.0
 11
679.75797616622594
 21
635.11233216087226
 31
0.0
  0
LINE
  5
5DC1
  8
0
 10
2133.7479761662271
 20
635.11233216087226
 30
0.0
 11
679.75797616622594
 21
635.11233216087226
 31
0.0
  0
LINE
  5
5DC2
  8
0
 10
2133.7479761662239
 20
1033.2123321608719
 30
0.0
 11
679.75797616622594
 21
1033.2123321608719
 31
0.0
  0
LINE
  5
5DC3
  8
0
 10
2131.7979761662268
 20
641.06233216087207
 30
0.0
 11
685.70797616622679
 21
641.06233216087207
 31
0.0
  0
LINE
  5
5DC4
  8
0
 10
2131.7979761662268
 20
903.05533216087235
 30
0.0
 11
685.70797616622679
 21
903.05533216087235
 31
0.0
  0
LINE
  5
5DC5
  8
0
 10
685.70797616622679
 20
903.05533216087235
 30
0.0
 11
685.70797616622679
 21
641.06233216087207
 31
0.0
  0
LINE
  5
5DC6
  8
0
 10
2131.7979761662268
 20
903.05533216087235
 30
0.0
 11
2131.7979761662268
 21
641.06233216087207
 31
0.0
  0
LINE
  5
5DC7
  8
0
 10
2220.557976166227
 20
639.88733216087212
 30
0.0
 11
2133.7479761662271
 21
639.88733216087212
 31
0.0
  0
LINE
  5
5DC8
  8
0
 10
2220.557976166227
 20
1028.477332160872
 30
0.0
 11
2136.2479761662271
 21
1028.477332160872
 31
0.0
  0
LINE
  5
5DCA
  8
0
 10
2213.1079761662272
 20
1044.162332160872
 30
0.0
 11
2213.1079761662272
 21
1028.477332160872
 31
0.0
  0
LINE
  5
5DCB
  8
0
 10
683.75797616622594
 20
1046.862332160872
 30
0.0
 11
683.75797616622594
 21
959.76233216087235
 31
0.0
  0
LINE
  5
5DD3
  8
0
 10
2133.7479761662239
 20
1046.862332160872
 30
0.0
 11
2133.7479761662239
 21
959.76233216087235
 31
0.0
  0
LINE
  5
5DD4
  8
0
 10
2136.2479761662271
 20
1044.362332160872
 30
0.0
 11
2136.2479761662271
 21
959.76233216087223
 31
0.0
  0
LINE
  5
5DD5
  8
0
 10
2133.7479761662239
 20
1046.862332160872
 30
0.0
 11
2163.2479761662271
 21
1046.862332160872
 31
0.0
  0
LINE
  5
5DD6
  8
0
 10
2136.2479761662271
 20
1044.362332160872
 30
0.0
 11
2163.2479761662271
 21
1044.362332160872
 31
0.0
  0
LINE
  5
5DD7
  8
0
 10
2163.2479761662271
 20
1046.862332160872
 30
0.0
 11
2163.2479761662271
 21
1044.362332160872
 31
0.0
  0
LINE
  5
5DD8
  8
0
 10
2133.7479761662239
 20
959.76233216087235
 30
0.0
 11
2136.2479761662271
 21
959.76233216087223
 31
0.0
  0
LINE
  5
5DD9
  8
0
 10
2149.2479761662271
 20
1051.862332160872
 30
0.0
 11
2149.2479761662271
 21
1039.362332160872
 31
0.0
  0
LINE
  5
5DDA
  8
0
 10
2133.7479761662239
 20
1044.162332160872
 30
0.0
 11
650.30797616622704
 21
1044.162332160872
 31
0.0
  0
LINE
  5
5DE8
  8
0
  6
HIDDEN
 62
     7
 10
2133.7479761662239
 20
958.76233216087041
 30
0.0
 11
2133.7479761662239
 21
1006.26233216087
 31
0.0
  0
LINE
  5
5DF7
  8
0
  6
HIDDEN
 62
     7
 10
650.30797616622704
 20
958.76233216087007
 30
0.0
 11
650.30797616622704
 21
1006.26233216087
 31
0.0
  0
LINE
  5
5E06
  8
0
  6
HIDDEN
 62
     7
 10
683.75797616622594
 20
958.76233216087041
 30
0.0
 11
683.75797616622594
 21
1006.26233216087
 31
0.0
  0
TEXT
  5
5E17
  8
0
 10
1302.591953347777
 20
758.7444947434517
 30
0.0
 40
37.5
  1
ISD235KY
  7
TITLE3
  0
LINE
  5
5E18
  8
0
 62
     7
 10
630.3579761662271
 20
604.1623321608721
 30
0.0
 11
630.3579761662271
 21
516.25069834741305
 31
0.0
  0
LINE
  5
5E19
  8
0
 62
     7
 10
660.35797616622699
 20
536.25069834741316
 30
0.0
 11
1283.5538218253671
 21
536.25069834741328
 31
0.0
  0
SOLID
  5
5E1A
  8
0
 62
     7
 10
660.35797616622699
 20
541.25069834741305
 30
0.0
 11
660.35797616622699
 21
531.25069834741305
 31
0.0
 12
630.3579761662271
 22
536.25069834741316
 32
0.0
 13
630.3579761662271
 23
536.25069834741316
 33
0.0
  0
LINE
  5
5E1B
  8
0
 62
     7
 10
2262.3579761662281
 20
604.1623321608721
 30
0.0
 11
2262.3579761662281
 21
516.25069834741305
 31
0.0
  0
LINE
  5
5E1C
  8
0
 62
     7
 10
2232.3579761662272
 20
536.25069834741316
 30
0.0
 11
1462.7204884920341
 21
536.25069834741328
 31
0.0
  0
SOLID
  5
5E1D
  8
0
 62
     7
 10
2232.3579761662272
 20
541.25069834741305
 30
0.0
 11
2232.3579761662272
 21
531.25069834741305
 31
0.0
 12
2262.3579761662281
 22
536.25069834741316
 32
0.0
 13
2262.3579761662281
 23
536.25069834741316
 33
0.0
  0
TEXT
  5
5E1E
  8
0
 62
     7
 10
1289.8046457710559
 20
523.75069834741225
 30
0.0
 40
25.0
  1
1632 O/A
  0
LINE
  5
5E33
  8
0
 10
2220.557976166227
 20
1028.477332160872
 30
0.0
 11
2220.557976166227
 21
639.88733216087212
 31
0.0
  0
LINE
  5
5E36
  8
0
 10
2233.057976166227
 20
649.16233216087176
 30
0.0
 11
2220.5579761662279
 21
649.16233216087176
 31
0.0
  0
LINE
  5
5E37
  8
0
 10
2213.1079761662249
 20
1046.862332160872
 30
0.0
 11
2213.1079761662249
 21
1028.477332160872
 31
0.0
  0
LINE
  5
5E38
  8
0
 10
2215.6079761662272
 20
1044.362332160872
 30
0.0
 11
2215.6079761662272
 21
1028.477332160872
 31
0.0
  0
LINE
  5
5E3A
  8
0
  6
HIDDEN
 62
     7
 10
2213.1079761662249
 20
958.76233216087041
 30
0.0
 11
2213.1079761662249
 21
1006.26233216087
 31
0.0
  0
LINE
  5
5F0B
  8
0
 62
     7
 10
603.30797616622556
 20
956.26233216087019
 30
0.0
 11
603.30797616622556
 21
1219.9668517125181
 31
0.0
  0
LINE
  5
5F0C
  8
0
 62
     7
 10
633.30797616622544
 20
1199.966851712519
 30
0.0
 11
1094.6487587940489
 21
1199.966851712519
 31
0.0
  0
SOLID
  5
5F0D
  8
0
 62
     7
 10
633.30797616622544
 20
1204.9668517125181
 30
0.0
 11
633.30797616622544
 21
1194.9668517125181
 31
0.0
 12
603.30797616622556
 22
1199.966851712519
 32
0.0
 13
603.30797616622556
 23
1199.966851712519
 33
0.0
  0
LINE
  5
5F0E
  8
0
 62
     7
 10
2260.1079761662259
 20
956.26233216087019
 30
0.0
 11
2260.1079761662259
 21
1219.9668517125181
 31
0.0
  0
LINE
  5
5F0F
  8
0
 62
     7
 10
2230.1079761662249
 20
1199.966851712519
 30
0.0
 11
1838.642334803073
 21
1199.9668517125201
 31
0.0
  0
SOLID
  5
5F10
  8
0
 62
     7
 10
2230.1079761662249
 20
1204.9668517125181
 30
0.0
 11
2230.1079761662249
 21
1194.9668517125181
 31
0.0
 12
2260.1079761662259
 22
1199.966851712519
 32
0.0
 13
2260.1079761662259
 23
1199.966851712519
 33
0.0
  0
TEXT
  5
5F11
  8
0
 62
     7
 10
1100.899582739738
 20
1187.4668517125181
 30
0.0
 40
25.0
  1
1656 (SPRING MTG CTRS - OPTION)
  0
LINE
  5
5F12
  8
0
 62
     7
 10
636.75797616622515
 20
956.26233216086951
 30
0.0
 11
636.75797616622515
 21
1160.815077715861
 31
0.0
  0
LINE
  5
5F13
  8
0
 62
     7
 10
666.75797616622492
 20
1140.8150777158619
 30
0.0
 11
1030.416939120706
 21
1140.8150777158619
 31
0.0
  0
SOLID
  5
5F14
  8
0
 62
     7
 10
666.75797616622492
 20
1145.815077715861
 30
0.0
 11
666.75797616622492
 21
1135.815077715861
 31
0.0
 12
636.75797616622515
 22
1140.8150777158619
 32
0.0
 13
636.75797616622515
 23
1140.8150777158619
 33
0.0
  0
TEXT
  5
5F15
  8
0
 62
     7
 10
1036.667763066396
 20
1128.315077715861
 30
0.0
 40
25.0
  1
1544 (SPRING MTG CTRS - OPTION)
  0
LINE
  5
5F16
  8
0
 62
     7
 10
2180.7479761662248
 20
956.26233216086905
 30
0.0
 11
2180.7479761662248
 21
1160.8150777158601
 31
0.0
  0
LINE
  5
5F17
  8
0
 62
     7
 10
2150.7479761662271
 20
1140.8150777158619
 30
0.0
 11
1778.577181796398
 21
1140.8150777158619
 31
0.0
  0
SOLID
  5
5F18
  8
0
 62
     7
 10
2150.7479761662271
 20
1145.8150777158601
 30
0.0
 11
2150.7479761662271
 21
1135.8150777158601
 31
0.0
 12
2180.7479761662248
 22
1140.8150777158619
 32
0.0
 13
2180.7479761662248
 23
1140.8150777158619
 33
0.0
  0
ARC
  5
5F1C
  8
0
  6
HIDDEN
 62
     7
 10
627.80797616622669
 20
958.76233216087007
 30
0.0
 40
22.5
 50
270.0
 51
0.000000000000007
  0
ARC
  5
5F1D
  8
0
  6
HIDDEN
 62
     7
 10
627.80797616622669
 20
958.76233216087007
 30
0.0
 40
10.0
 50
270.0
 51
0.000000000000007
  0
LINE
  5
5F1E
  8
0
  6
HIDDEN
 62
     7
 10
627.80797616622669
 20
948.76233216087007
 30
0.0
 11
585.30797616622556
 21
948.76233216087007
 31
0.0
  0
LINE
  5
5F1F
  8
0
  6
HIDDEN
 62
     7
 10
620.80797616622715
 20
929.26233216087201
 30
0.0
 11
585.80797616622658
 21
929.26233216087201
 31
0.0
  0
LINE
  5
5F20
  8
0
  6
HIDDEN
 62
     7
 10
627.80797616622669
 20
936.26233216087212
 30
0.0
 11
585.30797616622556
 21
936.26233216087212
 31
0.0
  0
LINE
  5
5F21
  8
0
  6
HIDDEN
 62
     7
 10
585.30797616622556
 20
936.26233216087212
 30
0.0
 11
585.30797616622556
 21
948.76233216087007
 31
0.0
  0
LINE
  5
5F22
  8
0
  6
HIDDEN
 62
     7
 10
585.80797616622658
 20
929.26233216087007
 30
0.0
 11
585.80797616622658
 21
932.26233216087201
 31
0.0
  0
ARC
  5
5F23
  8
0
  6
HIDDEN
 62
     7
 10
589.80797616622658
 20
932.26233216087201
 30
0.0
 40
4.0
 50
90.0
 51
180.0
  0
LINE
  5
5F24
  8
0
  6
HIDDEN
 62
     7
 10
603.30797616622556
 20
929.26233216087201
 30
0.0
 11
603.30797616622556
 21
938.93453320645767
 31
0.0
  0
LINE
  5
5F25
  8
0
  6
HIDDEN
 62
     7
 10
620.80797616622715
 20
929.26233216087007
 30
0.0
 11
620.80797616622715
 21
932.26233216087201
 31
0.0
  0
ARC
  5
5F26
  8
0
  6
HIDDEN
 62
     7
 10
616.80797616622669
 20
932.26233216087201
 30
0.0
 40
4.0
 50
0.000000000000007
 51
90.0
  0
LINE
  5
5F27
  8
0
  6
HIDDEN
 62
     7
 10
650.30797616622704
 20
1006.26233216087
 30
0.0
 11
637.80797616622715
 21
1006.26233216087
 31
0.0
  0
LINE
  5
5F28
  8
0
  6
HIDDEN
 62
     7
 10
637.80797616622715
 20
958.76233216087007
 30
0.0
 11
637.80797616622715
 21
1006.26233216087
 31
0.0
  0
LINE
  5
5F29
  8
0
  6
HIDDEN
 62
     7
 10
650.30797616622704
 20
958.76233216087007
 30
0.0
 11
650.30797616622704
 21
1006.26233216087
 31
0.0
  0
POINT
  5
5F2A
  8
0
  6
HIDDEN
 62
     7
 10
603.30797616622556
 20
936.26233216087212
 30
0.0
 50
0.000000000000007
  0
LINE
  5
5F2B
  8
0
 10
681.25797616622594
 20
1044.362332160872
 30
0.0
 11
681.25797616622594
 21
959.76233216087235
 31
0.0
  0
LINE
  5
5F2C
  8
0
 10
683.75797616622594
 20
1046.862332160872
 30
0.0
 11
654.25797616622617
 21
1046.862332160872
 31
0.0
  0
LINE
  5
5F2D
  8
0
 10
681.25797616622594
 20
1044.362332160872
 30
0.0
 11
654.25797616622617
 21
1044.362332160872
 31
0.0
  0
LINE
  5
5F2E
  8
0
 10
683.75797616622594
 20
959.76233216087235
 30
0.0
 11
681.25797616622594
 21
959.76233216087235
 31
0.0
  0
LINE
  5
5F2F
  8
0
 10
654.25797616622617
 20
1046.862332160872
 30
0.0
 11
654.25797616622617
 21
1044.362332160872
 31
0.0
  0
LINE
  5
5F30
  8
0
 10
668.25797616622606
 20
1051.862332160872
 30
0.0
 11
668.25797616622606
 21
1039.362332160872
 31
0.0
  0
LINE
  5
5F31
  8
0
  6
HIDDEN
 62
     7
 10
683.75797616622594
 20
958.76233216087007
 30
0.0
 11
683.75797616622594
 21
1006.26233216087
 31
0.0
  0
ARC
  5
5F32
  8
0
  6
HIDDEN
 62
     7
 10
661.25797616622606
 20
958.76233216087007
 30
0.0
 40
22.5
 50
270.0
 51
0.000000000000007
  0
ARC
  5
5F33
  8
0
  6
HIDDEN
 62
     7
 10
661.25797616622606
 20
958.76233216087007
 30
0.0
 40
10.0
 50
270.0
 51
0.000000000000007
  0
LINE
  5
5F34
  8
0
  6
HIDDEN
 62
     7
 10
661.25797616622606
 20
948.76233216087007
 30
0.0
 11
618.75797616622572
 21
948.76233216087007
 31
0.0
  0
LINE
  5
5F35
  8
0
  6
HIDDEN
 62
     7
 10
654.25797616622617
 20
929.26233216087201
 30
0.0
 11
619.25797616622594
 21
929.26233216087201
 31
0.0
  0
LINE
  5
5F36
  8
0
  6
HIDDEN
 62
     7
 10
661.25797616622606
 20
936.26233216087212
 30
0.0
 11
618.75797616622572
 21
936.26233216087212
 31
0.0
  0
LINE
  5
5F37
  8
0
  6
HIDDEN
 62
     7
 10
618.75797616622572
 20
936.26233216087212
 30
0.0
 11
618.75797616622572
 21
948.76233216087007
 31
0.0
  0
LINE
  5
5F38
  8
0
  6
HIDDEN
 62
     7
 10
619.25797616622594
 20
929.26233216087007
 30
0.0
 11
619.25797616622594
 21
932.26233216087201
 31
0.0
  0
ARC
  5
5F39
  8
0
  6
HIDDEN
 62
     7
 10
623.25797616622594
 20
932.26233216087201
 30
0.0
 40
4.0
 50
90.0
 51
180.0
  0
LINE
  5
5F3A
  8
0
  6
HIDDEN
 62
     7
 10
636.75797616622515
 20
929.26233216087201
 30
0.0
 11
636.75797616622515
 21
938.93453320645767
 31
0.0
  0
LINE
  5
5F3B
  8
0
  6
HIDDEN
 62
     7
 10
654.25797616622617
 20
929.26233216087007
 30
0.0
 11
654.25797616622617
 21
932.26233216087201
 31
0.0
  0
ARC
  5
5F3C
  8
0
  6
HIDDEN
 62
     7
 10
650.25797616622617
 20
932.26233216087201
 30
0.0
 40
4.0
 50
0.000000000000007
 51
90.0
  0
LINE
  5
5F3D
  8
0
  6
HIDDEN
 62
     7
 10
683.75797616622594
 20
1006.26233216087
 30
0.0
 11
671.25797616622617
 21
1006.26233216087
 31
0.0
  0
LINE
  5
5F3E
  8
0
  6
HIDDEN
 62
     7
 10
671.25797616622617
 20
958.76233216087007
 30
0.0
 11
671.25797616622617
 21
1006.26233216087
 31
0.0
  0
LINE
  5
5F3F
  8
0
  6
HIDDEN
 62
     7
 10
683.75797616622594
 20
958.76233216087007
 30
0.0
 11
683.75797616622594
 21
1006.26233216087
 31
0.0
  0
POINT
  5
5F40
  8
0
  6
HIDDEN
 62
     7
 10
636.75797616622515
 20
936.26233216087212
 30
0.0
 50
0.000000000000007
  0
LINE
  5
5F41
  8
0
  6
HIDDEN
 62
     7
 10
2213.1079761662249
 20
958.76233216087041
 30
0.0
 11
2213.1079761662249
 21
1006.26233216087
 31
0.0
  0
LINE
  5
5F42
  8
0
  6
HIDDEN
 62
     7
 10
2213.1079761662249
 20
958.76233216087007
 30
0.0
 11
2213.1079761662249
 21
1006.26233216087
 31
0.0
  0
ARC
  5
5F43
  8
0
  6
HIDDEN
 62
     7
 10
2235.6079761662249
 20
958.76233216087007
 30
0.0
 40
22.5
 50
180.0
 51
270.0
  0
ARC
  5
5F44
  8
0
  6
HIDDEN
 62
     7
 10
2235.6079761662249
 20
958.76233216087007
 30
0.0
 40
10.0
 50
180.0
 51
270.0
  0
LINE
  5
5F45
  8
0
  6
HIDDEN
 62
     7
 10
2235.6079761662249
 20
948.76233216087007
 30
0.0
 11
2278.1079761662249
 21
948.76233216087007
 31
0.0
  0
LINE
  5
5F46
  8
0
  6
HIDDEN
 62
     7
 10
2242.607976166224
 20
929.26233216087201
 30
0.0
 11
2277.6079761662249
 21
929.26233216087201
 31
0.0
  0
LINE
  5
5F47
  8
0
  6
HIDDEN
 62
     7
 10
2235.6079761662249
 20
936.26233216087212
 30
0.0
 11
2278.1079761662249
 21
936.26233216087212
 31
0.0
  0
LINE
  5
5F48
  8
0
  6
HIDDEN
 62
     7
 10
2278.1079761662249
 20
936.26233216087212
 30
0.0
 11
2278.1079761662249
 21
948.76233216087007
 31
0.0
  0
LINE
  5
5F49
  8
0
  6
HIDDEN
 62
     7
 10
2277.6079761662249
 20
929.26233216087007
 30
0.0
 11
2277.6079761662249
 21
932.26233216087201
 31
0.0
  0
ARC
  5
5F4A
  8
0
  6
HIDDEN
 62
     7
 10
2273.6079761662249
 20
932.26233216087201
 30
0.0
 40
4.0
 50
0.000000000000007
 51
90.0
  0
LINE
  5
5F4B
  8
0
  6
HIDDEN
 62
     7
 10
2260.1079761662259
 20
929.26233216087201
 30
0.0
 11
2260.1079761662259
 21
938.93453320645767
 31
0.0
  0
LINE
  5
5F4C
  8
0
  6
HIDDEN
 62
     7
 10
2242.607976166224
 20
929.26233216087007
 30
0.0
 11
2242.607976166224
 21
932.26233216087201
 31
0.0
  0
ARC
  5
5F4D
  8
0
  6
HIDDEN
 62
     7
 10
2246.6079761662249
 20
932.26233216087201
 30
0.0
 40
4.0
 50
90.0
 51
180.0
  0
LINE
  5
5F4E
  8
0
  6
HIDDEN
 62
     7
 10
2213.1079761662249
 20
1006.26233216087
 30
0.0
 11
2225.6079761662249
 21
1006.26233216087
 31
0.0
  0
LINE
  5
5F4F
  8
0
  6
HIDDEN
 62
     7
 10
2225.6079761662249
 20
958.76233216087007
 30
0.0
 11
2225.6079761662249
 21
1006.26233216087
 31
0.0
  0
LINE
  5
5F50
  8
0
  6
HIDDEN
 62
     7
 10
2213.1079761662249
 20
958.76233216087007
 30
0.0
 11
2213.1079761662249
 21
1006.26233216087
 31
0.0
  0
POINT
  5
5F51
  8
0
  6
HIDDEN
 62
     7
 10
2260.1079761662259
 20
936.26233216087212
 30
0.0
 50
180.0
  0
LINE
  5
5F52
  8
0
  6
HIDDEN
 62
     7
 10
2133.7479761662239
 20
958.76233216086916
 30
0.0
 11
2133.7479761662239
 21
1006.2623321608691
 31
0.0
  0
LINE
  5
5F53
  8
0
  6
HIDDEN
 62
     7
 10
2133.7479761662239
 20
958.76233216086871
 30
0.0
 11
2133.7479761662239
 21
1006.2623321608691
 31
0.0
  0
ARC
  5
5F54
  8
0
  6
HIDDEN
 62
     7
 10
2156.2479761662248
 20
958.76233216086916
 30
0.0
 40
22.5
 50
180.0
 51
270.0
  0
ARC
  5
5F55
  8
0
  6
HIDDEN
 62
     7
 10
2156.2479761662248
 20
958.76233216086916
 30
0.0
 40
10.0
 50
180.0
 51
270.0
  0
LINE
  5
5F56
  8
0
  6
HIDDEN
 62
     7
 10
2156.2479761662248
 20
948.76233216086916
 30
0.0
 11
2198.7479761662271
 21
948.76233216086916
 31
0.0
  0
LINE
  5
5F57
  8
0
  6
HIDDEN
 62
     7
 10
2163.2479761662239
 20
929.26233216087132
 30
0.0
 11
2198.2479761662248
 21
929.26233216087132
 31
0.0
  0
LINE
  5
5F58
  8
0
  6
HIDDEN
 62
     7
 10
2156.2479761662248
 20
936.26233216087076
 30
0.0
 11
2198.7479761662271
 21
936.26233216087076
 31
0.0
  0
LINE
  5
5F59
  8
0
  6
HIDDEN
 62
     7
 10
2198.7479761662271
 20
936.26233216087076
 30
0.0
 11
2198.7479761662271
 21
948.76233216086916
 31
0.0
  0
LINE
  5
5F5A
  8
0
  6
HIDDEN
 62
     7
 10
2198.2479761662248
 20
929.26233216086916
 30
0.0
 11
2198.2479761662248
 21
932.26233216087132
 31
0.0
  0
ARC
  5
5F5B
  8
0
  6
HIDDEN
 62
     7
 10
2194.2479761662248
 20
932.26233216087132
 30
0.0
 40
4.0
 50
0.000000000000007
 51
90.0
  0
LINE
  5
5F5C
  8
0
  6
HIDDEN
 62
     7
 10
2180.7479761662248
 20
929.26233216087132
 30
0.0
 11
2180.7479761662248
 21
938.93453320645676
 31
0.0
  0
LINE
  5
5F5D
  8
0
  6
HIDDEN
 62
     7
 10
2163.2479761662239
 20
929.26233216086916
 30
0.0
 11
2163.2479761662239
 21
932.26233216087132
 31
0.0
  0
ARC
  5
5F5E
  8
0
  6
HIDDEN
 62
     7
 10
2167.2479761662239
 20
932.26233216087132
 30
0.0
 40
4.0
 50
90.0
 51
180.0
  0
LINE
  5
5F5F
  8
0
  6
HIDDEN
 62
     7
 10
2133.7479761662239
 20
1006.2623321608691
 30
0.0
 11
2146.2479761662239
 21
1006.2623321608691
 31
0.0
  0
LINE
  5
5F60
  8
0
  6
HIDDEN
 62
     7
 10
2146.2479761662239
 20
958.76233216086916
 30
0.0
 11
2146.2479761662239
 21
1006.2623321608691
 31
0.0
  0
LINE
  5
5F61
  8
0
  6
HIDDEN
 62
     7
 10
2133.7479761662239
 20
958.76233216086916
 30
0.0
 11
2133.7479761662239
 21
1006.2623321608691
 31
0.0
  0
POINT
  5
5F62
  8
0
  6
HIDDEN
 62
     7
 10
2180.7479761662248
 20
936.26233216087076
 30
0.0
 50
180.0
  0
LINE
  5
5F70
  8
0
 62
     7
 10
668.25797616622606
 20
1695.938199152077
 30
0.0
 11
668.25797616622606
 21
1517.653822581141
 31
0.0
  0
LINE
  5
600F
  8
0
 10
650.30797616622704
 20
2343.1501991520772
 30
0.0
 11
2213.1079761662272
 21
2343.1501991520772
 31
0.0
  0
LINE
  5
62BB
  8
0
 10
2213.1079761662272
 20
639.88733216087212
 30
0.0
 11
2213.1079761662272
 21
624.16233216087176
 31
0.0
  0
CIRCLE
  5
635E
  8
0
 10
3475.4086195327918
 20
722.04233216087164
 30
0.0
 40
21.0
  0
CIRCLE
  5
6363
  8
0
 10
3475.4086195327918
 20
776.04233216087164
 30
0.0
 40
12.699999999999999
  0
LINE
  5
6368
  8
0
 10
2248.3579761662272
 20
783.39233216087155
 30
0.0
 11
2248.3579761662272
 21
768.69233216087162
 31
0.0
  0
LINE
  5
636A
  8
0
 10
2213.1079761662272
 20
2336.9801991520771
 30
0.0
 11
2245.057976166227
 21
2336.9801991520771
 31
0.0
  0
LINE
  5
636B
  8
0
 10
2245.057976166227
 20
2335.9801991520771
 30
0.0
 11
2261.057976166227
 21
2335.9801991520771
 31
0.0
  0
LINE
  5
636C
  8
0
 10
2242.6079761662272
 20
2358.9801991520758
 30
0.0
 11
2245.057976166227
 21
2358.9801991520771
 31
0.0
  0
LINE
  5
636D
  8
0
 10
2245.057976166227
 20
2359.9801991520771
 30
0.0
 11
2261.057976166227
 21
2359.9801991520771
 31
0.0
  0
LINE
  5
636E
  8
0
 10
2261.057976166227
 20
2359.9801991520771
 30
0.0
 11
2261.057976166227
 21
2335.9801991520771
 31
0.0
  0
LINE
  5
636F
  8
0
 10
2245.057976166227
 20
2359.9801991520771
 30
0.0
 11
2245.057976166227
 21
2335.9801991520771
 31
0.0
  0
LINE
  5
6371
  8
0
 10
2213.1079761662272
 20
2341.6301991520759
 30
0.0
 11
2248.3579761662272
 21
2341.6301991520781
 31
0.0
  0
LINE
  5
6372
  8
0
 10
2248.3579761662272
 20
2340.6301991520781
 30
0.0
 11
2261.057976166227
 21
2340.6301991520781
 31
0.0
  0
LINE
  5
6373
  8
0
 10
2213.1079761662272
 20
2354.3301991520761
 30
0.0
 11
2248.3579761662272
 21
2354.3301991520771
 31
0.0
  0
LINE
  5
6374
  8
0
 10
2248.3579761662272
 20
2355.3301991520771
 30
0.0
 11
2261.057976166227
 21
2355.3301991520771
 31
0.0
  0
LINE
  5
6375
  8
0
 10
2261.057976166227
 20
2355.3301991520771
 30
0.0
 11
2261.057976166227
 21
2340.6301991520781
 31
0.0
  0
LINE
  5
6376
  8
0
 10
2248.3579761662272
 20
2355.3301991520771
 30
0.0
 11
2248.3579761662272
 21
2340.6301991520781
 31
0.0
  0
LINE
  5
6377
  8
0
 10
2233.057976166227
 20
2336.9801991520771
 30
0.0
 11
2233.057976166227
 21
2160.7601991520769
 31
0.0
  0
LINE
  5
6923
  8
0
 10
860.70797616622588
 20
1697.488199152077
 30
0.0
 11
860.70797616622588
 21
1650.652199152076
 31
0.0
  0
LINE
  5
6926
  8
0
 10
1955.707976166226
 20
1697.488199152077
 30
0.0
 11
1955.707976166226
 21
1650.6521991520769
 31
0.0
  0
LINE
  5
6939
  8
0
 10
2132.1579761662269
 20
2434.6501991520772
 30
0.0
 11
2132.1579761662269
 21
2375.6501991520772
 31
0.0
  0
ENDSEC
  0
EOF
