  0
SECTION
  2
HEADER
  9
$ACADVER
  1
AC1009
  9
$INSBASE
 10
0.0
 20
0.0
 30
0.0
  9
$EXTMIN
 10
1671.499909257496
 20
0.0
 30
0.0
  9
$EXTMAX
 10
5835.0
 20
4098.3245276957496
 30
0.0
  9
$LIMMIN
 10
0.0
 20
0.0
  9
$LIMMAX
 10
7780.0
 20
5320.0
  9
$ORTHOMODE
 70
     0
  9
$REGENMODE
 70
     1
  9
$FILLMODE
 70
     1
  9
$QTEXTMODE
 70
     0
  9
$MIRRTEXT
 70
     0
  9
$DRAGMODE
 70
     2
  9
$LTSCALE
 40
100.0
  9
$OSMODE
 70
     0
  9
$ATTMODE
 70
     1
  9
$TEXTSIZE
 40
45.0
  9
$TRACEWID
 40
0.05
  9
$TEXTSTYLE
  7
TITLE3
  9
$CLAYER
  8
OUTLINE
  9
$CELTYPE
  6
BYLAYER
  9
$CECOLOR
 62
     3
  9
$DIMSCALE
 40
1.0
  9
$DIMASZ
 40
0.12
  9
$DIMEXO
 40
0.05
  9
$DIMDLI
 40
0.5
  9
$DIMRND
 40
0.0
  9
$DIMDLE
 40
0.0
  9
$DIMEXE
 40
0.1
  9
$DIMTP
 40
0.1
  9
$DIMTM
 40
0.1
  9
$DIMTXT
 40
0.12
  9
$DIMCEN
 40
0.0
  9
$DIMTSZ
 40
0.0
  9
$DIMTOL
 70
     0
  9
$DIMLIM
 70
     0
  9
$DIMTIH
 70
     1
  9
$DIMTOH
 70
     1
  9
$DIMSE1
 70
     0
  9
$DIMSE2
 70
     0
  9
$DIMTAD
 70
     0
  9
$DIMZIN
 70
     7
  9
$DIMBLK
  1

  9
$DIMASO
 70
     0
  9
$DIMSHO
 70
     0
  9
$DIMPOST
  1

  9
$DIMAPOST
  1
mm
  9
$DIMALT
 70
     0
  9
$DIMALTD
 70
     2
  9
$DIMALTF
 40
25.399999999999999
  9
$DIMLFAC
 40
1.0
  9
$DIMTOFL
 70
     0
  9
$DIMTVP
 40
0.0
  9
$DIMTIX
 70
     0
  9
$DIMSOXD
 70
     0
  9
$DIMSAH
 70
     0
  9
$DIMBLK1
  1

  9
$DIMBLK2
  1

  9
$DIMSTYLE
  2
AM_ANSI
  9
$DIMCLRD
 70
   256
  9
$DIMCLRE
 70
   256
  9
$DIMCLRT
 70
     2
  9
$DIMTFAC
 40
0.71
  9
$DIMGAP
 40
0.06
  9
$LUNITS
 70
     2
  9
$LUPREC
 70
     2
  9
$SKETCHINC
 40
0.1
  9
$FILLETRAD
 40
0.0
  9
$AUNITS
 70
     0
  9
$AUPREC
 70
     2
  9
$MENU
  1
\acad12\support\cnc
  9
$ELEVATION
 40
0.0
  9
$PELEVATION
 40
0.0
  9
$THICKNESS
 40
0.0
  9
$LIMCHECK
 70
     0
  9
$BLIPMODE
 70
     0
  9
$CHAMFERA
 40
0.0
  9
$CHAMFERB
 40
0.0
  9
$SKPOLY
 70
     0
  9
$TDCREATE
 40
2451402.5558215282
  9
$TDUPDATE
 40
2454699.5735901729
  9
$TDINDWG
 40
0.1469518866
  9
$TDUSRTIMER
 40
0.1469500694
  9
$USRTIMER
 70
     1
  9
$ANGBASE
 50
0.0
  9
$ANGDIR
 70
     0
  9
$PDMODE
 70
     2
  9
$PDSIZE
 40
15.0
  9
$PLINEWID
 40
0.0
  9
$COORDS
 70
     1
  9
$SPLFRAME
 70
     0
  9
$SPLINETYPE
 70
     6
  9
$SPLINESEGS
 70
     8
  9
$ATTDIA
 70
     1
  9
$ATTREQ
 70
     1
  9
$HANDLING
 70
     1
  9
$HANDSEED
  5
11F1
  9
$SURFTAB1
 70
     6
  9
$SURFTAB2
 70
     6
  9
$SURFTYPE
 70
     6
  9
$SURFU
 70
     6
  9
$SURFV
 70
     6
  9
$UCSNAME
  2

  9
$UCSORG
 10
0.0
 20
0.0
 30
0.0
  9
$UCSXDIR
 10
1.0
 20
0.0
 30
0.0
  9
$UCSYDIR
 10
0.0
 20
1.0
 30
0.0
  9
$PUCSNAME
  2

  9
$PUCSORG
 10
0.0
 20
0.0
 30
0.0
  9
$PUCSXDIR
 10
1.0
 20
0.0
 30
0.0
  9
$PUCSYDIR
 10
0.0
 20
1.0
 30
0.0
  9
$USERI1
 70
     0
  9
$USERI2
 70
     0
  9
$USERI3
 70
     0
  9
$USERI4
 70
     0
  9
$USERI5
 70
     0
  9
$USERR1
 40
0.0
  9
$USERR2
 40
0.0
  9
$USERR3
 40
0.0
  9
$USERR4
 40
0.0
  9
$USERR5
 40
0.0
  9
$WORLDVIEW
 70
     1
  9
$SHADEDGE
 70
     3
  9
$SHADEDIF
 70
    70
  9
$TILEMODE
 70
     1
  9
$MAXACTVP
 70
    16
  9
$PLIMCHECK
 70
     0
  9
$PEXTMIN
 10
1.0000000000000000E+020
 20
1.0000000000000000E+020
 30
1.0000000000000000E+020
  9
$PEXTMAX
 10
-1.0000000000000000E+020
 20
-1.0000000000000000E+020
 30
-1.0000000000000000E+020
  9
$PLIMMIN
 10
0.0
 20
0.0
  9
$PLIMMAX
 10
12.0
 20
9.0
  9
$UNITMODE
 70
     0
  9
$VISRETAIN
 70
     0
  9
$PLINEGEN
 70
     0
  9
$PSLTSCALE
 70
     0
  0
ENDSEC
  0
SECTION
  2
TABLES
  0
TABLE
  2
VPORT
 70
     1
  0
VPORT
  2
*ACTIVE
 70
     0
 10
0.0
 20
0.0
 11
1.0
 21
1.0
 12
3774.1859641497508
 22
2075.1553215119311
 13
0.0
 23
0.0
 14
50.0
 24
50.0
 15
100.0
 25
100.0
 16
0.0
 26
0.0
 36
1.0
 17
0.0
 27
0.0
 37
0.0
 40
4191.3066208094751
 41
1.5308953341740219
 42
50.0
 43
0.0
 44
0.0
 50
0.0
 51
0.0
 71
     0
 72
   100
 73
     1
 74
     0
 75
     0
 76
     0
 77
     0
 78
     0
  0
ENDTAB
  0
TABLE
  2
LTYPE
 70
    17
  0
LTYPE
  2
CONTINUOUS
 70
     0
  3
Solid line
 72
    65
 73
     0
 40
0.0
  0
LTYPE
  2
PHANTOM
 70
     0
  3
______  __  __  ______  __  __  ______  __  __ 
 72
    65
 73
     6
 40
2.5
 49
1.25
 49
-0.25
 49
0.25
 49
-0.25
 49
0.25
 49
-0.25
  0
LTYPE
  2
HIDDEN
 70
     0
  3
Hidden __ __ __ __ __ __ __ __ __ __ __ __ __ _
 72
    65
 73
     2
 40
0.375
 49
0.25
 49
-0.125
  0
LTYPE
  2
PHANTOM2
 70
     0
  3
Phantom (.5x) ___ _ _ ___ _ _ ___ _ _ ___ _ _
 72
    65
 73
     6
 40
1.25
 49
0.625
 49
-0.125
 49
0.125
 49
-0.125
 49
0.125
 49
-0.125
  0
LTYPE
  2
CENTER
 70
     0
  3
Center ____ _ ____ _ ____ _ ____ _ ____ _ ____
 72
    65
 73
     4
 40
2.0
 49
1.25
 49
-0.25
 49
0.25
 49
-0.25
  0
LTYPE
  2
AM_ISO02W050
 70
     0
  3
__ __ __ __ __ __ __ __ __ __ __ __ __ __ __
 72
    65
 73
     2
 40
7.5
 49
6.0
 49
-1.5
  0
LTYPE
  2
AM_ISO08W050
 70
     0
  3
____ . ____ . ____ . ____ . ____ . ____ . ____
 72
    65
 73
     4
 40
18.0
 49
12.0
 49
-1.5
 49
3.0
 49
-1.5
  0
LTYPE
  2
AM_ISO09W050
 70
     0
  3
_____ . . _____ . . _____ . . ____ .. ____
 72
    65
 73
     6
 40
22.5
 49
12.0
 49
-1.5
 49
3.0
 49
-1.5
 49
3.0
 49
-1.5
  0
LTYPE
  2
AMCONSTR
 70
     0
  3
_______________________
 72
    65
 73
     2
 40
9999.0
 49
9999.0
 49
0.0
  0
LTYPE
  2
AM_ISO08W050X2
 70
     0
  3
__ . __ . __ . __ . __ . __
 72
    65
 73
     4
 40
9.0
 49
6.0
 49
-0.75
 49
1.5
 49
-0.75
  0
LTYPE
  2
AM_ISO02W050X2
 70
     0
  3
 _ _ _ _ _ _ _ _ _ _ _ _
 72
    65
 73
     2
 40
3.75
 49
3.0
 49
-0.75
  0
LTYPE
  2
AMZIGZAG
 70
     0
  3
/\/-/\/-/\/-/\/-/\/-/\/
 72
    65
 73
     2
 40
11.0001
 49
0.0001
 49
-11.0
  0
LTYPE
  2
CENTER2
 70
     0
  3
Center (.5x) ___ _ ___ _ ___ _ ___ _ ___ _ ___
 72
    65
 73
     4
 40
1.125
 49
0.75
 49
-0.125
 49
0.125
 49
-0.125
  0
LTYPE
  2
HIDDEN2
 70
     0
  3
Hidden (.5x) _ _ _ _ _ _ _ _ _ _ _ _ _ _ _ _ _
 72
    65
 73
     2
 40
0.1875
 49
0.125
 49
-0.0625
  0
LTYPE
  2
AMZIGZAG2
 70
     0
  3
/\/-/\/-/\/-/\/-/\/-/\/
 72
    65
 73
     2
 40
0.4401
 49
0.0001
 49
-0.4400000000000001
  0
LTYPE
  2
ACANSTGB
 70
     0
  3
__ . . __ . .
 72
    65
 73
     6
 40
0.35433070866
 49
0.15748031496
 49
-0.03937007874
 49
0.03937007874
 49
-0.03937007874
 49
0.03937007874
 49
-0.03937007874
  0
LTYPE
  2
ACANSTGL
 70
     0
  3
_ _ _ _ _
 72
    65
 73
     2
 40
0.11811023622
 49
0.07874015748
 49
-0.03937007874
  0
ENDTAB
  0
TABLE
  2
LAYER
 70
     7
  0
LAYER
  2
0
 70
     0
 62
     7
  6
CONTINUOUS
  0
LAYER
  2
OUTLINE
 70
     0
 62
     7
  6
CONTINUOUS
  0
LAYER
  2
TEXT
 70
     0
 62
     3
  6
CONTINUOUS
  0
LAYER
  2
DIM
 70
     0
 62
     2
  6
CONTINUOUS
  0
LAYER
  2
MTG-FEET
 70
     0
 62
    30
  6
CONTINUOUS
  0
LAYER
  2
OVERLAY-A3
 70
     0
 62
     7
  6
CONTINUOUS
  0
LAYER
  2
CLEAR
 70
     0
 62
     1
  6
PHANTOM
  0
ENDTAB
  0
TABLE
  2
STYLE
 70
     7
  0
STYLE
  2
STANDARD
 70
     0
 40
0.0
 41
1.0
 50
0.0
 71
     0
 42
0.2
  3
txt
  4

  0
STYLE
  2
TITLE3
 70
     0
 40
45.0
 41
1.0
 50
0.0
 71
     0
 42
45.0
  3
SIMPLEX
  4

  0
STYLE
  2
TITLE5
 70
     0
 40
75.0
 41
1.0
 50
0.0
 71
     0
 42
100.0
  3
SIMPLEX
  4

  0
STYLE
  2
SIMPLEX
 70
     0
 40
60.0
 41
1.0
 50
0.0
 71
     0
 42
60.0
  3
simplex
  4

  0
STYLE
  2

 70
     1
 40
0.0
 41
1.0
 50
0.0
 71
     0
 42
45.0
  3
genltshp.shx
  4

  0
STYLE
  2
ACANSTS
 70
     0
 40
1.0
 41
1.0
 50
0.0
 71
     0
 42
45.0
  3
romans.shx
  4

  0
STYLE
  2
ACANSGDT
 70
     0
 40
0.0
 41
1.0
 50
0.0
 71
     0
 42
45.0
  3
amgdt.shx
  4

  0
ENDTAB
  0
TABLE
  2
VIEW
 70
     0
  0
ENDTAB
  0
TABLE
  2
UCS
 70
     0
  0
ENDTAB
  0
TABLE
  2
APPID
 70
    10
  0
APPID
  2
ACAD
 70
     0
  0
APPID
  2
ACAD_PSEXT
 70
     0
  0
APPID
  2
ACAD_MLEADERVER
 70
     0
  0
APPID
  2
MCAD_NO_VIS
 70
     0
  0
APPID
  2
ACAD_TEMP_GRAPHIC
 70
     0
  0
APPID
  2
AD_DRAW
 70
     0
  0
APPID
  2
ACATTRIBSERVICES
 70
     0
  0
APPID
  2
DESIGNERASSEMBLIES
 70
     0
  0
APPID
  2
ACADM_DIM_EDIT
 70
     0
  0
APPID
  2
AMDT_DM_ADJ
 70
     0
  0
ENDTAB
  0
TABLE
  2
DIMSTYLE
 70
     7
  0
DIMSTYLE
  2
STANDARD
 70
     0
  3

  4

  5

  6

  7

 40
1.0
 41
0.18
 42
0.0625
 43
0.38
 44
0.18
 45
0.0
 46
0.0
 47
0.0
 48
0.0
140
0.18
141
0.09
142
0.0
143
25.399999999999999
144
1.0
145
0.0
146
1.0
147
0.09
 71
     0
 72
     0
 73
     1
 74
     1
 75
     0
 76
     0
 77
     0
 78
     0
170
     0
171
     2
172
     0
173
     0
174
     0
175
     0
176
     0
177
     0
178
     0
  0
DIMSTYLE
  2
AM_ANSI
 70
     0
  3

  4
mm
  5

  6

  7

 40
1.0
 41
0.12
 42
0.05
 43
0.5
 44
0.1
 45
0.0
 46
0.0
 47
0.1
 48
0.1
140
0.12
141
0.0
142
0.0
143
25.399999999999999
144
1.0
145
0.0
146
0.71
147
0.06
 71
     0
 72
     0
 73
     1
 74
     1
 75
     0
 76
     0
 77
     0
 78
     7
170
     0
171
     2
172
     0
173
     0
174
     0
175
     0
176
   256
177
   256
178
     2
  0
DIMSTYLE
  2
AM_ANSI$3
 70
     0
  3

  4
mm
  5

  6

  7

 40
1.0
 41
0.12
 42
0.05
 43
0.5
 44
0.1
 45
0.0
 46
0.0
 47
0.1
 48
0.1
140
0.12
141
0.0
142
0.0
143
25.399999999999999
144
1.0
145
0.0
146
0.71
147
0.06
 71
     0
 72
     0
 73
     1
 74
     1
 75
     0
 76
     0
 77
     0
 78
     7
170
     0
171
     2
172
     0
173
     0
174
     0
175
     0
176
   256
177
   256
178
     2
  0
DIMSTYLE
  2
AM_ANSI$4
 70
     0
  3

  4
mm
  5

  6

  7

 40
1.0
 41
0.12
 42
0.05
 43
0.5
 44
0.1
 45
0.0
 46
0.0
 47
0.1
 48
0.1
140
0.12
141
0.0
142
0.0
143
25.399999999999999
144
1.0
145
0.0
146
0.71
147
0.06
 71
     0
 72
     0
 73
     1
 74
     1
 75
     0
 76
     0
 77
     0
 78
     7
170
     0
171
     2
172
     0
173
     0
174
     0
175
     0
176
   256
177
   256
178
     2
  0
DIMSTYLE
  2
AM_ANSI$7
 70
     0
  3

  4
mm
  5

  6

  7

 40
1.0
 41
0.12
 42
0.05
 43
0.5
 44
0.1
 45
0.0
 46
0.0
 47
0.1
 48
0.1
140
0.12
141
0.0
142
0.0
143
25.399999999999999
144
1.0
145
0.0
146
0.71
147
0.06
 71
     0
 72
     0
 73
     1
 74
     1
 75
     0
 76
     0
 77
     0
 78
     7
170
     0
171
     2
172
     0
173
     0
174
     0
175
     0
176
   256
177
   256
178
     2
  0
DIMSTYLE
  2
AM_ANSI$SF
 70
     0
  3

  4
mm
  5

  6

  7

 40
1.0
 41
0.12
 42
0.05
 43
0.5
 44
0.1
 45
0.0
 46
0.0
 47
0.1
 48
0.1
140
0.12
141
0.0
142
0.0
143
25.399999999999999
144
1.0
145
0.0
146
0.71
147
0.06
 71
     0
 72
     0
 73
     1
 74
     1
 75
     1
 76
     1
 77
     0
 78
     7
170
     0
171
     2
172
     0
173
     0
174
     0
175
     0
176
   256
177
   256
178
     2
  0
DIMSTYLE
  2
AM_ANSI$SH
 70
     0
  3

  4
mm
  5

  6
GENAXEH
  7

 40
1.0
 41
0.12
 42
0.05
 43
0.5
 44
0.1
 45
0.0
 46
0.0
 47
0.1
 48
0.1
140
0.12
141
0.0
142
0.0
143
25.399999999999999
144
1.0
145
0.0
146
0.71
147
0.06
 71
     0
 72
     0
 73
     1
 74
     1
 75
     1
 76
     1
 77
     0
 78
     7
170
     0
171
     2
172
     0
173
     1
174
     0
175
     0
176
   256
177
   256
178
     2
  0
ENDTAB
  0
ENDSEC
  0
SECTION
  2
BLOCKS
  0
BLOCK
  8
0
  2
$MODEL_SPACE
 70
     0
 10
0.0
 20
0.0
 30
0.0
  3
$MODEL_SPACE
  1

  0
ENDBLK
  5
104F
  8
0
  0
BLOCK
 67
     1
  8
0
  2
$PAPER_SPACE
 70
     0
 10
0.0
 20
0.0
 30
0.0
  3
$PAPER_SPACE
  1

  0
ENDBLK
  5
104B
 67
     1
  8
0
  0
BLOCK
  8
0
  2
LINES
 70
     0
 10
0.0
 20
0.0
 30
0.0
  3
LINES
  1

  0
ENDBLK
  5
F67
  8
0
  0
BLOCK
  8
0
  2
NEW_BLOCK
 70
     0
 10
0.0
 20
0.0
 30
0.0
  3
NEW_BLOCK
  1

  0
TEXT
  5
F6A
  8
TEXT
 10
27.285946821803002
 20
25.27142175952417
 30
0.0
 40
40.0
  1
available on request
  7
TITLE3
  0
TEXT
  5
F6B
  8
TEXT
 10
27.285946821803002
 20
93.842850330952714
 30
0.0
 40
40.0
  1
Certified dimensions
  7
TITLE3
  0
TEXT
  5
F6C
  8
TEXT
 10
27.285946821803002
 20
162.4142789023812
 30
0.0
 40
40.0
  1
without notice or obligation.
  7
TITLE3
  0
TEXT
  5
F6D
  8
TEXT
 10
27.285946821803002
 20
230.9857074738097
 30
0.0
 40
40.0
  1
specifications at any time
  7
TITLE3
  0
TEXT
  5
F6E
  8
TEXT
 10
27.285946821803002
 20
299.55713604523839
 30
0.0
 40
40.0
  1
the right to change 
  7
TITLE3
  0
TEXT
  5
F6F
  8
TEXT
 10
27.285946821803002
 20
436.69999318809528
 30
0.0
 40
40.0
  1
NOTE
  7
TITLE3
  0
TEXT
  5
F70
  8
TEXT
 10
27.285946821803002
 20
368.12856461666678
 30
0.0
 40
40.0
  1
The manufacturer reserves
  7
TITLE3
  0
ENDBLK
  5
F71
  8
0
  0
BLOCK
  8
0
 62
     3
  2
GENAXEH
 70
     0
 10
0.0
 20
0.0
 30
0.0
  3
GENAXEH
  1

  0
LINE
  5
1187
  8
0
 10
-1.0
 20
0.0
 30
0.0
 11
1.0
 21
0.0
 31
0.0
  0
ENDBLK
  5
1189
  8
0
 62
     3
  0
ENDSEC
  0
SECTION
  2
ENTITIES
  0
LINE
  5
F72
  8
OUTLINE
 10
2511.8163831333231
 20
3323.7830840071042
 30
0.0
 11
2511.8163831333231
 21
3655.7830840071042
 31
0.0
  0
LINE
  5
F73
  8
OUTLINE
 10
2511.8163831333241
 20
247.66871024395141
 30
0.0
 11
3398.8163831333218
 21
247.66871024395141
 31
0.0
  0
LINE
  5
F74
  8
OUTLINE
 10
2511.8163831333241
 20
878.66871024395198
 30
0.0
 11
3398.8163831333218
 21
878.66871024395198
 31
0.0
  0
LINE
  5
F75
  8
OUTLINE
 10
2511.8163831333231
 20
3323.7830840071042
 30
0.0
 11
3398.8163831333218
 21
3323.7830840071042
 31
0.0
  0
LINE
  5
F76
  8
OUTLINE
 10
2511.8163831333241
 20
878.66871024395198
 30
0.0
 11
2511.8163831333241
 21
247.66871024395141
 31
0.0
  0
LINE
  5
F77
  8
OUTLINE
 10
2511.8163831333231
 20
3655.7830840071042
 30
0.0
 11
3398.8163831333218
 21
3655.7830840071042
 31
0.0
  0
TEXT
  5
F78
  8
DIM
 62
     3
 10
4436.7857142857138
 20
407.06288897435661
 30
0.0
 40
75.0
  1
temperzone OSA 55
  7
TITLE5
 72
     1
 11
5010.0
 21
407.06288897435661
 31
0.0
  0
TEXT
  5
F79
  8
DIM
 62
     3
 10
5167.207040051012
 20
106.9986799601034
 30
0.0
 40
40.499999999999993
  1
OSA55
 41
2.0714285714285721
  7
TITLE3
 72
     5
 11
5558.707040051012
 21
106.9986799601034
 31
0.0
  0
LINE
  5
F7B
  8
OUTLINE
 10
5243.1179798363764
 20
3323.7830840071042
 30
0.0
 11
5243.1179798363764
 21
3655.7830840071019
 31
0.0
  0
LINE
  5
F7C
  8
OUTLINE
 10
4604.1179798363728
 20
3323.7830840071042
 30
0.0
 11
4604.1179798363764
 21
3655.7830840071042
 31
0.0
  0
LINE
  5
F7D
  8
OUTLINE
 10
3398.8163831333209
 20
3323.7830840071042
 30
0.0
 11
3398.8163831333209
 21
3655.7830840071042
 31
0.0
  0
LINE
  5
F7F
  8
OUTLINE
 10
3398.8163831333218
 20
878.66871024395198
 30
0.0
 11
3398.8163831333218
 21
247.66871024395141
 31
0.0
  0
TEXT
  5
F80
  8
DIM
 10
3048.7999958811952
 20
3093.0563979725798
 30
0.0
 40
45.0
  1
FLOW
 50
90.0
  7
SIMPLEX
  0
TEXT
  5
F81
  8
DIM
 10
2930.1677144582791
 20
3087.3804287875728
 30
0.0
 40
45.0
  1
AIR
 50
90.0
  7
SIMPLEX
  0
LINE
  5
F82
  8
DIM
 10
2977.0362344988398
 20
3061.0391195220632
 30
0.0
 11
2977.0362344988398
 21
3122.7584108606488
 31
0.0
  0
LINE
  5
F83
  8
DIM
 10
3004.2570129078122
 20
3061.0391195220632
 30
0.0
 11
2977.0362344988398
 21
3061.0391195220632
 31
0.0
  0
LINE
  5
F84
  8
DIM
 10
2964.3754073318742
 20
3028.2804187346601
 30
0.0
 11
3004.2570129078122
 21
3061.0391195220632
 31
0.0
  0
LINE
  5
F85
  8
DIM
 10
2951.7145801649121
 20
3122.7584108606488
 30
0.0
 11
2977.0362344988398
 21
3122.7584108606488
 31
0.0
  0
LINE
  5
F86
  8
DIM
 10
2951.7145801649121
 20
3061.0391195220632
 30
0.0
 11
2951.7145801649121
 21
3122.7584108606488
 31
0.0
  0
LINE
  5
F87
  8
DIM
 10
2924.4938017559398
 20
3061.0391195220632
 30
0.0
 11
2951.7145801649121
 21
3061.0391195220632
 31
0.0
  0
LINE
  5
F88
  8
DIM
 10
2964.3754073318742
 20
3028.2804187346601
 30
0.0
 11
2924.4938017559398
 21
3061.0391195220632
 31
0.0
  0
LINE
  5
F89
  8
DIM
 10
3400.0163831333248
 20
908.66871024395186
 30
0.0
 11
3400.0163831333248
 21
1036.700158922335
 31
0.0
  0
LINE
  5
F8A
  8
DIM
 10
2510.6163831333229
 20
908.66871024395186
 30
0.0
 11
2510.6163831333229
 21
1036.700158922335
 31
0.0
  0
LINE
  5
F8B
  8
DIM
 10
3355.0163831333221
 20
1006.700158922335
 30
0.0
 11
3040.059881753974
 21
1006.700158922335
 31
0.0
  0
LINE
  5
F8C
  8
DIM
 10
2555.6163831333251
 20
1006.700158922335
 30
0.0
 11
2838.631310325401
 21
1006.700158922335
 31
0.0
  0
SOLID
  5
F8D
  8
DIM
 10
3355.0163831333221
 20
1014.200158922335
 30
0.0
 11
3355.0163831333221
 21
999.2001589223363
 31
0.0
 12
3400.0163831333248
 22
1006.700158922335
 32
0.0
 13
3400.0163831333248
 23
1006.700158922335
 33
0.0
  0
SOLID
  5
F8E
  8
DIM
 10
2555.6163831333251
 20
1014.200158922335
 30
0.0
 11
2555.6163831333251
 21
999.2001589223363
 31
0.0
 12
2510.6163831333229
 22
1006.700158922335
 32
0.0
 13
2510.6163831333229
 23
1006.700158922335
 33
0.0
  0
TEXT
  5
F8F
  8
DIM
 10
2881.488453182541
 20
984.20015892233505
 30
0.0
 40
45.0
  1
887
  7
TITLE3
 72
     1
 11
2939.3455960396841
 21
1006.700158922335
 31
0.0
 73
     2
  0
LINE
  5
F90
  8
DIM
 10
3430.016383133323
 20
878.66871024395198
 30
0.0
 11
3577.2449713890019
 21
878.66871024395198
 31
0.0
  0
LINE
  5
F91
  8
DIM
 10
3344.2672137193249
 20
214.66871024395161
 30
0.0
 11
3577.2449713890019
 21
214.66871024395161
 31
0.0
  0
LINE
  5
F92
  8
DIM
 10
3547.2449713890019
 20
833.66871024395232
 30
0.0
 11
3547.2449713890019
 21
662.06323828795655
 31
0.0
  0
LINE
  5
F93
  8
DIM
 10
3547.2449713890019
 20
259.66871024395158
 30
0.0
 11
3547.2449713890019
 21
464.24399200639488
 31
0.0
  0
SOLID
  5
F94
  8
DIM
 10
3539.7449713890019
 20
833.66871024395232
 30
0.0
 11
3554.7449713890019
 21
833.66871024395232
 31
0.0
 12
3547.2449713890019
 22
878.66871024395198
 32
0.0
 13
3547.2449713890019
 23
878.66871024395198
 33
0.0
  0
SOLID
  5
F95
  8
DIM
 10
3539.7449713890019
 20
259.66871024395158
 30
0.0
 11
3554.7449713890019
 21
259.66871024395158
 31
0.0
 12
3547.2449713890019
 22
214.66871024395161
 32
0.0
 13
3547.2449713890019
 23
214.66871024395161
 33
0.0
  0
TEXT
  5
F96
  8
DIM
 10
3569.7449713890019
 20
515.27752400224256
 30
0.0
 40
45.0
  1
664
 50
90.0
  7
TITLE3
 72
     4
 11
3547.2449713890019
 21
574.206095430814
 31
0.0
  0
LINE
  5
F97
  8
DIM
 10
2728.8155525473212
 20
199.8651136766984
 30
0.0
 11
2728.8155525473212
 21
72.243575496132522
 31
0.0
  0
LINE
  5
F99
  8
DIM
 10
2773.8155525473221
 20
102.24357549613239
 30
0.0
 11
2895.7155426780578
 21
102.24357549613239
 31
0.0
  0
LINE
  5
F9A
  8
DIM
 10
3183.817213719326
 20
102.24357549613239
 30
0.0
 11
3182.5806688476082
 21
102.24357549613239
 31
0.0
  0
SOLID
  5
F9B
  8
DIM
 10
2773.8155525473221
 20
109.74357549613239
 30
0.0
 11
2773.8155525473221
 21
94.743575496132493
 31
0.0
 12
2728.8155525473212
 22
102.24357549613239
 32
0.0
 13
2728.8155525473212
 23
102.24357549613239
 33
0.0
  0
SOLID
  5
F9C
  8
DIM
 10
3183.817213719326
 20
109.74357549613239
 30
0.0
 11
3183.817213719326
 21
94.743575496132493
 31
0.0
 12
3228.817213719326
 22
102.24357549613239
 32
0.0
 13
3228.817213719326
 23
102.24357549613239
 33
0.0
  0
TEXT
  5
F9D
  8
DIM
 10
2922.5388268508318
 20
79.743575496132408
 30
0.0
 40
45.0
  1
500
  7
TITLE3
 72
     1
 11
2980.395969707974
 21
102.24357549613239
 31
0.0
 73
     2
  0
LINE
  5
F9E
  8
DIM
 10
3228.817213719326
 20
199.8651136766984
 30
0.0
 11
3228.817213719326
 21
72.243575496132522
 31
0.0
  0
LINE
  5
F9F
  8
DIM
 10
3398.8163831333218
 20
234.26871024395169
 30
0.0
 11
3398.8163831333218
 21
72.243575496132522
 31
0.0
  0
LINE
  5
FA0
  8
DIM
 10
3061.4092367748658
 20
102.24357549613239
 30
0.0
 11
3187.7763720271919
 21
102.24357549613239
 31
0.0
  0
LINE
  5
FA1
  8
DIM
 10
3443.8163831333218
 20
102.24357549613239
 30
0.0
 11
3488.8163831333231
 21
102.24357549613239
 31
0.0
  0
SOLID
  5
FA2
  8
DIM
 10
3183.817213719326
 20
109.74357549613239
 30
0.0
 11
3183.817213719326
 21
94.743575496132493
 31
0.0
 12
3228.817213719326
 22
102.24357549613239
 32
0.0
 13
3228.817213719326
 23
102.24357549613239
 33
0.0
  0
SOLID
  5
FA3
  8
DIM
 10
3443.8163831333218
 20
109.74357549613239
 30
0.0
 11
3443.8163831333218
 21
94.743575496132493
 31
0.0
 12
3398.8163831333218
 22
102.24357549613239
 32
0.0
 13
3398.8163831333218
 23
102.24357549613239
 33
0.0
  0
TEXT
  5
FA4
  8
DIM
 10
3265.056798573386
 20
86.477520514496803
 30
0.0
 40
45.0
  1
170
  7
TITLE3
 72
     1
 11
3318.6282271448149
 21
108.9775205144968
 31
0.0
 73
     2
  0
SOLID
  5
FA5
  8
DIM
 10
2466.8163831333241
 20
109.74357549613239
 30
0.0
 11
2466.8163831333241
 21
94.743575496132493
 31
0.0
 12
2511.8163831333241
 22
102.24357549613239
 32
0.0
 13
2511.8163831333241
 23
102.24357549613239
 33
0.0
  0
LINE
  5
FA6
  8
DIM
 10
2511.8163831333241
 20
234.26871024395169
 30
0.0
 11
2511.8163831333241
 21
72.243575496132522
 31
0.0
  0
LINE
  5
FA7
  8
DIM
 10
2466.8163831333241
 20
102.24357549613239
 30
0.0
 11
2421.8163831333241
 21
102.24357549613239
 31
0.0
  0
TEXT
  5
FA8
  8
DIM
 10
2575.1547333990561
 20
84.435349572627203
 30
0.0
 40
45.0
  1
217
  7
TITLE3
 72
     1
 11
2628.726161970485
 21
106.9353495726272
 31
0.0
 73
     2
  0
LINE
  5
FA9
  8
DIM
 10
4574.1179798363737
 20
3323.7830840071042
 30
0.0
 11
4489.621356504922
 21
3323.7830840071042
 31
0.0
  0
LINE
  5
FAA
  8
DIM
 10
4574.1179798363737
 20
3655.7830840071042
 30
0.0
 11
4489.621356504922
 21
3655.7830840071042
 31
0.0
  0
LINE
  5
FAB
  8
DIM
 10
4519.6213565049238
 20
3368.7830840071042
 30
0.0
 11
4519.6213565049238
 21
3413.806749711287
 31
0.0
  0
LINE
  5
FAC
  8
DIM
 10
4519.6213565049238
 20
3610.7830840071028
 30
0.0
 11
4519.6213565049238
 21
3567.7735309792261
 31
0.0
  0
SOLID
  5
FAD
  8
DIM
 10
4512.121356504922
 20
3368.7830840071042
 30
0.0
 11
4527.121356504922
 21
3368.7830840071042
 31
0.0
 12
4519.6213565049238
 22
3323.7830840071042
 32
0.0
 13
4519.6213565049238
 23
3323.7830840071042
 33
0.0
  0
SOLID
  5
FAE
  8
DIM
 10
4512.121356504922
 20
3610.7830840071028
 30
0.0
 11
4527.121356504922
 21
3610.7830840071028
 31
0.0
 12
4519.6213565049238
 22
3655.7830840071042
 32
0.0
 13
4519.6213565049238
 23
3655.7830840071042
 33
0.0
  0
TEXT
  5
FAF
  8
DIM
 10
4542.1213565049238
 20
3432.932997488113
 30
0.0
 40
45.0
  1
332
 50
90.0
  7
TITLE3
 72
     1
 11
4519.6213565049238
 21
3490.7901403452561
 31
0.0
 73
     2
  0
LINE
  5
FB0
  8
OUTLINE
 10
2673.1155525473209
 20
3310.0830840071039
 30
0.0
 11
2784.515552547321
 21
3310.0830840071039
 31
0.0
  0
LINE
  5
FB1
  8
OUTLINE
 10
2663.5155525473201
 20
3323.7830840071042
 30
0.0
 11
2663.5155525473201
 21
3319.6830840071052
 31
0.0
  0
LINE
  5
FB2
  8
OUTLINE
 10
2663.5155525473201
 20
3319.6830840071052
 30
0.0
 11
2673.1155525473209
 21
3310.0830840071039
 31
0.0
  0
LINE
  5
FB3
  8
OUTLINE
 10
2794.1155525473209
 20
3319.6830840071052
 30
0.0
 11
2784.515552547321
 21
3310.0830840071039
 31
0.0
  0
LINE
  5
FB4
  8
OUTLINE
 10
2794.1155525473209
 20
3319.6830840071061
 30
0.0
 11
2794.1155525473209
 21
3323.7830840071042
 31
0.0
  0
LINE
  5
FB5
  8
OUTLINE
 10
2714.8155525473198
 20
3669.483084007104
 30
0.0
 11
2673.1155525473209
 21
3669.483084007104
 31
0.0
  0
LINE
  5
FB6
  8
OUTLINE
 10
2663.5155525473201
 20
3659.8830840071041
 30
0.0
 11
2663.5155525473201
 21
3655.7830840071042
 31
0.0
  0
LINE
  5
FB7
  8
OUTLINE
 10
2663.5155525473201
 20
3659.8830840071041
 30
0.0
 11
2673.1155525473209
 21
3669.483084007104
 31
0.0
  0
LINE
  5
FB8
  8
OUTLINE
 10
2794.1155525473209
 20
3659.8830840071032
 30
0.0
 11
2784.515552547321
 21
3669.483084007104
 31
0.0
  0
LINE
  5
FB9
  8
OUTLINE
 10
2784.515552547321
 20
3669.483084007104
 30
0.0
 11
2742.8155525473189
 21
3669.483084007104
 31
0.0
  0
LINE
  5
FBA
  8
OUTLINE
 10
2714.8155525473198
 20
3669.483084007104
 30
0.0
 11
2722.8155525473212
 21
3661.483084007104
 31
0.0
  0
LINE
  5
FBB
  8
OUTLINE
 10
2742.8155525473189
 20
3669.483084007104
 30
0.0
 11
2734.8155525473189
 21
3661.483084007104
 31
0.0
  0
LINE
  5
FBC
  8
OUTLINE
 10
2722.8155525473212
 20
3655.7830840071042
 30
0.0
 11
2722.8155525473212
 21
3661.483084007104
 31
0.0
  0
LINE
  5
FBD
  8
OUTLINE
 10
2734.8155525473189
 20
3655.7830840071042
 30
0.0
 11
2734.8155525473189
 21
3661.483084007104
 31
0.0
  0
LINE
  5
FBE
  8
OUTLINE
 10
2794.1155525473209
 20
3655.7830840071042
 30
0.0
 11
2794.1155525473209
 21
3659.8830840071041
 31
0.0
  0
INSERT
  5
FCE
  8
MTG-FEET
  2
LINES
 10
637.42319439946073
 20
2246.7294005091198
 30
0.0
  0
LINE
  5
FCF
  8
OUTLINE
 10
5268.1179798363746
 20
3303.2830840071042
 30
0.0
 11
5268.1179798363746
 21
3680.2830840071051
 31
0.0
  0
LINE
  5
FD2
  8
OUTLINE
 10
5268.1179798363746
 20
3303.2830840071042
 30
0.0
 11
5266.1179798363746
 21
3303.2830840071042
 31
0.0
  0
LINE
  5
FD3
  8
OUTLINE
 10
5255.217979836375
 20
3329.5084775519499
 30
0.0
 11
5243.1179798363764
 21
3329.5084775519499
 31
0.0
  0
LINE
  5
FD5
  8
OUTLINE
 10
5266.1179798363746
 20
3680.2830840071051
 30
0.0
 11
5268.1179798363746
 21
3680.2830840071051
 31
0.0
  0
LINE
  5
FD6
  8
OUTLINE
 10
5255.217979836375
 20
3648.9830840071031
 30
0.0
 11
5243.1179798363764
 21
3648.9830840071031
 31
0.0
  0
LINE
  5
FD8
  8
DIM
 10
5298.1179798363764
 20
3303.2830840071042
 30
0.0
 11
5646.6357279506728
 21
3303.2830840071042
 31
0.0
  0
LINE
  5
FD9
  8
DIM
 10
5298.1179798363764
 20
3680.2830840071051
 30
0.0
 11
5646.6357279506728
 21
3680.2830840071051
 31
0.0
  0
LINE
  5
FDA
  8
DIM
 10
5616.6357279506738
 20
3348.2830840071042
 30
0.0
 11
5616.6357279506738
 21
3424.1916419061308
 31
0.0
  0
LINE
  5
FDB
  8
DIM
 10
5616.6357279506738
 20
3568.37111192166
 30
0.0
 11
5616.6357279506738
 21
3635.9947495861979
 31
0.0
  0
SOLID
  5
FDC
  8
DIM
 10
5609.1357279506738
 20
3348.2830840071042
 30
0.0
 11
5624.1357279506719
 21
3348.2830840071042
 31
0.0
 12
5616.6357279506738
 22
3303.2830840071042
 32
0.0
 13
5616.6357279506738
 23
3303.2830840071042
 33
0.0
  0
SOLID
  5
FDD
  8
DIM
 10
5609.1357279506738
 20
3635.2830840071042
 30
0.0
 11
5624.1357279506719
 21
3635.2830840071042
 31
0.0
 12
5616.6357279506738
 22
3680.2830840071051
 32
0.0
 13
5616.6357279506738
 23
3680.2830840071051
 33
0.0
  0
TEXT
  5
FDE
  8
DIM
 10
5634.2076977030601
 20
3448.389852987219
 30
0.0
 40
36.0
  1
377
 50
90.0
  7
TITLE3
 72
     1
 11
5616.2076977030601
 21
3494.6755672729332
 31
0.0
 73
     2
  0
TEXT
  5
FDF
  8
DIM
 62
     3
 10
4445.5737691718496
 20
165.0
 30
0.0
 40
45.0
  1
03.07.07
 41
0.8358208955223819
  7
TITLE3
 72
     5
 11
4685.5737691718477
 21
165.0
 31
0.0
  0
TEXT
  5
FE0
  8
OVERLAY-A3
 10
4272.345334441874
 20
166.24682079015139
 30
0.0
 40
36.0
  1
Date
  7
SIMPLEX
  0
TEXT
  5
FE1
  8
OVERLAY-A3
 10
5619.166788560402
 20
194.25495303511681
 30
0.0
 40
36.0
  1
Revision
 41
0.7812095035934883
  7
SIMPLEX
 72
     5
 11
5777.1943110015991
 21
194.25495303511681
 31
0.0
  0
LINE
  5
FE2
  8
OVERLAY-A3
 10
5601.7370249852393
 20
31.2637392724757
 30
0.0
 11
5601.7370249852393
 21
252.40298356282
 31
0.0
  0
LINE
  5
FE3
  8
OVERLAY-A3
 10
4229.0272941857229
 20
505.82662824683229
 30
0.0
 11
4229.0272941857229
 21
31.2637392724757
 31
0.0
  0
LINE
  5
FE4
  8
OVERLAY-A3
 10
5125.3705170196408
 20
31.2637392724757
 30
0.0
 11
5125.3705170196408
 21
252.40298356282
 31
0.0
  0
LINE
  5
FE5
  8
OVERLAY-A3
 10
5125.370517019639
 20
139.9688989041955
 30
0.0
 11
4229.0272941857229
 21
139.9688989041955
 31
0.0
  0
LINE
  5
FE6
  8
OVERLAY-A3
 10
5792.3631978567637
 20
252.40298356282
 30
0.0
 11
4229.0272941857229
 21
252.40298356282
 31
0.0
  0
LINE
  5
FE7
  8
OVERLAY-A3
 10
4229.0272941857229
 20
31.2637392724757
 30
0.0
 11
5791.9169370892359
 21
31.2637392724757
 31
0.0
  0
LINE
  5
FE8
  8
OVERLAY-A3
 10
5791.9169370892359
 20
31.2637392724757
 30
0.0
 11
5791.9169370892359
 21
505.82662824683229
 31
0.0
  0
LINE
  5
FE9
  8
OVERLAY-A3
 10
5791.9169370892359
 20
505.82662824683229
 30
0.0
 11
4229.0272941857229
 21
505.82662824683229
 31
0.0
  0
TEXT
  5
FEA
  8
OVERLAY-A3
 10
4266.7248286546628
 20
71.883732098036546
 30
0.0
 40
30.0
  1
Scale
 41
1.3701747965660029
  7
SIMPLEX
 72
     5
 11
4417.4440562769232
 21
71.883732098036546
 31
0.0
  0
TEXT
  5
FEB
  8
OVERLAY-A3
 10
5212.2886854011949
 20
193.3401472600643
 30
0.0
 40
30.0
  1
Drawing No.
  7
SIMPLEX
 72
     2
 11
5473.7172568297656
 21
193.3401472600643
 31
0.0
  0
LINE
  5
FEC
  8
OVERLAY-A3
 10
1671.499909257496
 20
0.0
 30
0.0
 11
5835.0
 21
0.0
 31
0.0
  0
LINE
  5
FED
  8
OVERLAY-A3
 10
5835.0
 20
0.0
 30
0.0
 11
5835.0
 21
4098.3245276957487
 31
0.0
  0
LINE
  5
FEE
  8
OVERLAY-A3
 10
5835.0
 20
4098.3245276957487
 30
0.0
 11
1671.499909257496
 21
4098.3245276957496
 31
0.0
  0
LINE
  5
FEF
  8
OVERLAY-A3
 10
1671.499909257496
 20
4098.3245276957496
 30
0.0
 11
1671.499909257496
 21
0.0
 31
0.0
  0
TEXT
  5
FF0
  8
DIM
 62
     3
 10
4499.1433054549598
 20
74.210057023356939
 30
0.0
 40
45.0
  1
1:20
  7
TITLE3
  0
LINE
  5
FF2
  8
OUTLINE
 10
3159.817213719326
 20
214.66871024395161
 30
0.0
 11
3297.817213719326
 21
214.66871024395161
 31
0.0
  0
LINE
  5
FF3
  8
OUTLINE
 10
3159.817213719326
 20
247.66871024395141
 30
0.0
 11
3159.817213719326
 21
214.66871024395149
 31
0.0
  0
LINE
  5
FF4
  8
OUTLINE
 10
3297.817213719326
 20
247.2687102439516
 30
0.0
 11
3297.817213719326
 21
214.66871024395149
 31
0.0
  0
LINE
  5
FF5
  8
OUTLINE
 10
2659.8155525473198
 20
214.66871024395161
 30
0.0
 11
2797.8155525473221
 21
214.66871024395161
 31
0.0
  0
LINE
  5
FF6
  8
OUTLINE
 10
2659.8155525473198
 20
247.66871024395141
 30
0.0
 11
2659.8155525473198
 21
214.66871024395161
 31
0.0
  0
LINE
  5
FF7
  8
OUTLINE
 10
2797.8155525473221
 20
247.66871024395141
 30
0.0
 11
2797.8155525473221
 21
214.66871024395161
 31
0.0
  0
LINE
  5
FF8
  8
DIM
 10
5301.4137564765879
 20
3323.7830840071042
 30
0.0
 11
5485.2625352663572
 21
3323.7830840071042
 31
0.0
  0
LINE
  5
FF9
  8
DIM
 10
5301.4137564765879
 20
3654.7830840071042
 30
0.0
 11
5485.2625352663572
 21
3654.7830840071042
 31
0.0
  0
LINE
  5
FFB
  8
DIM
 10
5455.2625352663572
 20
3725.2830840071051
 30
0.0
 11
5455.2625352663572
 21
3770.2830840071051
 31
0.0
  0
SOLID
  5
FFD
  8
DIM
 10
5447.7625352663599
 20
3725.2830840071051
 30
0.0
 11
5462.7625352663572
 21
3725.2830840071051
 31
0.0
 12
5455.2625352663572
 22
3680.2830840071051
 32
0.0
 13
5455.2625352663572
 23
3680.2830840071051
 33
0.0
  0
TEXT
  5
FFE
  8
DIM
 10
5431.0147597885489
 20
3359.1557162789022
 30
0.0
 40
36.0
  1
331 CTRS
 50
90.0
  7
TITLE3
  0
LINE
  5
FFF
  8
CLEAR
 10
2411.8163831333218
 20
3755.7830840071042
 30
0.0
 11
4148.8163831333186
 21
3755.7830840071042
 31
0.0
  0
LINE
  5
1000
  8
CLEAR
 10
2511.8163831333231
 20
1323.783084007104
 30
0.0
 11
3398.8163831333218
 21
1323.783084007104
 31
0.0
  0
LINE
  5
1001
  8
CLEAR
 10
4148.8163831333186
 20
3323.7830840071042
 30
0.0
 11
4148.8163831333186
 21
3755.7830840071042
 31
0.0
  0
LINE
  5
1002
  8
CLEAR
 10
2411.8163831333218
 20
3323.7830840071042
 30
0.0
 11
2411.8163831333218
 21
3755.7830840071042
 31
0.0
  0
LINE
  5
1003
  8
CLEAR
 10
2411.8163831333218
 20
3323.7830840071042
 30
0.0
 11
2471.4070356155271
 21
3323.7830840071042
 31
0.0
  0
LINE
  5
1004
  8
CLEAR
 10
2511.8163831333231
 20
1323.783084007104
 30
0.0
 11
2511.8163831333231
 21
3272.5677011479579
 31
0.0
  0
LINE
  5
1006
  8
CLEAR
 10
4148.8163831333186
 20
3323.7830840071042
 30
0.0
 11
3437.9236455928931
 21
3323.7830840071042
 31
0.0
  0
TEXT
  5
1007
  8
TEXT
 62
     3
 10
3000.0208428885139
 20
749.52030143617719
 30
0.0
 40
75.0
  1
OSA55
  7
TITLE5
 72
     1
 11
3175.0208428885139
 21
749.52030143617719
 31
0.0
  0
TEXT
  5
1008
  8
TEXT
 62
     3
 10
2597.2415076779489
 20
3796.0315202279871
 30
0.0
 40
45.0
  1
100 min CLEARANCE
  7
TITLE3
  0
TEXT
  5
1009
  8
TEXT
 62
     3
 10
2565.7021018203209
 20
1368.228994422454
 30
0.0
 40
45.0
  1
2000 min CLEARANCE
  7
TITLE3
  0
TEXT
  5
100A
  8
TEXT
 62
     3
 10
2308.3279082189879
 20
3400.6292873016141
 30
0.0
 40
45.0
  1
100 min
 50
90.0
  7
TITLE3
  0
TEXT
  5
100B
  8
TEXT
 62
     3
 10
2385.4707653618461
 20
3349.9740516290331
 30
0.0
 40
45.0
  1
CLEARANCE
 50
90.0
  7
TITLE3
  0
TEXT
  5
100C
  8
TEXT
 62
     3
 10
4042.1009649146849
 20
3397.513449354632
 30
0.0
 40
45.0
  1
750 min
 50
90.0
  7
TITLE3
  0
TEXT
  5
100D
  8
TEXT
 62
     3
 10
4119.2438220575423
 20
3346.8582136820528
 30
0.0
 40
45.0
  1
CLEARANCE
 50
90.0
  7
TITLE3
  0
TEXT
  5
100E
  8
TEXT
 62
     3
 10
4738.5275755177381
 20
3472.51798686557
 30
0.0
 40
75.0
  1
OSA55
  7
TITLE5
 72
     1
 11
4913.5275755177381
 21
3472.51798686557
 31
0.0
  0
TEXT
  5
100F
  8
TEXT
 62
     3
 10
2764.1347790973541
 20
3475.4267133308808
 30
0.0
 40
75.0
  1
OSA55
  7
TITLE5
 72
     1
 11
2939.1347790973541
 21
3475.4267133308808
 31
0.0
  0
LINE
  5
106C
  8
CLEAR
 10
3398.8163831333218
 20
1323.783084007104
 30
0.0
 11
3398.8163831333218
 21
3272.5677011479579
 31
0.0
  0
LINE
  5
106E
  8
OUTLINE
 10
3173.1155525473218
 20
3310.0830840071039
 30
0.0
 11
3284.515552547321
 21
3310.0830840071039
 31
0.0
  0
LINE
  5
106F
  8
OUTLINE
 10
3163.5155525473201
 20
3323.7830840071042
 30
0.0
 11
3163.5155525473201
 21
3319.6830840071052
 31
0.0
  0
LINE
  5
1070
  8
OUTLINE
 10
3163.5155525473201
 20
3319.6830840071052
 30
0.0
 11
3173.1155525473218
 21
3310.0830840071039
 31
0.0
  0
LINE
  5
1071
  8
OUTLINE
 10
3294.1155525473209
 20
3319.6830840071052
 30
0.0
 11
3284.515552547321
 21
3310.0830840071039
 31
0.0
  0
LINE
  5
1072
  8
OUTLINE
 10
3294.1155525473209
 20
3319.6830840071061
 30
0.0
 11
3294.1155525473209
 21
3323.7830840071042
 31
0.0
  0
LINE
  5
1073
  8
OUTLINE
 10
3214.8155525473198
 20
3669.483084007104
 30
0.0
 11
3173.1155525473218
 21
3669.483084007104
 31
0.0
  0
LINE
  5
1074
  8
OUTLINE
 10
3163.5155525473201
 20
3659.8830840071041
 30
0.0
 11
3163.5155525473201
 21
3655.7830840071042
 31
0.0
  0
LINE
  5
1075
  8
OUTLINE
 10
3163.5155525473201
 20
3659.8830840071041
 30
0.0
 11
3173.1155525473218
 21
3669.483084007104
 31
0.0
  0
LINE
  5
1076
  8
OUTLINE
 10
3294.1155525473209
 20
3659.8830840071032
 30
0.0
 11
3284.515552547321
 21
3669.483084007104
 31
0.0
  0
LINE
  5
1077
  8
OUTLINE
 10
3284.515552547321
 20
3669.483084007104
 30
0.0
 11
3242.8155525473189
 21
3669.483084007104
 31
0.0
  0
LINE
  5
1078
  8
OUTLINE
 10
3214.8155525473198
 20
3669.483084007104
 30
0.0
 11
3222.8155525473198
 21
3661.483084007104
 31
0.0
  0
LINE
  5
1079
  8
OUTLINE
 10
3242.8155525473189
 20
3669.483084007104
 30
0.0
 11
3234.8155525473189
 21
3661.483084007104
 31
0.0
  0
LINE
  5
107A
  8
OUTLINE
 10
3222.8155525473198
 20
3655.7830840071042
 30
0.0
 11
3222.8155525473198
 21
3661.483084007104
 31
0.0
  0
LINE
  5
107B
  8
OUTLINE
 10
3234.8155525473189
 20
3655.7830840071042
 30
0.0
 11
3234.8155525473189
 21
3661.483084007104
 31
0.0
  0
LINE
  5
107C
  8
OUTLINE
 10
3294.1155525473209
 20
3655.7830840071042
 30
0.0
 11
3294.1155525473209
 21
3659.8830840071041
 31
0.0
  0
LINE
  5
1083
  8
OUTLINE
 10
4604.1179798363728
 20
3323.7830840071042
 30
0.0
 11
5243.1179798363764
 21
3323.7830840071042
 31
0.0
  0
LINE
  5
1084
  8
OUTLINE
 10
4604.1179798363764
 20
3655.7830840071042
 30
0.0
 11
5243.1179798363764
 21
3655.7830840071019
 31
0.0
  0
LINE
  5
1085
  8
OUTLINE
 10
5255.217979836375
 20
3648.9830840071031
 30
0.0
 11
5266.1179798363746
 21
3680.2830840071051
 31
0.0
  0
LINE
  5
1086
  8
OUTLINE
 10
5255.217979836375
 20
3329.5084775519499
 30
0.0
 11
5266.1179798363746
 21
3303.2830840071042
 31
0.0
  0
CIRCLE
  5
108B
  8
OUTLINE
 10
2778.7991697041311
 20
563.16871024395164
 30
0.0
 40
218.5
  0
TEXT
  5
10A0
  8
DIM
 62
     3
 10
5115.8581734788086
 20
556.56898589035484
 30
0.0
 40
28.0
  1
available on request
  7
TITLE3
  0
TEXT
  5
10A1
  8
DIM
 62
     3
 10
5115.8581734788086
 20
604.56898589035472
 30
0.0
 40
28.0
  1
Certified dimensions
  7
TITLE3
  0
TEXT
  5
10A2
  8
DIM
 62
     3
 10
5115.8581734788086
 20
652.56898589035472
 30
0.0
 40
28.0
  1
without notice or obligation.
  7
TITLE3
  0
TEXT
  5
10A3
  8
DIM
 62
     3
 10
5115.8581734788086
 20
700.56898589035472
 30
0.0
 40
28.0
  1
specifications at any time
  7
TITLE3
  0
TEXT
  5
10A4
  8
DIM
 62
     3
 10
5115.8581734788086
 20
748.56898589035472
 30
0.0
 40
28.0
  1
the right to change 
  7
TITLE3
  0
TEXT
  5
10A5
  8
DIM
 62
     3
 10
5115.8581734788086
 20
844.56898589035472
 30
0.0
 40
28.0
  1
NOTE
  7
TITLE3
  0
TEXT
  5
10A6
  8
DIM
 62
     3
 10
5115.8581734788086
 20
796.56898589035472
 30
0.0
 40
28.0
  1
The manufacturer reserves
  7
TITLE3
  0
LINE
  5
10AB
  8
DIM
 10
5455.2625352663572
 20
3609.7830840071042
 30
0.0
 11
5455.2625352663572
 21
3368.7830840071042
 31
0.0
  0
SOLID
  5
10AC
  8
DIM
 10
5447.7625352663599
 20
3609.7830840071042
 30
0.0
 11
5462.7625352663572
 21
3609.7830840071042
 31
0.0
 12
5455.2625352663572
 22
3654.7830840071042
 32
0.0
 13
5455.2625352663572
 23
3654.7830840071042
 33
0.0
  0
SOLID
  5
10AE
  8
DIM
 10
5447.7625352663599
 20
3368.7830840071042
 30
0.0
 11
5462.7625352663572
 21
3368.7830840071042
 31
0.0
 12
5455.2625352663572
 22
3323.7830840071042
 32
0.0
 13
5455.2625352663572
 23
3323.7830840071042
 33
0.0
  0
TEXT
  5
10AF
  8
DIM
 10
5434.1799813285479
 20
3737.125080465295
 30
0.0
 40
36.0
  1
25.5
 50
90.0
  7
TITLE3
 72
     1
 11
5416.1799813285479
 21
3791.9822233224372
 31
0.0
 73
     2
  0
ENDSEC
  0
EOF
